ISO-10303-21;
HEADER;
/* Generated by software containing ST-Developer
 * from STEP Tools, Inc. (www.steptools.com) 
 */
/* OPTION: using custom schema-name function */

FILE_DESCRIPTION(
/* description */ (''),
/* implementation_level */ '2;1');

FILE_NAME(
/* name */ 'DLC4LATBR200T040AP30.stp',
/* time_stamp */ '2023-04-06T09:54:04+09:00',
/* author */ (''),
/* organization */ (''),
/* preprocessor_version */ 'ST-DEVELOPER v16',
/* originating_system */ 'SIEMENS PLM Software NX 10.0',
/* authorisation */ '');

FILE_SCHEMA (('AUTOMOTIVE_DESIGN { 1 0 10303 214 3 1 1 1 }'));
ENDSEC;

DATA;
#10=CONSTRUCTIVE_GEOMETRY_REPRESENTATION_RELATIONSHIP(
'supplemental geometry','',#26,#11);
#11=CONSTRUCTIVE_GEOMETRY_REPRESENTATION('supplemental geometry',(#287,
#288,#289,#290,#291,#292,#293,#294,#295,#296),#478);
#12=GEOMETRICALLY_BOUNDED_WIREFRAME_SHAPE_REPRESENTATION(
'DLC4LATBR200T040AP30-None',(#27),#478);
#13=SHAPE_REPRESENTATION_RELATIONSHIP('None',
'relationship between DLC4LATBR200T040AP30-None and DLC4LATBR200T040AP
30-None',#26,#15);
#14=SHAPE_REPRESENTATION_RELATIONSHIP('None',
'relationship between DLC4LATBR200T040AP30-None and DLC4LATBR200T040AP
30-None',#26,#12);
#15=ADVANCED_BREP_SHAPE_REPRESENTATION('DLC4LATBR200T040AP30-None',(#40,
#41),#478);
#16=SHAPE_DEFINITION_REPRESENTATION(#17,#26);
#17=PRODUCT_DEFINITION_SHAPE('','SHAPE FOR DLC4LATBR200T040AP30_ASM.',#18);
#18=PRODUCT_DEFINITION('part definition','',#20,#19);
#19=PRODUCT_DEFINITION_CONTEXT('part definition',#25,'design');
#20=PRODUCT_DEFINITION_FORMATION_WITH_SPECIFIED_SOURCE(' ',' ',#22,
 .NOT_KNOWN.);
#21=PRODUCT_RELATED_PRODUCT_CATEGORY('part','',(#22));
#22=PRODUCT('DLC4LATBR200T040AP30_ASM','DLC4LATBR200T040AP30_ASM',
'NOT SPECIFIED',(#23));
#23=PRODUCT_CONTEXT('',#25,'mechanical');
#24=APPLICATION_PROTOCOL_DEFINITION('international standard',
'automotive_design',2010,#25);
#25=APPLICATION_CONTEXT(
'core data for automotive mechanical design processes');
#26=SHAPE_REPRESENTATION('DLC4LATBR200T040AP30-None',(#285),#478);
#27=GEOMETRIC_CURVE_SET('None',(#414,#216,#217,#218,#219));
#28=CYLINDRICAL_SURFACE('',#316,4.);
#29=CYLINDRICAL_SURFACE('',#318,4.);
#30=SURFACE_STYLE_USAGE(.BOTH.,#32);
#31=SURFACE_STYLE_USAGE(.BOTH.,#33);
#32=SURFACE_SIDE_STYLE('',(#34));
#33=SURFACE_SIDE_STYLE('',(#35));
#34=SURFACE_STYLE_FILL_AREA(#36);
#35=SURFACE_STYLE_FILL_AREA(#37);
#36=FILL_AREA_STYLE('',(#38));
#37=FILL_AREA_STYLE('',(#39));
#38=FILL_AREA_STYLE_COLOUR('',#283);
#39=FILL_AREA_STYLE_COLOUR('',#284);
#40=MANIFOLD_SOLID_BREP('CUT',#42);
#41=MANIFOLD_SOLID_BREP('NOCUT',#43);
#42=CLOSED_SHELL('',(#49,#50,#51,#52,#53));
#43=CLOSED_SHELL('',(#54,#55,#56,#57,#58,#59,#60,#61));
#44=SPHERICAL_SURFACE('',#306,2.);
#45=SPHERICAL_SURFACE('',#307,2.);
#46=PLANE('',#301);
#47=PLANE('',#312);
#48=PLANE('',#323);
#49=ADVANCED_FACE('',(#68),#62,.T.);
#50=ADVANCED_FACE('',(#69),#46,.F.);
#51=ADVANCED_FACE('',(#70),#63,.T.);
#52=ADVANCED_FACE('',(#71),#44,.T.);
#53=ADVANCED_FACE('',(#72),#45,.T.);
#54=ADVANCED_FACE('',(#73),#64,.T.);
#55=ADVANCED_FACE('',(#74),#47,.F.);
#56=ADVANCED_FACE('',(#75),#65,.T.);
#57=ADVANCED_FACE('',(#76),#28,.T.);
#58=ADVANCED_FACE('',(#77),#29,.T.);
#59=ADVANCED_FACE('',(#78),#66,.T.);
#60=ADVANCED_FACE('',(#79),#67,.T.);
#61=ADVANCED_FACE('',(#80),#48,.F.);
#62=CONICAL_SURFACE('',#299,2.97898131555,4.);
#63=CONICAL_SURFACE('',#303,2.97898131555,4.);
#64=CONICAL_SURFACE('',#310,3.98141726529,4.);
#65=CONICAL_SURFACE('',#314,3.98141726529,4.);
#66=CONICAL_SURFACE('',#320,3.75,45.);
#67=CONICAL_SURFACE('',#322,3.75,45.);
#68=FACE_OUTER_BOUND('',#81,.T.);
#69=FACE_OUTER_BOUND('',#82,.T.);
#70=FACE_OUTER_BOUND('',#83,.T.);
#71=FACE_OUTER_BOUND('',#84,.T.);
#72=FACE_OUTER_BOUND('',#85,.T.);
#73=FACE_OUTER_BOUND('',#86,.T.);
#74=FACE_OUTER_BOUND('',#87,.T.);
#75=FACE_OUTER_BOUND('',#88,.T.);
#76=FACE_OUTER_BOUND('',#89,.T.);
#77=FACE_OUTER_BOUND('',#90,.T.);
#78=FACE_OUTER_BOUND('',#91,.T.);
#79=FACE_OUTER_BOUND('',#92,.T.);
#80=FACE_OUTER_BOUND('',#93,.T.);
#81=EDGE_LOOP('',(#94,#95,#96,#97));
#82=EDGE_LOOP('',(#98,#99));
#83=EDGE_LOOP('',(#100,#101,#102,#103));
#84=EDGE_LOOP('',(#104,#105,#106));
#85=EDGE_LOOP('',(#107,#108,#109));
#86=EDGE_LOOP('',(#110,#111,#112,#113));
#87=EDGE_LOOP('',(#114,#115));
#88=EDGE_LOOP('',(#116,#117,#118,#119));
#89=EDGE_LOOP('',(#120,#121,#122,#123));
#90=EDGE_LOOP('',(#124,#125,#126,#127));
#91=EDGE_LOOP('',(#128,#129,#130,#131));
#92=EDGE_LOOP('',(#132,#133,#134,#135));
#93=EDGE_LOOP('',(#136,#137));
#94=ORIENTED_EDGE('',*,*,#151,.T.);
#95=ORIENTED_EDGE('',*,*,#152,.T.);
#96=ORIENTED_EDGE('',*,*,#153,.F.);
#97=ORIENTED_EDGE('',*,*,#154,.T.);
#98=ORIENTED_EDGE('',*,*,#155,.F.);
#99=ORIENTED_EDGE('',*,*,#154,.F.);
#100=ORIENTED_EDGE('',*,*,#153,.T.);
#101=ORIENTED_EDGE('',*,*,#156,.T.);
#102=ORIENTED_EDGE('',*,*,#151,.F.);
#103=ORIENTED_EDGE('',*,*,#155,.T.);
#104=ORIENTED_EDGE('',*,*,#157,.T.);
#105=ORIENTED_EDGE('',*,*,#156,.F.);
#106=ORIENTED_EDGE('',*,*,#158,.F.);
#107=ORIENTED_EDGE('',*,*,#152,.F.);
#108=ORIENTED_EDGE('',*,*,#157,.F.);
#109=ORIENTED_EDGE('',*,*,#158,.T.);
#110=ORIENTED_EDGE('',*,*,#159,.F.);
#111=ORIENTED_EDGE('',*,*,#160,.F.);
#112=ORIENTED_EDGE('',*,*,#161,.T.);
#113=ORIENTED_EDGE('',*,*,#162,.T.);
#114=ORIENTED_EDGE('',*,*,#163,.F.);
#115=ORIENTED_EDGE('',*,*,#162,.F.);
#116=ORIENTED_EDGE('',*,*,#161,.F.);
#117=ORIENTED_EDGE('',*,*,#164,.F.);
#118=ORIENTED_EDGE('',*,*,#159,.T.);
#119=ORIENTED_EDGE('',*,*,#163,.T.);
#120=ORIENTED_EDGE('',*,*,#164,.T.);
#121=ORIENTED_EDGE('',*,*,#165,.T.);
#122=ORIENTED_EDGE('',*,*,#166,.T.);
#123=ORIENTED_EDGE('',*,*,#167,.F.);
#124=ORIENTED_EDGE('',*,*,#168,.T.);
#125=ORIENTED_EDGE('',*,*,#165,.F.);
#126=ORIENTED_EDGE('',*,*,#160,.T.);
#127=ORIENTED_EDGE('',*,*,#167,.T.);
#128=ORIENTED_EDGE('',*,*,#169,.T.);
#129=ORIENTED_EDGE('',*,*,#170,.T.);
#130=ORIENTED_EDGE('',*,*,#168,.F.);
#131=ORIENTED_EDGE('',*,*,#171,.F.);
#132=ORIENTED_EDGE('',*,*,#166,.F.);
#133=ORIENTED_EDGE('',*,*,#170,.F.);
#134=ORIENTED_EDGE('',*,*,#172,.T.);
#135=ORIENTED_EDGE('',*,*,#171,.T.);
#136=ORIENTED_EDGE('',*,*,#169,.F.);
#137=ORIENTED_EDGE('',*,*,#172,.F.);
#138=VERTEX_POINT('',#430);
#139=VERTEX_POINT('',#431);
#140=VERTEX_POINT('',#433);
#141=VERTEX_POINT('',#435);
#142=VERTEX_POINT('',#443);
#143=VERTEX_POINT('',#448);
#144=VERTEX_POINT('',#449);
#145=VERTEX_POINT('',#451);
#146=VERTEX_POINT('',#453);
#147=VERTEX_POINT('',#461);
#148=VERTEX_POINT('',#463);
#149=VERTEX_POINT('',#469);
#150=VERTEX_POINT('',#470);
#151=EDGE_CURVE('',#138,#139,#223,.T.);
#152=EDGE_CURVE('',#139,#140,#174,.T.);
#153=EDGE_CURVE('',#141,#140,#224,.T.);
#154=EDGE_CURVE('',#141,#138,#175,.T.);
#155=EDGE_CURVE('',#138,#141,#176,.T.);
#156=EDGE_CURVE('',#140,#139,#177,.T.);
#157=EDGE_CURVE('',#142,#139,#178,.T.);
#158=EDGE_CURVE('',#142,#140,#179,.T.);
#159=EDGE_CURVE('',#143,#144,#225,.T.);
#160=EDGE_CURVE('',#145,#143,#180,.T.);
#161=EDGE_CURVE('',#145,#146,#226,.T.);
#162=EDGE_CURVE('',#146,#144,#181,.T.);
#163=EDGE_CURVE('',#144,#146,#182,.T.);
#164=EDGE_CURVE('',#143,#145,#183,.T.);
#165=EDGE_CURVE('',#145,#147,#227,.T.);
#166=EDGE_CURVE('',#147,#148,#184,.T.);
#167=EDGE_CURVE('',#143,#148,#228,.T.);
#168=EDGE_CURVE('',#148,#147,#185,.T.);
#169=EDGE_CURVE('',#149,#150,#186,.T.);
#170=EDGE_CURVE('',#150,#147,#229,.T.);
#171=EDGE_CURVE('',#149,#148,#230,.T.);
#172=EDGE_CURVE('',#150,#149,#187,.T.);
#173=CIRCLE('',#286,2.);
#174=CIRCLE('',#297,1.99512810052);
#175=CIRCLE('',#298,3.96283453058);
#176=CIRCLE('',#300,3.96283453058);
#177=CIRCLE('',#302,1.99512810052);
#178=CIRCLE('',#304,2.);
#179=CIRCLE('',#305,2.);
#180=CIRCLE('',#308,4.);
#181=CIRCLE('',#309,3.96283453058);
#182=CIRCLE('',#311,3.96283453058);
#183=CIRCLE('',#313,4.);
#184=CIRCLE('',#315,4.);
#185=CIRCLE('',#317,4.);
#186=CIRCLE('',#319,3.5);
#187=CIRCLE('',#321,3.5);
#188=CURVE_STYLE('',#202,POSITIVE_LENGTH_MEASURE(0.18),#280);
#189=CURVE_STYLE('',#203,POSITIVE_LENGTH_MEASURE(0.18),#280);
#190=CURVE_STYLE('',#204,POSITIVE_LENGTH_MEASURE(0.18),#280);
#191=CURVE_STYLE('',#205,POSITIVE_LENGTH_MEASURE(0.18),#280);
#192=CURVE_STYLE('',#206,POSITIVE_LENGTH_MEASURE(0.13),#281);
#193=CURVE_STYLE('',#207,POSITIVE_LENGTH_MEASURE(0.13),#281);
#194=CURVE_STYLE('',#208,POSITIVE_LENGTH_MEASURE(0.13),#282);
#195=CURVE_STYLE('',#209,POSITIVE_LENGTH_MEASURE(0.13),#282);
#196=CURVE_STYLE('',#210,POSITIVE_LENGTH_MEASURE(0.13),#281);
#197=CURVE_STYLE('',#211,POSITIVE_LENGTH_MEASURE(0.13),#281);
#198=CURVE_STYLE('',#212,POSITIVE_LENGTH_MEASURE(0.13),#282);
#199=CURVE_STYLE('',#213,POSITIVE_LENGTH_MEASURE(0.13),#281);
#200=CURVE_STYLE('',#214,POSITIVE_LENGTH_MEASURE(0.13),#281);
#201=CURVE_STYLE('',#215,POSITIVE_LENGTH_MEASURE(0.13),#281);
#202=DRAUGHTING_PRE_DEFINED_CURVE_FONT('continuous');
#203=DRAUGHTING_PRE_DEFINED_CURVE_FONT('continuous');
#204=DRAUGHTING_PRE_DEFINED_CURVE_FONT('continuous');
#205=DRAUGHTING_PRE_DEFINED_CURVE_FONT('continuous');
#206=DRAUGHTING_PRE_DEFINED_CURVE_FONT('continuous');
#207=DRAUGHTING_PRE_DEFINED_CURVE_FONT('continuous');
#208=DRAUGHTING_PRE_DEFINED_CURVE_FONT('continuous');
#209=DRAUGHTING_PRE_DEFINED_CURVE_FONT('continuous');
#210=DRAUGHTING_PRE_DEFINED_CURVE_FONT('continuous');
#211=DRAUGHTING_PRE_DEFINED_CURVE_FONT('continuous');
#212=DRAUGHTING_PRE_DEFINED_CURVE_FONT('continuous');
#213=DRAUGHTING_PRE_DEFINED_CURVE_FONT('continuous');
#214=DRAUGHTING_PRE_DEFINED_CURVE_FONT('continuous');
#215=DRAUGHTING_PRE_DEFINED_CURVE_FONT('continuous');
#216=TRIMMED_CURVE('',#220,(PARAMETER_VALUE(0.)),(PARAMETER_VALUE(1.)),
 .T.,.PARAMETER.);
#217=TRIMMED_CURVE('',#221,(PARAMETER_VALUE(0.)),(PARAMETER_VALUE(1.)),
 .T.,.PARAMETER.);
#218=TRIMMED_CURVE('',#222,(PARAMETER_VALUE(0.)),(PARAMETER_VALUE(1.)),
 .T.,.PARAMETER.);
#219=TRIMMED_CURVE('',#173,(PARAMETER_VALUE(0.)),(PARAMETER_VALUE(86.)),
 .T.,.PARAMETER.);
#220=LINE('',#415,#231);
#221=LINE('',#416,#232);
#222=LINE('',#417,#233);
#223=LINE('',#429,#234);
#224=LINE('',#434,#235);
#225=LINE('',#447,#236);
#226=LINE('',#452,#237);
#227=LINE('',#460,#238);
#228=LINE('',#464,#239);
#229=LINE('',#471,#240);
#230=LINE('',#472,#241);
#231=VECTOR('',#326,28.2082267701593);
#232=VECTOR('',#327,3.962834530581);
#233=VECTOR('',#328,30.);
#234=VECTOR('',#351,1.);
#235=VECTOR('',#354,1.);
#236=VECTOR('',#375,1.);
#237=VECTOR('',#378,1.);
#238=VECTOR('',#391,1.);
#239=VECTOR('',#394,1.);
#240=VECTOR('',#403,1.);
#241=VECTOR('',#404,1.);
#242=PRESENTATION_LAYER_ASSIGNMENT('1','Layer 1',(#414,#216,#217,#218,#219,
#287,#288,#291,#292,#293,#294,#295,#296,#40,#41));
#243=PRESENTATION_LAYER_ASSIGNMENT('2','Layer 2',(#289,#290));
#244=STYLED_ITEM('',(#261),#414);
#245=STYLED_ITEM('',(#262),#216);
#246=STYLED_ITEM('',(#263),#217);
#247=STYLED_ITEM('',(#264),#218);
#248=STYLED_ITEM('',(#265),#219);
#249=STYLED_ITEM('',(#266),#287);
#250=STYLED_ITEM('',(#267),#288);
#251=STYLED_ITEM('',(#268),#289);
#252=STYLED_ITEM('',(#269),#290);
#253=STYLED_ITEM('',(#270),#291);
#254=STYLED_ITEM('',(#271),#292);
#255=STYLED_ITEM('',(#272),#293);
#256=STYLED_ITEM('',(#273),#294);
#257=STYLED_ITEM('',(#274),#295);
#258=STYLED_ITEM('',(#275),#296);
#259=STYLED_ITEM('',(#276),#40);
#260=STYLED_ITEM('',(#277),#41);
#261=PRESENTATION_STYLE_ASSIGNMENT((#278));
#262=PRESENTATION_STYLE_ASSIGNMENT((#188));
#263=PRESENTATION_STYLE_ASSIGNMENT((#189));
#264=PRESENTATION_STYLE_ASSIGNMENT((#190));
#265=PRESENTATION_STYLE_ASSIGNMENT((#191));
#266=PRESENTATION_STYLE_ASSIGNMENT((#192));
#267=PRESENTATION_STYLE_ASSIGNMENT((#193));
#268=PRESENTATION_STYLE_ASSIGNMENT((#194));
#269=PRESENTATION_STYLE_ASSIGNMENT((#195));
#270=PRESENTATION_STYLE_ASSIGNMENT((#196));
#271=PRESENTATION_STYLE_ASSIGNMENT((#197));
#272=PRESENTATION_STYLE_ASSIGNMENT((#198));
#273=PRESENTATION_STYLE_ASSIGNMENT((#199));
#274=PRESENTATION_STYLE_ASSIGNMENT((#200));
#275=PRESENTATION_STYLE_ASSIGNMENT((#201));
#276=PRESENTATION_STYLE_ASSIGNMENT((#30));
#277=PRESENTATION_STYLE_ASSIGNMENT((#31));
#278=POINT_STYLE('',#279,POSITIVE_LENGTH_MEASURE(3.),#280);
#279=PRE_DEFINED_POINT_MARKER_SYMBOL('plus');
#280=COLOUR_RGB('Medium Royal',0.2,0.4,0.8);
#281=COLOUR_RGB('Strong Stone',0.576470588235294,0.54508278019379,0.392156862745098);
#282=COLOUR_RGB('Medium Umber',0.372533760585946,0.313725490196078,0.270572976272221);
#283=COLOUR_RGB('cutting part',0.8,0.8,0.8);
#284=COLOUR_RGB('non-cutting part and shank',0.501960784313725,0.501960784313725,
0.501960784313725);
#285=AXIS2_PLACEMENT_3D('',#413,#324,#325);
#286=AXIS2_PLACEMENT_3D('',#418,#329,#330);
#287=AXIS2_PLACEMENT_3D('',#419,#331,#332);
#288=AXIS2_PLACEMENT_3D('',#420,#333,#334);
#289=AXIS2_PLACEMENT_3D('CIP',#421,#335,#336);
#290=AXIS2_PLACEMENT_3D('PCS',#422,#337,#338);
#291=AXIS2_PLACEMENT_3D('MCS',#423,#339,#340);
#292=AXIS2_PLACEMENT_3D('',#424,#341,#342);
#293=AXIS2_PLACEMENT_3D('STEP_TEMP_EM32_1',#425,#343,#344);
#294=AXIS2_PLACEMENT_3D('',#426,#345,#346);
#295=AXIS2_PLACEMENT_3D('',#427,#347,#348);
#296=AXIS2_PLACEMENT_3D('',#428,#349,#350);
#297=AXIS2_PLACEMENT_3D('',#432,#352,#353);
#298=AXIS2_PLACEMENT_3D('',#436,#355,#356);
#299=AXIS2_PLACEMENT_3D('',#437,#357,#358);
#300=AXIS2_PLACEMENT_3D('',#438,#359,#360);
#301=AXIS2_PLACEMENT_3D('',#439,#361,#362);
#302=AXIS2_PLACEMENT_3D('',#440,#363,#364);
#303=AXIS2_PLACEMENT_3D('',#441,#365,#366);
#304=AXIS2_PLACEMENT_3D('',#442,#367,#368);
#305=AXIS2_PLACEMENT_3D('',#444,#369,#370);
#306=AXIS2_PLACEMENT_3D('',#445,#371,#372);
#307=AXIS2_PLACEMENT_3D('',#446,#373,#374);
#308=AXIS2_PLACEMENT_3D('',#450,#376,#377);
#309=AXIS2_PLACEMENT_3D('',#454,#379,#380);
#310=AXIS2_PLACEMENT_3D('',#455,#381,#382);
#311=AXIS2_PLACEMENT_3D('',#456,#383,#384);
#312=AXIS2_PLACEMENT_3D('',#457,#385,#386);
#313=AXIS2_PLACEMENT_3D('',#458,#387,#388);
#314=AXIS2_PLACEMENT_3D('',#459,#389,#390);
#315=AXIS2_PLACEMENT_3D('',#462,#392,#393);
#316=AXIS2_PLACEMENT_3D('',#465,#395,#396);
#317=AXIS2_PLACEMENT_3D('',#466,#397,#398);
#318=AXIS2_PLACEMENT_3D('',#467,#399,#400);
#319=AXIS2_PLACEMENT_3D('',#468,#401,#402);
#320=AXIS2_PLACEMENT_3D('',#473,#405,#406);
#321=AXIS2_PLACEMENT_3D('',#474,#407,#408);
#322=AXIS2_PLACEMENT_3D('',#475,#409,#410);
#323=AXIS2_PLACEMENT_3D('',#476,#411,#412);
#324=DIRECTION('',(0.,0.,1.));
#325=DIRECTION('',(1.,0.,0.));
#326=DIRECTION('',(-0.0697564737441317,0.,0.997564050259824));
#327=DIRECTION('',(1.,0.,0.));
#328=DIRECTION('',(0.,0.,-1.));
#329=DIRECTION('',(0.,1.,0.));
#330=DIRECTION('',(0.,0.,-1.));
#331=DIRECTION('',(0.,0.,1.));
#332=DIRECTION('',(1.,0.,0.));
#333=DIRECTION('',(0.,0.,1.));
#334=DIRECTION('',(1.,0.,0.));
#335=DIRECTION('',(0.,0.,1.));
#336=DIRECTION('',(1.,0.,0.));
#337=DIRECTION('',(0.,0.,1.));
#338=DIRECTION('',(1.,0.,0.));
#339=DIRECTION('',(0.,0.,1.));
#340=DIRECTION('',(1.,0.,0.));
#341=DIRECTION('',(0.,0.,1.));
#342=DIRECTION('',(1.,0.,0.));
#343=DIRECTION('',(0.,0.,1.));
#344=DIRECTION('',(1.,0.,0.));
#345=DIRECTION('',(0.,0.,1.));
#346=DIRECTION('',(1.,0.,0.));
#347=DIRECTION('',(0.,0.,1.));
#348=DIRECTION('',(1.,0.,0.));
#349=DIRECTION('',(0.,0.,1.));
#350=DIRECTION('',(1.,0.,0.));
#351=DIRECTION('',(0.,0.0697564737441317,-0.997564050259824));
#352=DIRECTION('',(0.,0.,1.));
#353=DIRECTION('',(0.,-1.,0.));
#354=DIRECTION('',(0.,-0.0697564737441317,-0.997564050259824));
#355=DIRECTION('',(0.,0.,-1.));
#356=DIRECTION('',(0.,1.,0.));
#357=DIRECTION('',(0.,0.,1.));
#358=DIRECTION('',(0.,-1.,6.18645080990074E-16));
#359=DIRECTION('',(0.,0.,-1.));
#360=DIRECTION('',(0.,-1.,0.));
#361=DIRECTION('',(0.,0.,-1.));
#362=DIRECTION('',(1.,0.,0.));
#363=DIRECTION('',(0.,0.,1.));
#364=DIRECTION('',(0.,1.,0.));
#365=DIRECTION('',(0.,0.,1.));
#366=DIRECTION('',(0.,-1.,6.18645080990074E-16));
#367=DIRECTION('',(-1.,0.,0.));
#368=DIRECTION('',(0.,-0.997564050259834,-0.0697564737439924));
#369=DIRECTION('',(1.,0.,0.));
#370=DIRECTION('',(0.,0.997564050259834,-0.0697564737439924));
#371=DIRECTION('',(0.,6.12323399573677E-17,-1.));
#372=DIRECTION('',(0.,1.,0.));
#373=DIRECTION('',(0.,6.12323399573677E-17,-1.));
#374=DIRECTION('',(0.,1.,0.));
#375=DIRECTION('',(0.,-0.0697564737440322,-0.997564050259831));
#376=DIRECTION('',(0.,0.,1.));
#377=DIRECTION('',(0.,-1.,0.));
#378=DIRECTION('',(0.,0.0697564737440023,-0.997564050259833));
#379=DIRECTION('',(0.,0.,1.));
#380=DIRECTION('',(0.,-1.,0.));
#381=DIRECTION('',(0.,0.,1.));
#382=DIRECTION('',(0.,-1.,-7.9802477768184E-16));
#383=DIRECTION('',(0.,0.,1.));
#384=DIRECTION('',(0.,1.,0.));
#385=DIRECTION('',(0.,0.,1.));
#386=DIRECTION('',(-1.,0.,0.));
#387=DIRECTION('',(0.,0.,1.));
#388=DIRECTION('',(0.,1.,0.));
#389=DIRECTION('',(0.,0.,1.));
#390=DIRECTION('',(0.,-1.,-7.9802477768184E-16));
#391=DIRECTION('',(0.,0.,1.));
#392=DIRECTION('',(0.,0.,-1.));
#393=DIRECTION('',(0.,-1.,0.));
#394=DIRECTION('',(0.,0.,1.));
#395=DIRECTION('',(0.,0.,-1.));
#396=DIRECTION('',(0.,1.,0.));
#397=DIRECTION('',(0.,0.,-1.));
#398=DIRECTION('',(0.,1.,0.));
#399=DIRECTION('',(0.,0.,-1.));
#400=DIRECTION('',(0.,1.,0.));
#401=DIRECTION('',(0.,0.,-1.));
#402=DIRECTION('',(0.,1.,0.));
#403=DIRECTION('',(0.,-0.707106781186547,-0.707106781186547));
#404=DIRECTION('',(0.,0.707106781186547,-0.707106781186547));
#405=DIRECTION('',(0.,0.,-1.));
#406=DIRECTION('',(0.,1.,-1.38259405308239E-17));
#407=DIRECTION('',(0.,0.,-1.));
#408=DIRECTION('',(0.,-1.,0.));
#409=DIRECTION('',(0.,0.,-1.));
#410=DIRECTION('',(0.,1.,-1.38259405308239E-17));
#411=DIRECTION('',(0.,0.,-1.));
#412=DIRECTION('',(0.,1.,0.));
#413=CARTESIAN_POINT('',(0.,0.,0.));
#414=CARTESIAN_POINT('CRP',(-2.,0.,0.));
#415=CARTESIAN_POINT('',(-1.99512810052,0.,1.860487052512));
#416=CARTESIAN_POINT('',(-3.962834530581,0.,30.));
#417=CARTESIAN_POINT('',(0.,0.,30.));
#418=CARTESIAN_POINT('',(0.,0.,2.));
#419=CARTESIAN_POINT('',(0.,0.,0.));
#420=CARTESIAN_POINT('',(0.,0.,0.));
#421=CARTESIAN_POINT('',(0.,0.,0.));
#422=CARTESIAN_POINT('',(0.,0.,75.));
#423=CARTESIAN_POINT('',(0.,0.,51.));
#424=CARTESIAN_POINT('',(0.,0.,0.));
#425=CARTESIAN_POINT('',(0.,0.,0.));
#426=CARTESIAN_POINT('',(0.,0.,0.));
#427=CARTESIAN_POINT('',(0.,0.,0.));
#428=CARTESIAN_POINT('',(0.,0.,0.));
#429=CARTESIAN_POINT('',(0.,-3.96283453058,30.));
#430=CARTESIAN_POINT('',(0.,-3.96283453058,30.));
#431=CARTESIAN_POINT('',(0.,-1.99512810052,1.860487052512));
#432=CARTESIAN_POINT('',(0.,0.,1.860487052512));
#433=CARTESIAN_POINT('',(0.,1.995128100519,1.860487052512));
#434=CARTESIAN_POINT('',(0.,3.96283453058,30.));
#435=CARTESIAN_POINT('',(0.,3.96283453058,30.));
#436=CARTESIAN_POINT('',(0.,0.,30.));
#437=CARTESIAN_POINT('',(0.,0.,15.93024352626));
#438=CARTESIAN_POINT('',(0.,0.,30.));
#439=CARTESIAN_POINT('',(150.,150.,30.));
#440=CARTESIAN_POINT('',(0.,0.,1.860487052512));
#441=CARTESIAN_POINT('',(0.,0.,15.93024352626));
#442=CARTESIAN_POINT('',(0.,0.,2.));
#443=CARTESIAN_POINT('',(0.,0.,0.));
#444=CARTESIAN_POINT('',(0.,0.,2.));
#445=CARTESIAN_POINT('',(0.,0.,2.));
#446=CARTESIAN_POINT('',(0.,0.,2.));
#447=CARTESIAN_POINT('',(0.,4.,30.53149097444));
#448=CARTESIAN_POINT('',(0.,4.,30.53149097444));
#449=CARTESIAN_POINT('',(0.,3.96283453058,30.));
#450=CARTESIAN_POINT('',(0.,0.,30.53149097444));
#451=CARTESIAN_POINT('',(0.,-4.,30.53149097444));
#452=CARTESIAN_POINT('',(0.,-4.,30.53149097444));
#453=CARTESIAN_POINT('',(0.,-3.96283453058,30.));
#454=CARTESIAN_POINT('',(0.,0.,30.));
#455=CARTESIAN_POINT('',(0.,0.,30.26574548722));
#456=CARTESIAN_POINT('',(0.,0.,30.));
#457=CARTESIAN_POINT('',(-150.,150.,30.));
#458=CARTESIAN_POINT('',(0.,0.,30.53149097444));
#459=CARTESIAN_POINT('',(0.,0.,30.26574548722));
#460=CARTESIAN_POINT('',(0.,-4.,74.5));
#461=CARTESIAN_POINT('',(0.,-4.,74.5));
#462=CARTESIAN_POINT('',(0.,1.336586826269E-14,74.5));
#463=CARTESIAN_POINT('',(0.,4.,74.5));
#464=CARTESIAN_POINT('',(0.,4.,74.5));
#465=CARTESIAN_POINT('',(0.,1.410065634218E-14,78.75));
#466=CARTESIAN_POINT('',(0.,1.336586826269E-14,74.5));
#467=CARTESIAN_POINT('',(0.,1.410065634218E-14,78.75));
#468=CARTESIAN_POINT('',(0.,1.336586826269E-14,75.));
#469=CARTESIAN_POINT('',(0.,3.5,75.));
#470=CARTESIAN_POINT('',(0.,-3.5,75.));
#471=CARTESIAN_POINT('',(0.,-3.5,75.));
#472=CARTESIAN_POINT('',(0.,3.5,75.));
#473=CARTESIAN_POINT('',(0.,1.336586826269E-14,74.75));
#474=CARTESIAN_POINT('',(0.,1.336586826269E-14,75.));
#475=CARTESIAN_POINT('',(0.,1.336586826269E-14,74.75));
#476=CARTESIAN_POINT('',(0.,1.341179251766E-14,75.));
#477=MECHANICAL_DESIGN_GEOMETRIC_PRESENTATION_REPRESENTATION('',(#244,#245,
#246,#247,#248,#249,#250,#251,#252,#253,#254,#255,#256,#257,#258,#259,#260),
#478);
#478=(
GEOMETRIC_REPRESENTATION_CONTEXT(3)
GLOBAL_UNCERTAINTY_ASSIGNED_CONTEXT((#479))
GLOBAL_UNIT_ASSIGNED_CONTEXT((#485,#481,#480))
REPRESENTATION_CONTEXT('DLC4LATBR200T040AP30','TOP_LEVEL_ASSEMBLY_PART')
);
#479=UNCERTAINTY_MEASURE_WITH_UNIT(LENGTH_MEASURE(2.E-5),#485,
'DISTANCE_ACCURACY_VALUE','Maximum Tolerance applied to model');
#480=(
NAMED_UNIT(*)
SI_UNIT($,.STERADIAN.)
SOLID_ANGLE_UNIT()
);
#481=(
CONVERSION_BASED_UNIT('DEGREE',#483)
NAMED_UNIT(#482)
PLANE_ANGLE_UNIT()
);
#482=DIMENSIONAL_EXPONENTS(0.,0.,0.,0.,0.,0.,0.);
#483=PLANE_ANGLE_MEASURE_WITH_UNIT(PLANE_ANGLE_MEASURE(0.0174532925),#484);
#484=(
NAMED_UNIT(*)
PLANE_ANGLE_UNIT()
SI_UNIT($,.RADIAN.)
);
#485=(
LENGTH_UNIT()
NAMED_UNIT(*)
SI_UNIT(.MILLI.,.METRE.)
);
ENDSEC;
END-ISO-10303-21;
