ISO-10303-21;
HEADER;
/* Generated by software containing ST-Developer
 * from STEP Tools, Inc. (www.steptools.com) 
 */
/* OPTION: using custom schema-name function */

FILE_DESCRIPTION(
/* description */ (''),
/* implementation_level */ '2;1');

FILE_NAME(
/* name */ 'MP3CD1200.stp',
/* time_stamp */ '2023-04-06T09:54:08+09:00',
/* author */ (''),
/* organization */ (''),
/* preprocessor_version */ 'ST-DEVELOPER v16',
/* originating_system */ 'SIEMENS PLM Software NX 10.0',
/* authorisation */ '');

FILE_SCHEMA (('AUTOMOTIVE_DESIGN { 1 0 10303 214 3 1 1 1 }'));
ENDSEC;

DATA;
#10=CONSTRUCTIVE_GEOMETRY_REPRESENTATION_RELATIONSHIP(
'supplemental geometry','',#26,#11);
#11=CONSTRUCTIVE_GEOMETRY_REPRESENTATION('supplemental geometry',(#246,
#247,#248,#249,#250,#251,#252,#253,#254,#255),#401);
#12=GEOMETRICALLY_BOUNDED_WIREFRAME_SHAPE_REPRESENTATION(
'MP3CD1200-None',(#27),#401);
#13=SHAPE_REPRESENTATION_RELATIONSHIP('None',
'relationship between MP3CD1200-None and MP3CD1200-None',#26,#15);
#14=SHAPE_REPRESENTATION_RELATIONSHIP('None',
'relationship between MP3CD1200-None and MP3CD1200-None',#26,#12);
#15=ADVANCED_BREP_SHAPE_REPRESENTATION('MP3CD1200-None',(#40,#41),#401);
#16=SHAPE_DEFINITION_REPRESENTATION(#17,#26);
#17=PRODUCT_DEFINITION_SHAPE('','SHAPE FOR MP3CD1200_ASM.',#18);
#18=PRODUCT_DEFINITION('part definition','',#20,#19);
#19=PRODUCT_DEFINITION_CONTEXT('part definition',#25,'design');
#20=PRODUCT_DEFINITION_FORMATION_WITH_SPECIFIED_SOURCE(' ',' ',#22,
 .NOT_KNOWN.);
#21=PRODUCT_RELATED_PRODUCT_CATEGORY('part','',(#22));
#22=PRODUCT('MP3CD1200_ASM','MP3CD1200_ASM','NOT SPECIFIED',(#23));
#23=PRODUCT_CONTEXT('',#25,'mechanical');
#24=APPLICATION_PROTOCOL_DEFINITION('international standard',
'automotive_design',2010,#25);
#25=APPLICATION_CONTEXT(
'core data for automotive mechanical design processes');
#26=SHAPE_REPRESENTATION('MP3CD1200-None',(#245),#401);
#27=GEOMETRIC_CURVE_SET('None',(#349,#178,#179,#180,#181));
#28=CYLINDRICAL_SURFACE('',#266,6.);
#29=CYLINDRICAL_SURFACE('',#270,6.);
#30=SURFACE_STYLE_USAGE(.BOTH.,#32);
#31=SURFACE_STYLE_USAGE(.BOTH.,#33);
#32=SURFACE_SIDE_STYLE('',(#34));
#33=SURFACE_SIDE_STYLE('',(#35));
#34=SURFACE_STYLE_FILL_AREA(#36);
#35=SURFACE_STYLE_FILL_AREA(#37);
#36=FILL_AREA_STYLE('',(#38));
#37=FILL_AREA_STYLE('',(#39));
#38=FILL_AREA_STYLE_COLOUR('',#243);
#39=FILL_AREA_STYLE_COLOUR('',#244);
#40=MANIFOLD_SOLID_BREP('CUT',#42);
#41=MANIFOLD_SOLID_BREP('NOCUT',#43);
#42=CLOSED_SHELL('',(#48,#49,#50,#51));
#43=CLOSED_SHELL('',(#52,#53,#54,#55,#56,#57));
#44=CONICAL_SURFACE('',#260,3.125,45.);
#45=CONICAL_SURFACE('',#263,3.125,45.);
#46=CONICAL_SURFACE('',#272,5.75,45.);
#47=CONICAL_SURFACE('',#274,5.75,45.);
#48=ADVANCED_FACE('',(#62),#58,.T.);
#49=ADVANCED_FACE('',(#63),#44,.T.);
#50=ADVANCED_FACE('',(#64),#59,.F.);
#51=ADVANCED_FACE('',(#65),#45,.T.);
#52=ADVANCED_FACE('',(#66),#28,.T.);
#53=ADVANCED_FACE('',(#67),#60,.F.);
#54=ADVANCED_FACE('',(#68),#29,.T.);
#55=ADVANCED_FACE('',(#69),#46,.T.);
#56=ADVANCED_FACE('',(#70),#47,.T.);
#57=ADVANCED_FACE('',(#71),#61,.F.);
#58=PLANE('',#258);
#59=PLANE('',#262);
#60=PLANE('',#268);
#61=PLANE('',#275);
#62=FACE_OUTER_BOUND('',#72,.T.);
#63=FACE_OUTER_BOUND('',#73,.T.);
#64=FACE_OUTER_BOUND('',#74,.T.);
#65=FACE_OUTER_BOUND('',#75,.T.);
#66=FACE_OUTER_BOUND('',#76,.T.);
#67=FACE_OUTER_BOUND('',#77,.T.);
#68=FACE_OUTER_BOUND('',#78,.T.);
#69=FACE_OUTER_BOUND('',#79,.T.);
#70=FACE_OUTER_BOUND('',#80,.T.);
#71=FACE_OUTER_BOUND('',#81,.T.);
#72=EDGE_LOOP('',(#82,#83));
#73=EDGE_LOOP('',(#84,#85,#86,#87));
#74=EDGE_LOOP('',(#88,#89));
#75=EDGE_LOOP('',(#90,#91,#92,#93));
#76=EDGE_LOOP('',(#94,#95,#96,#97));
#77=EDGE_LOOP('',(#98,#99));
#78=EDGE_LOOP('',(#100,#101,#102,#103));
#79=EDGE_LOOP('',(#104,#105,#106,#107));
#80=EDGE_LOOP('',(#108,#109,#110,#111));
#81=EDGE_LOOP('',(#112,#113));
#82=ORIENTED_EDGE('',*,*,#124,.F.);
#83=ORIENTED_EDGE('',*,*,#125,.F.);
#84=ORIENTED_EDGE('',*,*,#126,.F.);
#85=ORIENTED_EDGE('',*,*,#125,.T.);
#86=ORIENTED_EDGE('',*,*,#127,.T.);
#87=ORIENTED_EDGE('',*,*,#128,.T.);
#88=ORIENTED_EDGE('',*,*,#128,.F.);
#89=ORIENTED_EDGE('',*,*,#129,.F.);
#90=ORIENTED_EDGE('',*,*,#127,.F.);
#91=ORIENTED_EDGE('',*,*,#124,.T.);
#92=ORIENTED_EDGE('',*,*,#126,.T.);
#93=ORIENTED_EDGE('',*,*,#129,.T.);
#94=ORIENTED_EDGE('',*,*,#130,.F.);
#95=ORIENTED_EDGE('',*,*,#131,.T.);
#96=ORIENTED_EDGE('',*,*,#132,.T.);
#97=ORIENTED_EDGE('',*,*,#133,.T.);
#98=ORIENTED_EDGE('',*,*,#134,.F.);
#99=ORIENTED_EDGE('',*,*,#133,.F.);
#100=ORIENTED_EDGE('',*,*,#132,.F.);
#101=ORIENTED_EDGE('',*,*,#135,.T.);
#102=ORIENTED_EDGE('',*,*,#130,.T.);
#103=ORIENTED_EDGE('',*,*,#134,.T.);
#104=ORIENTED_EDGE('',*,*,#135,.F.);
#105=ORIENTED_EDGE('',*,*,#136,.T.);
#106=ORIENTED_EDGE('',*,*,#137,.T.);
#107=ORIENTED_EDGE('',*,*,#138,.F.);
#108=ORIENTED_EDGE('',*,*,#139,.T.);
#109=ORIENTED_EDGE('',*,*,#136,.F.);
#110=ORIENTED_EDGE('',*,*,#131,.F.);
#111=ORIENTED_EDGE('',*,*,#138,.T.);
#112=ORIENTED_EDGE('',*,*,#139,.F.);
#113=ORIENTED_EDGE('',*,*,#137,.F.);
#114=VERTEX_POINT('',#365);
#115=VERTEX_POINT('',#366);
#116=VERTEX_POINT('',#370);
#117=VERTEX_POINT('',#372);
#118=VERTEX_POINT('',#379);
#119=VERTEX_POINT('',#380);
#120=VERTEX_POINT('',#382);
#121=VERTEX_POINT('',#384);
#122=VERTEX_POINT('',#392);
#123=VERTEX_POINT('',#394);
#124=EDGE_CURVE('',#114,#115,#140,.T.);
#125=EDGE_CURVE('',#115,#114,#141,.T.);
#126=EDGE_CURVE('',#115,#116,#186,.T.);
#127=EDGE_CURVE('',#114,#117,#187,.T.);
#128=EDGE_CURVE('',#117,#116,#142,.T.);
#129=EDGE_CURVE('',#116,#117,#143,.T.);
#130=EDGE_CURVE('',#118,#119,#188,.T.);
#131=EDGE_CURVE('',#118,#120,#144,.T.);
#132=EDGE_CURVE('',#120,#121,#189,.T.);
#133=EDGE_CURVE('',#121,#119,#145,.T.);
#134=EDGE_CURVE('',#119,#121,#146,.T.);
#135=EDGE_CURVE('',#120,#118,#147,.T.);
#136=EDGE_CURVE('',#120,#122,#190,.T.);
#137=EDGE_CURVE('',#122,#123,#148,.T.);
#138=EDGE_CURVE('',#118,#123,#191,.T.);
#139=EDGE_CURVE('',#123,#122,#149,.T.);
#140=CIRCLE('',#256,0.25);
#141=CIRCLE('',#257,0.25);
#142=CIRCLE('',#259,6.);
#143=CIRCLE('',#261,6.);
#144=CIRCLE('',#264,6.);
#145=CIRCLE('',#265,6.);
#146=CIRCLE('',#267,6.);
#147=CIRCLE('',#269,6.);
#148=CIRCLE('',#271,5.5);
#149=CIRCLE('',#273,5.5);
#150=CURVE_STYLE('',#164,POSITIVE_LENGTH_MEASURE(0.18),#240);
#151=CURVE_STYLE('',#165,POSITIVE_LENGTH_MEASURE(0.18),#240);
#152=CURVE_STYLE('',#166,POSITIVE_LENGTH_MEASURE(0.18),#240);
#153=CURVE_STYLE('',#167,POSITIVE_LENGTH_MEASURE(0.18),#240);
#154=CURVE_STYLE('',#168,POSITIVE_LENGTH_MEASURE(0.13),#241);
#155=CURVE_STYLE('',#169,POSITIVE_LENGTH_MEASURE(0.13),#241);
#156=CURVE_STYLE('',#170,POSITIVE_LENGTH_MEASURE(0.13),#242);
#157=CURVE_STYLE('',#171,POSITIVE_LENGTH_MEASURE(0.13),#242);
#158=CURVE_STYLE('',#172,POSITIVE_LENGTH_MEASURE(0.13),#241);
#159=CURVE_STYLE('',#173,POSITIVE_LENGTH_MEASURE(0.13),#241);
#160=CURVE_STYLE('',#174,POSITIVE_LENGTH_MEASURE(0.13),#242);
#161=CURVE_STYLE('',#175,POSITIVE_LENGTH_MEASURE(0.13),#241);
#162=CURVE_STYLE('',#176,POSITIVE_LENGTH_MEASURE(0.13),#241);
#163=CURVE_STYLE('',#177,POSITIVE_LENGTH_MEASURE(0.13),#241);
#164=DRAUGHTING_PRE_DEFINED_CURVE_FONT('continuous');
#165=DRAUGHTING_PRE_DEFINED_CURVE_FONT('continuous');
#166=DRAUGHTING_PRE_DEFINED_CURVE_FONT('continuous');
#167=DRAUGHTING_PRE_DEFINED_CURVE_FONT('continuous');
#168=DRAUGHTING_PRE_DEFINED_CURVE_FONT('continuous');
#169=DRAUGHTING_PRE_DEFINED_CURVE_FONT('continuous');
#170=DRAUGHTING_PRE_DEFINED_CURVE_FONT('continuous');
#171=DRAUGHTING_PRE_DEFINED_CURVE_FONT('continuous');
#172=DRAUGHTING_PRE_DEFINED_CURVE_FONT('continuous');
#173=DRAUGHTING_PRE_DEFINED_CURVE_FONT('continuous');
#174=DRAUGHTING_PRE_DEFINED_CURVE_FONT('continuous');
#175=DRAUGHTING_PRE_DEFINED_CURVE_FONT('continuous');
#176=DRAUGHTING_PRE_DEFINED_CURVE_FONT('continuous');
#177=DRAUGHTING_PRE_DEFINED_CURVE_FONT('continuous');
#178=TRIMMED_CURVE('',#182,(PARAMETER_VALUE(0.)),(PARAMETER_VALUE(1.)),
 .T.,.PARAMETER.);
#179=TRIMMED_CURVE('',#183,(PARAMETER_VALUE(0.)),(PARAMETER_VALUE(1.)),
 .T.,.PARAMETER.);
#180=TRIMMED_CURVE('',#184,(PARAMETER_VALUE(0.)),(PARAMETER_VALUE(1.)),
 .T.,.PARAMETER.);
#181=TRIMMED_CURVE('',#185,(PARAMETER_VALUE(0.)),(PARAMETER_VALUE(1.)),
 .T.,.PARAMETER.);
#182=LINE('',#350,#192);
#183=LINE('',#351,#193);
#184=LINE('',#352,#194);
#185=LINE('',#353,#195);
#186=LINE('',#369,#196);
#187=LINE('',#371,#197);
#188=LINE('',#378,#198);
#189=LINE('',#383,#199);
#190=LINE('',#391,#200);
#191=LINE('',#395,#201);
#192=VECTOR('',#278,0.25);
#193=VECTOR('',#279,8.13172798364445);
#194=VECTOR('',#280,6.);
#195=VECTOR('',#281,5.75);
#196=VECTOR('',#308,1.);
#197=VECTOR('',#309,1.);
#198=VECTOR('',#320,1.);
#199=VECTOR('',#323,1.);
#200=VECTOR('',#336,1.);
#201=VECTOR('',#339,1.);
#202=PRESENTATION_LAYER_ASSIGNMENT('1','Layer 1',(#349,#178,#179,#180,#181,
#246,#247,#250,#251,#252,#253,#254,#255,#40,#41));
#203=PRESENTATION_LAYER_ASSIGNMENT('2','Layer 2',(#248,#249));
#204=STYLED_ITEM('',(#221),#349);
#205=STYLED_ITEM('',(#222),#178);
#206=STYLED_ITEM('',(#223),#179);
#207=STYLED_ITEM('',(#224),#180);
#208=STYLED_ITEM('',(#225),#181);
#209=STYLED_ITEM('',(#226),#246);
#210=STYLED_ITEM('',(#227),#247);
#211=STYLED_ITEM('',(#228),#248);
#212=STYLED_ITEM('',(#229),#249);
#213=STYLED_ITEM('',(#230),#250);
#214=STYLED_ITEM('',(#231),#251);
#215=STYLED_ITEM('',(#232),#252);
#216=STYLED_ITEM('',(#233),#253);
#217=STYLED_ITEM('',(#234),#254);
#218=STYLED_ITEM('',(#235),#255);
#219=STYLED_ITEM('',(#236),#40);
#220=STYLED_ITEM('',(#237),#41);
#221=PRESENTATION_STYLE_ASSIGNMENT((#238));
#222=PRESENTATION_STYLE_ASSIGNMENT((#150));
#223=PRESENTATION_STYLE_ASSIGNMENT((#151));
#224=PRESENTATION_STYLE_ASSIGNMENT((#152));
#225=PRESENTATION_STYLE_ASSIGNMENT((#153));
#226=PRESENTATION_STYLE_ASSIGNMENT((#154));
#227=PRESENTATION_STYLE_ASSIGNMENT((#155));
#228=PRESENTATION_STYLE_ASSIGNMENT((#156));
#229=PRESENTATION_STYLE_ASSIGNMENT((#157));
#230=PRESENTATION_STYLE_ASSIGNMENT((#158));
#231=PRESENTATION_STYLE_ASSIGNMENT((#159));
#232=PRESENTATION_STYLE_ASSIGNMENT((#160));
#233=PRESENTATION_STYLE_ASSIGNMENT((#161));
#234=PRESENTATION_STYLE_ASSIGNMENT((#162));
#235=PRESENTATION_STYLE_ASSIGNMENT((#163));
#236=PRESENTATION_STYLE_ASSIGNMENT((#30));
#237=PRESENTATION_STYLE_ASSIGNMENT((#31));
#238=POINT_STYLE('',#239,POSITIVE_LENGTH_MEASURE(3.),#240);
#239=PRE_DEFINED_POINT_MARKER_SYMBOL('plus');
#240=COLOUR_RGB('Medium Royal',0.2,0.4,0.8);
#241=COLOUR_RGB('Strong Stone',0.576470588235294,0.54508278019379,0.392156862745098);
#242=COLOUR_RGB('Medium Umber',0.372533760585946,0.313725490196078,0.270572976272221);
#243=COLOUR_RGB('cutting part',0.8,0.8,0.8);
#244=COLOUR_RGB('non-cutting part and shank',0.501960784313725,0.501960784313725,
0.501960784313725);
#245=AXIS2_PLACEMENT_3D('',#348,#276,#277);
#246=AXIS2_PLACEMENT_3D('',#354,#282,#283);
#247=AXIS2_PLACEMENT_3D('',#355,#284,#285);
#248=AXIS2_PLACEMENT_3D('CIP',#356,#286,#287);
#249=AXIS2_PLACEMENT_3D('PCS',#357,#288,#289);
#250=AXIS2_PLACEMENT_3D('MCS',#358,#290,#291);
#251=AXIS2_PLACEMENT_3D('',#359,#292,#293);
#252=AXIS2_PLACEMENT_3D('STEP_TEMP_EM35_1',#360,#294,#295);
#253=AXIS2_PLACEMENT_3D('',#361,#296,#297);
#254=AXIS2_PLACEMENT_3D('',#362,#298,#299);
#255=AXIS2_PLACEMENT_3D('',#363,#300,#301);
#256=AXIS2_PLACEMENT_3D('',#364,#302,#303);
#257=AXIS2_PLACEMENT_3D('',#367,#304,#305);
#258=AXIS2_PLACEMENT_3D('',#368,#306,#307);
#259=AXIS2_PLACEMENT_3D('',#373,#310,#311);
#260=AXIS2_PLACEMENT_3D('',#374,#312,#313);
#261=AXIS2_PLACEMENT_3D('',#375,#314,#315);
#262=AXIS2_PLACEMENT_3D('',#376,#316,#317);
#263=AXIS2_PLACEMENT_3D('',#377,#318,#319);
#264=AXIS2_PLACEMENT_3D('',#381,#321,#322);
#265=AXIS2_PLACEMENT_3D('',#385,#324,#325);
#266=AXIS2_PLACEMENT_3D('',#386,#326,#327);
#267=AXIS2_PLACEMENT_3D('',#387,#328,#329);
#268=AXIS2_PLACEMENT_3D('',#388,#330,#331);
#269=AXIS2_PLACEMENT_3D('',#389,#332,#333);
#270=AXIS2_PLACEMENT_3D('',#390,#334,#335);
#271=AXIS2_PLACEMENT_3D('',#393,#337,#338);
#272=AXIS2_PLACEMENT_3D('',#396,#340,#341);
#273=AXIS2_PLACEMENT_3D('',#397,#342,#343);
#274=AXIS2_PLACEMENT_3D('',#398,#344,#345);
#275=AXIS2_PLACEMENT_3D('',#399,#346,#347);
#276=DIRECTION('',(0.,0.,1.));
#277=DIRECTION('',(1.,0.,0.));
#278=DIRECTION('',(-1.,0.,0.));
#279=DIRECTION('',(-0.707106781186548,0.,0.707106781186548));
#280=DIRECTION('',(1.,0.,0.));
#281=DIRECTION('',(0.,0.,-1.));
#282=DIRECTION('',(0.,0.,1.));
#283=DIRECTION('',(1.,0.,0.));
#284=DIRECTION('',(0.,0.,1.));
#285=DIRECTION('',(1.,0.,0.));
#286=DIRECTION('',(0.,0.,1.));
#287=DIRECTION('',(1.,0.,0.));
#288=DIRECTION('',(0.,0.,1.));
#289=DIRECTION('',(1.,0.,0.));
#290=DIRECTION('',(0.,0.,1.));
#291=DIRECTION('',(1.,0.,0.));
#292=DIRECTION('',(0.,0.,1.));
#293=DIRECTION('',(1.,0.,0.));
#294=DIRECTION('',(0.,0.,1.));
#295=DIRECTION('',(1.,0.,0.));
#296=DIRECTION('',(0.,0.,1.));
#297=DIRECTION('',(1.,0.,0.));
#298=DIRECTION('',(0.,0.,1.));
#299=DIRECTION('',(1.,0.,0.));
#300=DIRECTION('',(0.,0.,1.));
#301=DIRECTION('',(1.,0.,0.));
#302=DIRECTION('',(0.,0.,1.));
#303=DIRECTION('',(0.,-1.,0.));
#304=DIRECTION('',(0.,0.,1.));
#305=DIRECTION('',(0.,1.,0.));
#306=DIRECTION('',(0.,0.,-1.));
#307=DIRECTION('',(0.,1.,0.));
#308=DIRECTION('',(0.,0.707106781186547,0.707106781186547));
#309=DIRECTION('',(0.,-0.707106781186547,0.707106781186547));
#310=DIRECTION('',(0.,0.,-1.));
#311=DIRECTION('',(0.,-1.,0.));
#312=DIRECTION('',(0.,0.,1.));
#313=DIRECTION('',(0.,-1.,-3.89096854424704E-17));
#314=DIRECTION('',(0.,0.,-1.));
#315=DIRECTION('',(0.,1.,0.));
#316=DIRECTION('',(0.,0.,-1.));
#317=DIRECTION('',(1.,0.,0.));
#318=DIRECTION('',(0.,0.,1.));
#319=DIRECTION('',(0.,-1.,-3.89096854424704E-17));
#320=DIRECTION('',(0.,0.,-1.));
#321=DIRECTION('',(0.,0.,-1.));
#322=DIRECTION('',(0.,1.,0.));
#323=DIRECTION('',(0.,0.,-1.));
#324=DIRECTION('',(0.,0.,1.));
#325=DIRECTION('',(0.,-1.,0.));
#326=DIRECTION('',(0.,0.,-1.));
#327=DIRECTION('',(0.,1.,0.));
#328=DIRECTION('',(0.,0.,1.));
#329=DIRECTION('',(0.,1.,0.));
#330=DIRECTION('',(0.,0.,1.));
#331=DIRECTION('',(-1.,0.,0.));
#332=DIRECTION('',(0.,0.,-1.));
#333=DIRECTION('',(0.,-1.,0.));
#334=DIRECTION('',(0.,0.,-1.));
#335=DIRECTION('',(0.,1.,0.));
#336=DIRECTION('',(0.,0.707106781186547,0.707106781186547));
#337=DIRECTION('',(0.,0.,-1.));
#338=DIRECTION('',(0.,-1.,0.));
#339=DIRECTION('',(0.,-0.707106781186547,0.707106781186547));
#340=DIRECTION('',(0.,0.,-1.));
#341=DIRECTION('',(0.,1.,-1.37984467390648E-17));
#342=DIRECTION('',(0.,0.,-1.));
#343=DIRECTION('',(0.,1.,0.));
#344=DIRECTION('',(0.,0.,-1.));
#345=DIRECTION('',(0.,1.,-1.37984467390648E-17));
#346=DIRECTION('',(0.,0.,-1.));
#347=DIRECTION('',(0.,1.,0.));
#348=CARTESIAN_POINT('',(0.,0.,0.));
#349=CARTESIAN_POINT('CRP',(-0.25,0.,0.));
#350=CARTESIAN_POINT('',(0.,0.,0.));
#351=CARTESIAN_POINT('',(-0.25,0.,0.));
#352=CARTESIAN_POINT('',(-6.,0.,5.75));
#353=CARTESIAN_POINT('',(0.,0.,5.75));
#354=CARTESIAN_POINT('',(0.,0.,0.));
#355=CARTESIAN_POINT('',(0.,0.,0.));
#356=CARTESIAN_POINT('',(0.,0.,0.));
#357=CARTESIAN_POINT('',(0.,0.,75.));
#358=CARTESIAN_POINT('',(0.,0.,45.));
#359=CARTESIAN_POINT('',(0.,0.,0.));
#360=CARTESIAN_POINT('',(0.,0.,0.));
#361=CARTESIAN_POINT('',(0.,0.,0.));
#362=CARTESIAN_POINT('',(0.,0.,0.));
#363=CARTESIAN_POINT('',(0.,0.,0.));
#364=CARTESIAN_POINT('',(0.,-1.324455605108E-14,0.));
#365=CARTESIAN_POINT('',(0.,-0.25,0.));
#366=CARTESIAN_POINT('',(0.,0.25,0.));
#367=CARTESIAN_POINT('',(0.,-1.324455605108E-14,0.));
#368=CARTESIAN_POINT('',(0.,-1.377268498321E-14,0.));
#369=CARTESIAN_POINT('',(0.,6.,5.75));
#370=CARTESIAN_POINT('',(0.,6.,5.75));
#371=CARTESIAN_POINT('',(0.,-6.,5.75));
#372=CARTESIAN_POINT('',(0.,-6.,5.75));
#373=CARTESIAN_POINT('',(0.,-1.324455605108E-14,5.75));
#374=CARTESIAN_POINT('',(0.,-1.324455605108E-14,2.875));
#375=CARTESIAN_POINT('',(0.,-1.324455605108E-14,5.75));
#376=CARTESIAN_POINT('',(150.,150.,5.75));
#377=CARTESIAN_POINT('',(0.,-1.324455605108E-14,2.875));
#378=CARTESIAN_POINT('',(0.,6.,74.5));
#379=CARTESIAN_POINT('',(0.,6.,74.5));
#380=CARTESIAN_POINT('',(0.,6.,5.75));
#381=CARTESIAN_POINT('',(0.,0.,74.5));
#382=CARTESIAN_POINT('',(0.,-6.,74.5));
#383=CARTESIAN_POINT('',(0.,-6.,74.5));
#384=CARTESIAN_POINT('',(0.,-6.,5.75));
#385=CARTESIAN_POINT('',(0.,0.,5.75));
#386=CARTESIAN_POINT('',(0.,0.,78.75));
#387=CARTESIAN_POINT('',(0.,0.,5.75));
#388=CARTESIAN_POINT('',(-150.,150.,5.75));
#389=CARTESIAN_POINT('',(0.,0.,74.5));
#390=CARTESIAN_POINT('',(0.,0.,78.75));
#391=CARTESIAN_POINT('',(0.,-5.5,75.));
#392=CARTESIAN_POINT('',(0.,-5.5,75.));
#393=CARTESIAN_POINT('',(0.,0.,75.));
#394=CARTESIAN_POINT('',(0.,5.5,75.));
#395=CARTESIAN_POINT('',(0.,5.5,75.));
#396=CARTESIAN_POINT('',(0.,0.,74.75));
#397=CARTESIAN_POINT('',(0.,0.,75.));
#398=CARTESIAN_POINT('',(0.,0.,74.75));
#399=CARTESIAN_POINT('',(0.,0.,75.));
#400=MECHANICAL_DESIGN_GEOMETRIC_PRESENTATION_REPRESENTATION('',(#204,#205,
#206,#207,#208,#209,#210,#211,#212,#213,#214,#215,#216,#217,#218,#219,#220),
#401);
#401=(
GEOMETRIC_REPRESENTATION_CONTEXT(3)
GLOBAL_UNCERTAINTY_ASSIGNED_CONTEXT((#402))
GLOBAL_UNIT_ASSIGNED_CONTEXT((#408,#404,#403))
REPRESENTATION_CONTEXT('MP3CD1200','TOP_LEVEL_ASSEMBLY_PART')
);
#402=UNCERTAINTY_MEASURE_WITH_UNIT(LENGTH_MEASURE(2.E-5),#408,
'DISTANCE_ACCURACY_VALUE','Maximum Tolerance applied to model');
#403=(
NAMED_UNIT(*)
SI_UNIT($,.STERADIAN.)
SOLID_ANGLE_UNIT()
);
#404=(
CONVERSION_BASED_UNIT('DEGREE',#406)
NAMED_UNIT(#405)
PLANE_ANGLE_UNIT()
);
#405=DIMENSIONAL_EXPONENTS(0.,0.,0.,0.,0.,0.,0.);
#406=PLANE_ANGLE_MEASURE_WITH_UNIT(PLANE_ANGLE_MEASURE(0.0174532925),#407);
#407=(
NAMED_UNIT(*)
PLANE_ANGLE_UNIT()
SI_UNIT($,.RADIAN.)
);
#408=(
LENGTH_UNIT()
NAMED_UNIT(*)
SI_UNIT(.MILLI.,.METRE.)
);
ENDSEC;
END-ISO-10303-21;
