ISO-10303-21;
HEADER;
/* Generated by software containing ST-Developer
 * from STEP Tools, Inc. (www.steptools.com) 
 */
/* OPTION: using custom schema-name function */

FILE_DESCRIPTION(
/* description */ (''),
/* implementation_level */ '2;1');

FILE_NAME(
/* name */ 'IMX12C10T100R10T080C.stp',
/* time_stamp */ '2025-09-24T09:57:03+09:00',
/* author */ (''),
/* organization */ (''),
/* preprocessor_version */ 'ST-DEVELOPER v16',
/* originating_system */ 'SIEMENS PLM Software NX 10.0',
/* authorisation */ '');

FILE_SCHEMA (('AUTOMOTIVE_DESIGN { 1 0 10303 214 3 1 1 1 }'));
ENDSEC;

DATA;
#10=CONSTRUCTIVE_GEOMETRY_REPRESENTATION_RELATIONSHIP(
'supplemental geometry','',#26,#11);
#11=CONSTRUCTIVE_GEOMETRY_REPRESENTATION('supplemental geometry',(#400,
#401,#402,#403,#404,#405,#406),#680);
#12=GEOMETRICALLY_BOUNDED_WIREFRAME_SHAPE_REPRESENTATION(
'IMX12C10T100R10T080C-None',(#27),#680);
#13=SHAPE_REPRESENTATION_RELATIONSHIP('None',
'relationship between IMX12C10T100R10T080C-None and IMX12C10T100R10T08
0C-None',#26,#15);
#14=SHAPE_REPRESENTATION_RELATIONSHIP('None',
'relationship between IMX12C10T100R10T080C-None and IMX12C10T100R10T08
0C-None',#26,#12);
#15=ADVANCED_BREP_SHAPE_REPRESENTATION('IMX12C10T100R10T080C-None',(#50,
#51),#680);
#16=SHAPE_DEFINITION_REPRESENTATION(#17,#26);
#17=PRODUCT_DEFINITION_SHAPE('','SHAPE FOR IMX12C10T100R10T080C_ASM.',#18);
#18=PRODUCT_DEFINITION('part definition','',#20,#19);
#19=PRODUCT_DEFINITION_CONTEXT('part definition',#25,'design');
#20=PRODUCT_DEFINITION_FORMATION_WITH_SPECIFIED_SOURCE(' ',' ',#22,
 .NOT_KNOWN.);
#21=PRODUCT_RELATED_PRODUCT_CATEGORY('part','',(#22));
#22=PRODUCT('IMX12C10T100R10T080C_ASM','IMX12C10T100R10T080C_ASM',
'NOT SPECIFIED',(#23));
#23=PRODUCT_CONTEXT('',#25,'mechanical');
#24=APPLICATION_PROTOCOL_DEFINITION('international standard',
'automotive_design',2010,#25);
#25=APPLICATION_CONTEXT(
'core data for automotive mechanical design processes');
#26=SHAPE_REPRESENTATION('IMX12C10T100R10T080C-None',(#398),#680);
#27=GEOMETRIC_CURVE_SET('None',(#583,#325,#326,#327,#328,#329));
#28=FACE_BOUND('',#117,.T.);
#29=FACE_BOUND('',#118,.T.);
#30=FACE_BOUND('',#121,.T.);
#31=FACE_BOUND('',#122,.T.);
#32=FACE_BOUND('',#125,.T.);
#33=FACE_BOUND('',#126,.T.);
#34=CYLINDRICAL_SURFACE('',#423,6.);
#35=CYLINDRICAL_SURFACE('',#426,6.);
#36=CYLINDRICAL_SURFACE('',#432,5.85);
#37=CYLINDRICAL_SURFACE('',#434,5.85);
#38=CYLINDRICAL_SURFACE('',#446,3.);
#39=CYLINDRICAL_SURFACE('',#448,3.);
#40=SURFACE_STYLE_USAGE(.BOTH.,#42);
#41=SURFACE_STYLE_USAGE(.BOTH.,#43);
#42=SURFACE_SIDE_STYLE('',(#44));
#43=SURFACE_SIDE_STYLE('',(#45));
#44=SURFACE_STYLE_FILL_AREA(#46);
#45=SURFACE_STYLE_FILL_AREA(#47);
#46=FILL_AREA_STYLE('',(#48));
#47=FILL_AREA_STYLE('',(#49));
#48=FILL_AREA_STYLE_COLOUR('',#272);
#49=FILL_AREA_STYLE_COLOUR('',#273);
#50=MANIFOLD_SOLID_BREP('CUT',#52);
#51=MANIFOLD_SOLID_BREP('NOCUT',#53);
#52=CLOSED_SHELL('',(#62,#63,#64,#65,#66,#67));
#53=CLOSED_SHELL('',(#68,#69,#70,#71,#72,#73,#74,#75,#76,#77,#78,#79,#80,
#81,#82));
#54=CONICAL_SURFACE('',#415,5.560165293922,8.);
#55=CONICAL_SURFACE('',#418,5.560165293922,8.);
#56=CONICAL_SURFACE('',#439,4.071666666667,1.909152432996);
#57=CONICAL_SURFACE('',#441,4.071666666667,1.909152432996);
#58=CONICAL_SURFACE('',#450,2.75,45.);
#59=CONICAL_SURFACE('',#453,2.75,45.);
#60=TOROIDAL_SURFACE('',#413,4.130062519103,1.);
#61=TOROIDAL_SURFACE('',#420,4.130062519103,1.);
#62=ADVANCED_FACE('',(#90),#83,.T.);
#63=ADVANCED_FACE('',(#91),#60,.T.);
#64=ADVANCED_FACE('',(#92),#54,.T.);
#65=ADVANCED_FACE('',(#93),#55,.T.);
#66=ADVANCED_FACE('',(#94),#84,.F.);
#67=ADVANCED_FACE('',(#95),#61,.T.);
#68=ADVANCED_FACE('',(#96),#34,.T.);
#69=ADVANCED_FACE('',(#97),#35,.T.);
#70=ADVANCED_FACE('',(#98),#85,.F.);
#71=ADVANCED_FACE('',(#28,#29),#86,.F.);
#72=ADVANCED_FACE('',(#99),#36,.T.);
#73=ADVANCED_FACE('',(#100),#37,.T.);
#74=ADVANCED_FACE('',(#30,#31),#87,.F.);
#75=ADVANCED_FACE('',(#101),#56,.T.);
#76=ADVANCED_FACE('',(#102),#57,.T.);
#77=ADVANCED_FACE('',(#32,#33),#88,.F.);
#78=ADVANCED_FACE('',(#103),#38,.T.);
#79=ADVANCED_FACE('',(#104),#39,.T.);
#80=ADVANCED_FACE('',(#105),#58,.T.);
#81=ADVANCED_FACE('',(#106),#89,.F.);
#82=ADVANCED_FACE('',(#107),#59,.T.);
#83=PLANE('',#409);
#84=PLANE('',#419);
#85=PLANE('',#427);
#86=PLANE('',#430);
#87=PLANE('',#437);
#88=PLANE('',#444);
#89=PLANE('',#452);
#90=FACE_OUTER_BOUND('',#108,.T.);
#91=FACE_OUTER_BOUND('',#109,.T.);
#92=FACE_OUTER_BOUND('',#110,.T.);
#93=FACE_OUTER_BOUND('',#111,.T.);
#94=FACE_OUTER_BOUND('',#112,.T.);
#95=FACE_OUTER_BOUND('',#113,.T.);
#96=FACE_OUTER_BOUND('',#114,.T.);
#97=FACE_OUTER_BOUND('',#115,.T.);
#98=FACE_OUTER_BOUND('',#116,.T.);
#99=FACE_OUTER_BOUND('',#119,.T.);
#100=FACE_OUTER_BOUND('',#120,.T.);
#101=FACE_OUTER_BOUND('',#123,.T.);
#102=FACE_OUTER_BOUND('',#124,.T.);
#103=FACE_OUTER_BOUND('',#127,.T.);
#104=FACE_OUTER_BOUND('',#128,.T.);
#105=FACE_OUTER_BOUND('',#129,.T.);
#106=FACE_OUTER_BOUND('',#130,.T.);
#107=FACE_OUTER_BOUND('',#131,.T.);
#108=EDGE_LOOP('',(#132,#133));
#109=EDGE_LOOP('',(#134,#135,#136,#137));
#110=EDGE_LOOP('',(#138,#139,#140,#141));
#111=EDGE_LOOP('',(#142,#143,#144,#145));
#112=EDGE_LOOP('',(#146,#147));
#113=EDGE_LOOP('',(#148,#149,#150,#151));
#114=EDGE_LOOP('',(#152,#153,#154,#155));
#115=EDGE_LOOP('',(#156,#157,#158,#159));
#116=EDGE_LOOP('',(#160,#161));
#117=EDGE_LOOP('',(#162,#163));
#118=EDGE_LOOP('',(#164,#165));
#119=EDGE_LOOP('',(#166,#167,#168,#169));
#120=EDGE_LOOP('',(#170,#171,#172,#173));
#121=EDGE_LOOP('',(#174,#175));
#122=EDGE_LOOP('',(#176,#177));
#123=EDGE_LOOP('',(#178,#179,#180,#181));
#124=EDGE_LOOP('',(#182,#183,#184,#185));
#125=EDGE_LOOP('',(#186,#187));
#126=EDGE_LOOP('',(#188,#189));
#127=EDGE_LOOP('',(#190,#191,#192,#193));
#128=EDGE_LOOP('',(#194,#195,#196,#197));
#129=EDGE_LOOP('',(#198,#199,#200,#201));
#130=EDGE_LOOP('',(#202,#203));
#131=EDGE_LOOP('',(#204,#205,#206,#207));
#132=ORIENTED_EDGE('',*,*,#232,.T.);
#133=ORIENTED_EDGE('',*,*,#233,.T.);
#134=ORIENTED_EDGE('',*,*,#234,.T.);
#135=ORIENTED_EDGE('',*,*,#233,.F.);
#136=ORIENTED_EDGE('',*,*,#235,.F.);
#137=ORIENTED_EDGE('',*,*,#236,.T.);
#138=ORIENTED_EDGE('',*,*,#236,.F.);
#139=ORIENTED_EDGE('',*,*,#237,.F.);
#140=ORIENTED_EDGE('',*,*,#238,.F.);
#141=ORIENTED_EDGE('',*,*,#239,.T.);
#142=ORIENTED_EDGE('',*,*,#240,.F.);
#143=ORIENTED_EDGE('',*,*,#239,.F.);
#144=ORIENTED_EDGE('',*,*,#241,.F.);
#145=ORIENTED_EDGE('',*,*,#237,.T.);
#146=ORIENTED_EDGE('',*,*,#238,.T.);
#147=ORIENTED_EDGE('',*,*,#241,.T.);
#148=ORIENTED_EDGE('',*,*,#234,.F.);
#149=ORIENTED_EDGE('',*,*,#240,.T.);
#150=ORIENTED_EDGE('',*,*,#235,.T.);
#151=ORIENTED_EDGE('',*,*,#232,.F.);
#152=ORIENTED_EDGE('',*,*,#242,.F.);
#153=ORIENTED_EDGE('',*,*,#243,.T.);
#154=ORIENTED_EDGE('',*,*,#244,.F.);
#155=ORIENTED_EDGE('',*,*,#245,.F.);
#156=ORIENTED_EDGE('',*,*,#246,.F.);
#157=ORIENTED_EDGE('',*,*,#245,.T.);
#158=ORIENTED_EDGE('',*,*,#247,.F.);
#159=ORIENTED_EDGE('',*,*,#243,.F.);
#160=ORIENTED_EDGE('',*,*,#244,.T.);
#161=ORIENTED_EDGE('',*,*,#247,.T.);
#162=ORIENTED_EDGE('',*,*,#246,.T.);
#163=ORIENTED_EDGE('',*,*,#242,.T.);
#164=ORIENTED_EDGE('',*,*,#248,.T.);
#165=ORIENTED_EDGE('',*,*,#249,.T.);
#166=ORIENTED_EDGE('',*,*,#250,.T.);
#167=ORIENTED_EDGE('',*,*,#251,.F.);
#168=ORIENTED_EDGE('',*,*,#252,.F.);
#169=ORIENTED_EDGE('',*,*,#249,.F.);
#170=ORIENTED_EDGE('',*,*,#250,.F.);
#171=ORIENTED_EDGE('',*,*,#248,.F.);
#172=ORIENTED_EDGE('',*,*,#252,.T.);
#173=ORIENTED_EDGE('',*,*,#253,.F.);
#174=ORIENTED_EDGE('',*,*,#251,.T.);
#175=ORIENTED_EDGE('',*,*,#253,.T.);
#176=ORIENTED_EDGE('',*,*,#254,.T.);
#177=ORIENTED_EDGE('',*,*,#255,.T.);
#178=ORIENTED_EDGE('',*,*,#256,.T.);
#179=ORIENTED_EDGE('',*,*,#257,.F.);
#180=ORIENTED_EDGE('',*,*,#258,.F.);
#181=ORIENTED_EDGE('',*,*,#255,.F.);
#182=ORIENTED_EDGE('',*,*,#256,.F.);
#183=ORIENTED_EDGE('',*,*,#254,.F.);
#184=ORIENTED_EDGE('',*,*,#258,.T.);
#185=ORIENTED_EDGE('',*,*,#259,.F.);
#186=ORIENTED_EDGE('',*,*,#257,.T.);
#187=ORIENTED_EDGE('',*,*,#259,.T.);
#188=ORIENTED_EDGE('',*,*,#260,.T.);
#189=ORIENTED_EDGE('',*,*,#261,.T.);
#190=ORIENTED_EDGE('',*,*,#262,.T.);
#191=ORIENTED_EDGE('',*,*,#263,.F.);
#192=ORIENTED_EDGE('',*,*,#264,.F.);
#193=ORIENTED_EDGE('',*,*,#261,.F.);
#194=ORIENTED_EDGE('',*,*,#262,.F.);
#195=ORIENTED_EDGE('',*,*,#260,.F.);
#196=ORIENTED_EDGE('',*,*,#264,.T.);
#197=ORIENTED_EDGE('',*,*,#265,.F.);
#198=ORIENTED_EDGE('',*,*,#266,.T.);
#199=ORIENTED_EDGE('',*,*,#265,.T.);
#200=ORIENTED_EDGE('',*,*,#267,.F.);
#201=ORIENTED_EDGE('',*,*,#268,.F.);
#202=ORIENTED_EDGE('',*,*,#269,.T.);
#203=ORIENTED_EDGE('',*,*,#268,.T.);
#204=ORIENTED_EDGE('',*,*,#266,.F.);
#205=ORIENTED_EDGE('',*,*,#269,.F.);
#206=ORIENTED_EDGE('',*,*,#267,.T.);
#207=ORIENTED_EDGE('',*,*,#263,.T.);
#208=VERTEX_POINT('',#597);
#209=VERTEX_POINT('',#598);
#210=VERTEX_POINT('',#602);
#211=VERTEX_POINT('',#604);
#212=VERTEX_POINT('',#608);
#213=VERTEX_POINT('',#610);
#214=VERTEX_POINT('',#619);
#215=VERTEX_POINT('',#620);
#216=VERTEX_POINT('',#622);
#217=VERTEX_POINT('',#624);
#218=VERTEX_POINT('',#632);
#219=VERTEX_POINT('',#633);
#220=VERTEX_POINT('',#637);
#221=VERTEX_POINT('',#639);
#222=VERTEX_POINT('',#645);
#223=VERTEX_POINT('',#646);
#224=VERTEX_POINT('',#650);
#225=VERTEX_POINT('',#652);
#226=VERTEX_POINT('',#658);
#227=VERTEX_POINT('',#659);
#228=VERTEX_POINT('',#663);
#229=VERTEX_POINT('',#665);
#230=VERTEX_POINT('',#671);
#231=VERTEX_POINT('',#673);
#232=EDGE_CURVE('',#208,#209,#275,.T.);
#233=EDGE_CURVE('',#209,#208,#276,.T.);
#234=EDGE_CURVE('',#210,#208,#277,.T.);
#235=EDGE_CURVE('',#211,#209,#278,.T.);
#236=EDGE_CURVE('',#211,#210,#279,.T.);
#237=EDGE_CURVE('',#212,#211,#334,.T.);
#238=EDGE_CURVE('',#213,#212,#280,.T.);
#239=EDGE_CURVE('',#213,#210,#335,.T.);
#240=EDGE_CURVE('',#210,#211,#281,.T.);
#241=EDGE_CURVE('',#212,#213,#282,.T.);
#242=EDGE_CURVE('',#214,#215,#283,.T.);
#243=EDGE_CURVE('',#214,#216,#336,.T.);
#244=EDGE_CURVE('',#217,#216,#284,.T.);
#245=EDGE_CURVE('',#215,#217,#337,.T.);
#246=EDGE_CURVE('',#215,#214,#285,.T.);
#247=EDGE_CURVE('',#216,#217,#286,.T.);
#248=EDGE_CURVE('',#218,#219,#287,.T.);
#249=EDGE_CURVE('',#219,#218,#288,.T.);
#250=EDGE_CURVE('',#219,#220,#338,.T.);
#251=EDGE_CURVE('',#221,#220,#289,.T.);
#252=EDGE_CURVE('',#218,#221,#339,.T.);
#253=EDGE_CURVE('',#220,#221,#290,.T.);
#254=EDGE_CURVE('',#222,#223,#291,.T.);
#255=EDGE_CURVE('',#223,#222,#292,.T.);
#256=EDGE_CURVE('',#223,#224,#340,.T.);
#257=EDGE_CURVE('',#225,#224,#293,.T.);
#258=EDGE_CURVE('',#222,#225,#341,.T.);
#259=EDGE_CURVE('',#224,#225,#294,.T.);
#260=EDGE_CURVE('',#226,#227,#295,.T.);
#261=EDGE_CURVE('',#227,#226,#296,.T.);
#262=EDGE_CURVE('',#227,#228,#342,.T.);
#263=EDGE_CURVE('',#229,#228,#297,.T.);
#264=EDGE_CURVE('',#226,#229,#343,.T.);
#265=EDGE_CURVE('',#228,#229,#298,.T.);
#266=EDGE_CURVE('',#230,#228,#344,.T.);
#267=EDGE_CURVE('',#231,#229,#345,.T.);
#268=EDGE_CURVE('',#230,#231,#299,.T.);
#269=EDGE_CURVE('',#231,#230,#300,.T.);
#270=COLOUR_RGB('Strong Stone',0.576470588235294,0.54508278019379,0.392156862745098);
#271=COLOUR_RGB('Medium Umber',0.372533760585946,0.313725490196078,0.270572976272221);
#272=COLOUR_RGB('cutting part',0.8,0.8,0.8);
#273=COLOUR_RGB('non-cutting part and shank',0.501960784313725,0.501960784313725,
0.501960784313725);
#274=CIRCLE('',#399,1.);
#275=CIRCLE('',#407,4.130062519103);
#276=CIRCLE('',#408,4.130062519103);
#277=CIRCLE('',#410,1.);
#278=CIRCLE('',#411,1.);
#279=CIRCLE('',#412,5.120330587845);
#280=CIRCLE('',#414,6.);
#281=CIRCLE('',#416,5.120330587845);
#282=CIRCLE('',#417,6.);
#283=CIRCLE('',#421,6.);
#284=CIRCLE('',#422,6.);
#285=CIRCLE('',#424,6.);
#286=CIRCLE('',#425,6.);
#287=CIRCLE('',#428,5.85);
#288=CIRCLE('',#429,5.85);
#289=CIRCLE('',#431,5.85);
#290=CIRCLE('',#433,5.85);
#291=CIRCLE('',#435,4.2);
#292=CIRCLE('',#436,4.2);
#293=CIRCLE('',#438,3.943333333334);
#294=CIRCLE('',#440,3.943333333334);
#295=CIRCLE('',#442,3.);
#296=CIRCLE('',#443,3.);
#297=CIRCLE('',#445,3.);
#298=CIRCLE('',#447,3.);
#299=CIRCLE('',#449,2.5);
#300=CIRCLE('',#451,2.5);
#301=CURVE_STYLE('',#313,POSITIVE_LENGTH_MEASURE(0.13),#397);
#302=CURVE_STYLE('',#314,POSITIVE_LENGTH_MEASURE(0.13),#397);
#303=CURVE_STYLE('',#315,POSITIVE_LENGTH_MEASURE(0.13),#397);
#304=CURVE_STYLE('',#316,POSITIVE_LENGTH_MEASURE(0.13),#397);
#305=CURVE_STYLE('',#317,POSITIVE_LENGTH_MEASURE(0.13),#397);
#306=CURVE_STYLE('',#318,POSITIVE_LENGTH_MEASURE(0.13),#270);
#307=CURVE_STYLE('',#319,POSITIVE_LENGTH_MEASURE(0.13),#270);
#308=CURVE_STYLE('',#320,POSITIVE_LENGTH_MEASURE(0.13),#271);
#309=CURVE_STYLE('',#321,POSITIVE_LENGTH_MEASURE(0.13),#271);
#310=CURVE_STYLE('',#322,POSITIVE_LENGTH_MEASURE(0.13),#270);
#311=CURVE_STYLE('',#323,POSITIVE_LENGTH_MEASURE(0.13),#270);
#312=CURVE_STYLE('',#324,POSITIVE_LENGTH_MEASURE(0.13),#270);
#313=DRAUGHTING_PRE_DEFINED_CURVE_FONT('continuous');
#314=DRAUGHTING_PRE_DEFINED_CURVE_FONT('continuous');
#315=DRAUGHTING_PRE_DEFINED_CURVE_FONT('continuous');
#316=DRAUGHTING_PRE_DEFINED_CURVE_FONT('continuous');
#317=DRAUGHTING_PRE_DEFINED_CURVE_FONT('continuous');
#318=DRAUGHTING_PRE_DEFINED_CURVE_FONT('continuous');
#319=DRAUGHTING_PRE_DEFINED_CURVE_FONT('continuous');
#320=DRAUGHTING_PRE_DEFINED_CURVE_FONT('continuous');
#321=DRAUGHTING_PRE_DEFINED_CURVE_FONT('continuous');
#322=DRAUGHTING_PRE_DEFINED_CURVE_FONT('continuous');
#323=DRAUGHTING_PRE_DEFINED_CURVE_FONT('continuous');
#324=DRAUGHTING_PRE_DEFINED_CURVE_FONT('continuous');
#325=TRIMMED_CURVE('',#330,(PARAMETER_VALUE(0.)),(PARAMETER_VALUE(1.)),
 .T.,.PARAMETER.);
#326=TRIMMED_CURVE('',#331,(PARAMETER_VALUE(0.)),(PARAMETER_VALUE(1.)),
 .T.,.PARAMETER.);
#327=TRIMMED_CURVE('',#332,(PARAMETER_VALUE(0.)),(PARAMETER_VALUE(1.)),
 .T.,.PARAMETER.);
#328=TRIMMED_CURVE('',#333,(PARAMETER_VALUE(0.)),(PARAMETER_VALUE(1.)),
 .T.,.PARAMETER.);
#329=TRIMMED_CURVE('',#274,(PARAMETER_VALUE(0.)),(PARAMETER_VALUE(82.)),
 .T.,.PARAMETER.);
#330=LINE('',#584,#346);
#331=LINE('',#585,#347);
#332=LINE('',#586,#348);
#333=LINE('',#587,#349);
#334=LINE('',#607,#350);
#335=LINE('',#611,#351);
#336=LINE('',#621,#352);
#337=LINE('',#625,#353);
#338=LINE('',#636,#354);
#339=LINE('',#640,#355);
#340=LINE('',#649,#356);
#341=LINE('',#653,#357);
#342=LINE('',#662,#358);
#343=LINE('',#666,#359);
#344=LINE('',#670,#360);
#345=LINE('',#672,#361);
#346=VECTOR('',#456,4.130062519103);
#347=VECTOR('',#457,6.32068557851622);
#348=VECTOR('',#458,6.);
#349=VECTOR('',#459,7.12);
#350=VECTOR('',#490,1.);
#351=VECTOR('',#493,1.);
#352=VECTOR('',#508,1.);
#353=VECTOR('',#511,1.);
#354=VECTOR('',#528,1.);
#355=VECTOR('',#531,1.);
#356=VECTOR('',#544,1.);
#357=VECTOR('',#547,1.);
#358=VECTOR('',#560,1.);
#359=VECTOR('',#563,1.);
#360=VECTOR('',#570,1.);
#361=VECTOR('',#571,1.);
#362=PRESENTATION_LAYER_ASSIGNMENT('3','Layer 3',(#583));
#363=PRESENTATION_LAYER_ASSIGNMENT('1','Layer 1',(#325,#326,#327,#328,#329,
#400,#401,#404,#405,#406,#50,#51));
#364=PRESENTATION_LAYER_ASSIGNMENT('2','Layer 2',(#402,#403));
#365=STYLED_ITEM('',(#380),#583);
#366=STYLED_ITEM('',(#381),#325);
#367=STYLED_ITEM('',(#382),#326);
#368=STYLED_ITEM('',(#383),#327);
#369=STYLED_ITEM('',(#384),#328);
#370=STYLED_ITEM('',(#385),#329);
#371=STYLED_ITEM('',(#386),#400);
#372=STYLED_ITEM('',(#387),#401);
#373=STYLED_ITEM('',(#388),#402);
#374=STYLED_ITEM('',(#389),#403);
#375=STYLED_ITEM('',(#390),#404);
#376=STYLED_ITEM('',(#391),#405);
#377=STYLED_ITEM('',(#392),#406);
#378=STYLED_ITEM('',(#393),#50);
#379=STYLED_ITEM('',(#394),#51);
#380=PRESENTATION_STYLE_ASSIGNMENT((#395));
#381=PRESENTATION_STYLE_ASSIGNMENT((#301));
#382=PRESENTATION_STYLE_ASSIGNMENT((#302));
#383=PRESENTATION_STYLE_ASSIGNMENT((#303));
#384=PRESENTATION_STYLE_ASSIGNMENT((#304));
#385=PRESENTATION_STYLE_ASSIGNMENT((#305));
#386=PRESENTATION_STYLE_ASSIGNMENT((#306));
#387=PRESENTATION_STYLE_ASSIGNMENT((#307));
#388=PRESENTATION_STYLE_ASSIGNMENT((#308));
#389=PRESENTATION_STYLE_ASSIGNMENT((#309));
#390=PRESENTATION_STYLE_ASSIGNMENT((#310));
#391=PRESENTATION_STYLE_ASSIGNMENT((#311));
#392=PRESENTATION_STYLE_ASSIGNMENT((#312));
#393=PRESENTATION_STYLE_ASSIGNMENT((#40));
#394=PRESENTATION_STYLE_ASSIGNMENT((#41));
#395=POINT_STYLE('',#396,POSITIVE_LENGTH_MEASURE(3.),#397);
#396=PRE_DEFINED_POINT_MARKER_SYMBOL('plus');
#397=DRAUGHTING_PRE_DEFINED_COLOUR('blue');
#398=AXIS2_PLACEMENT_3D('',#582,#454,#455);
#399=AXIS2_PLACEMENT_3D('',#588,#460,#461);
#400=AXIS2_PLACEMENT_3D('',#589,#462,#463);
#401=AXIS2_PLACEMENT_3D('',#590,#464,#465);
#402=AXIS2_PLACEMENT_3D('CIP',#591,#466,#467);
#403=AXIS2_PLACEMENT_3D('PCS',#592,#468,#469);
#404=AXIS2_PLACEMENT_3D('MCS',#593,#470,#471);
#405=AXIS2_PLACEMENT_3D('',#594,#472,#473);
#406=AXIS2_PLACEMENT_3D('',#595,#474,#475);
#407=AXIS2_PLACEMENT_3D('',#596,#476,#477);
#408=AXIS2_PLACEMENT_3D('',#599,#478,#479);
#409=AXIS2_PLACEMENT_3D('',#600,#480,#481);
#410=AXIS2_PLACEMENT_3D('',#601,#482,#483);
#411=AXIS2_PLACEMENT_3D('',#603,#484,#485);
#412=AXIS2_PLACEMENT_3D('',#605,#486,#487);
#413=AXIS2_PLACEMENT_3D('',#606,#488,#489);
#414=AXIS2_PLACEMENT_3D('',#609,#491,#492);
#415=AXIS2_PLACEMENT_3D('',#612,#494,#495);
#416=AXIS2_PLACEMENT_3D('',#613,#496,#497);
#417=AXIS2_PLACEMENT_3D('',#614,#498,#499);
#418=AXIS2_PLACEMENT_3D('',#615,#500,#501);
#419=AXIS2_PLACEMENT_3D('',#616,#502,#503);
#420=AXIS2_PLACEMENT_3D('',#617,#504,#505);
#421=AXIS2_PLACEMENT_3D('',#618,#506,#507);
#422=AXIS2_PLACEMENT_3D('',#623,#509,#510);
#423=AXIS2_PLACEMENT_3D('',#626,#512,#513);
#424=AXIS2_PLACEMENT_3D('',#627,#514,#515);
#425=AXIS2_PLACEMENT_3D('',#628,#516,#517);
#426=AXIS2_PLACEMENT_3D('',#629,#518,#519);
#427=AXIS2_PLACEMENT_3D('',#630,#520,#521);
#428=AXIS2_PLACEMENT_3D('',#631,#522,#523);
#429=AXIS2_PLACEMENT_3D('',#634,#524,#525);
#430=AXIS2_PLACEMENT_3D('',#635,#526,#527);
#431=AXIS2_PLACEMENT_3D('',#638,#529,#530);
#432=AXIS2_PLACEMENT_3D('',#641,#532,#533);
#433=AXIS2_PLACEMENT_3D('',#642,#534,#535);
#434=AXIS2_PLACEMENT_3D('',#643,#536,#537);
#435=AXIS2_PLACEMENT_3D('',#644,#538,#539);
#436=AXIS2_PLACEMENT_3D('',#647,#540,#541);
#437=AXIS2_PLACEMENT_3D('',#648,#542,#543);
#438=AXIS2_PLACEMENT_3D('',#651,#545,#546);
#439=AXIS2_PLACEMENT_3D('',#654,#548,#549);
#440=AXIS2_PLACEMENT_3D('',#655,#550,#551);
#441=AXIS2_PLACEMENT_3D('',#656,#552,#553);
#442=AXIS2_PLACEMENT_3D('',#657,#554,#555);
#443=AXIS2_PLACEMENT_3D('',#660,#556,#557);
#444=AXIS2_PLACEMENT_3D('',#661,#558,#559);
#445=AXIS2_PLACEMENT_3D('',#664,#561,#562);
#446=AXIS2_PLACEMENT_3D('',#667,#564,#565);
#447=AXIS2_PLACEMENT_3D('',#668,#566,#567);
#448=AXIS2_PLACEMENT_3D('',#669,#568,#569);
#449=AXIS2_PLACEMENT_3D('',#674,#572,#573);
#450=AXIS2_PLACEMENT_3D('',#675,#574,#575);
#451=AXIS2_PLACEMENT_3D('',#676,#576,#577);
#452=AXIS2_PLACEMENT_3D('',#677,#578,#579);
#453=AXIS2_PLACEMENT_3D('',#678,#580,#581);
#454=DIRECTION('',(0.,0.,1.));
#455=DIRECTION('',(1.,0.,0.));
#456=DIRECTION('',(-1.,0.,0.));
#457=DIRECTION('',(-0.139173100960095,0.,0.990268068741566));
#458=DIRECTION('',(1.,0.,0.));
#459=DIRECTION('',(0.,0.,-1.));
#460=DIRECTION('',(0.,1.,0.));
#461=DIRECTION('',(0.,0.,-1.));
#462=DIRECTION('',(0.,0.,1.));
#463=DIRECTION('',(1.,0.,0.));
#464=DIRECTION('',(0.,0.,1.));
#465=DIRECTION('',(1.,0.,0.));
#466=DIRECTION('',(0.,0.,1.));
#467=DIRECTION('',(1.,0.,0.));
#468=DIRECTION('',(0.,0.,1.));
#469=DIRECTION('',(1.,0.,0.));
#470=DIRECTION('',(0.,0.,1.));
#471=DIRECTION('',(1.,0.,0.));
#472=DIRECTION('',(0.,0.,1.));
#473=DIRECTION('',(1.,0.,0.));
#474=DIRECTION('',(0.,0.,1.));
#475=DIRECTION('',(1.,0.,0.));
#476=DIRECTION('',(0.,0.,-1.));
#477=DIRECTION('',(0.,-1.,0.));
#478=DIRECTION('',(0.,0.,-1.));
#479=DIRECTION('',(0.,1.,0.));
#480=DIRECTION('',(0.,0.,-1.));
#481=DIRECTION('',(0.,-1.,0.));
#482=DIRECTION('',(1.,0.,0.));
#483=DIRECTION('',(0.,-0.990268068741566,-0.139173100960094));
#484=DIRECTION('',(-1.,0.,0.));
#485=DIRECTION('',(0.,0.990268068741566,-0.139173100960094));
#486=DIRECTION('',(0.,0.,-1.));
#487=DIRECTION('',(0.,1.,0.));
#488=DIRECTION('',(0.,0.,-1.));
#489=DIRECTION('',(0.,-1.,0.));
#490=DIRECTION('',(0.,-0.139173100959997,-0.99026806874158));
#491=DIRECTION('',(0.,0.,1.));
#492=DIRECTION('',(0.,-1.,0.));
#493=DIRECTION('',(0.,0.139173100959997,-0.99026806874158));
#494=DIRECTION('',(0.,0.,1.));
#495=DIRECTION('',(0.,1.,-9.4987630530692E-17));
#496=DIRECTION('',(0.,0.,-1.));
#497=DIRECTION('',(0.,-1.,0.));
#498=DIRECTION('',(0.,0.,1.));
#499=DIRECTION('',(0.,1.,0.));
#500=DIRECTION('',(0.,0.,1.));
#501=DIRECTION('',(0.,1.,-9.4987630530692E-17));
#502=DIRECTION('',(0.,0.,-1.));
#503=DIRECTION('',(-1.,0.,0.));
#504=DIRECTION('',(0.,0.,-1.));
#505=DIRECTION('',(0.,-1.,0.));
#506=DIRECTION('',(0.,0.,1.));
#507=DIRECTION('',(0.,-1.,0.));
#508=DIRECTION('',(0.,0.,-1.));
#509=DIRECTION('',(0.,0.,-1.));
#510=DIRECTION('',(0.,1.,0.));
#511=DIRECTION('',(0.,0.,-1.));
#512=DIRECTION('',(0.,0.,-1.));
#513=DIRECTION('',(0.,-1.,0.));
#514=DIRECTION('',(0.,0.,1.));
#515=DIRECTION('',(0.,1.,0.));
#516=DIRECTION('',(0.,0.,-1.));
#517=DIRECTION('',(0.,-1.,0.));
#518=DIRECTION('',(0.,0.,-1.));
#519=DIRECTION('',(0.,-1.,0.));
#520=DIRECTION('',(0.,0.,1.));
#521=DIRECTION('',(1.,0.,0.));
#522=DIRECTION('',(0.,0.,-1.));
#523=DIRECTION('',(0.,1.,0.));
#524=DIRECTION('',(0.,0.,-1.));
#525=DIRECTION('',(0.,-1.,0.));
#526=DIRECTION('',(0.,0.,-1.));
#527=DIRECTION('',(0.,-1.,0.));
#528=DIRECTION('',(0.,0.,1.));
#529=DIRECTION('',(0.,0.,1.));
#530=DIRECTION('',(0.,1.,0.));
#531=DIRECTION('',(0.,0.,1.));
#532=DIRECTION('',(0.,0.,-1.));
#533=DIRECTION('',(0.,-1.,0.));
#534=DIRECTION('',(0.,0.,1.));
#535=DIRECTION('',(0.,-1.,0.));
#536=DIRECTION('',(0.,0.,-1.));
#537=DIRECTION('',(0.,-1.,0.));
#538=DIRECTION('',(0.,0.,-1.));
#539=DIRECTION('',(0.,1.,0.));
#540=DIRECTION('',(0.,0.,-1.));
#541=DIRECTION('',(0.,-1.,0.));
#542=DIRECTION('',(0.,0.,-1.));
#543=DIRECTION('',(0.,-1.,0.));
#544=DIRECTION('',(0.,0.0333148302326085,0.999444906979155));
#545=DIRECTION('',(0.,0.,1.));
#546=DIRECTION('',(0.,1.,0.));
#547=DIRECTION('',(0.,-0.0333148302326085,0.999444906979155));
#548=DIRECTION('',(0.,0.,-1.));
#549=DIRECTION('',(0.,-1.,4.6376780536749E-16));
#550=DIRECTION('',(0.,0.,1.));
#551=DIRECTION('',(0.,-1.,0.));
#552=DIRECTION('',(0.,0.,-1.));
#553=DIRECTION('',(0.,-1.,4.6376780536749E-16));
#554=DIRECTION('',(0.,0.,-1.));
#555=DIRECTION('',(0.,1.,0.));
#556=DIRECTION('',(0.,0.,-1.));
#557=DIRECTION('',(0.,-1.,0.));
#558=DIRECTION('',(0.,0.,-1.));
#559=DIRECTION('',(0.,-1.,0.));
#560=DIRECTION('',(0.,0.,1.));
#561=DIRECTION('',(0.,0.,1.));
#562=DIRECTION('',(0.,1.,0.));
#563=DIRECTION('',(0.,0.,1.));
#564=DIRECTION('',(0.,0.,-1.));
#565=DIRECTION('',(0.,-1.,0.));
#566=DIRECTION('',(0.,0.,1.));
#567=DIRECTION('',(0.,-1.,0.));
#568=DIRECTION('',(0.,0.,-1.));
#569=DIRECTION('',(0.,-1.,0.));
#570=DIRECTION('',(0.,-0.707106781186547,-0.707106781186547));
#571=DIRECTION('',(0.,0.707106781186547,-0.707106781186547));
#572=DIRECTION('',(0.,0.,1.));
#573=DIRECTION('',(0.,-1.,0.));
#574=DIRECTION('',(0.,0.,-1.));
#575=DIRECTION('',(0.,-1.,-3.80592535242979E-17));
#576=DIRECTION('',(0.,0.,1.));
#577=DIRECTION('',(0.,1.,0.));
#578=DIRECTION('',(0.,0.,-1.));
#579=DIRECTION('',(0.,-1.,0.));
#580=DIRECTION('',(0.,0.,-1.));
#581=DIRECTION('',(0.,-1.,-3.80592535242979E-17));
#582=CARTESIAN_POINT('',(0.,0.,0.));
#583=CARTESIAN_POINT('CRP',(-4.999349256919,0.,-19.));
#584=CARTESIAN_POINT('',(0.,0.,-19.));
#585=CARTESIAN_POINT('',(-5.120330587844,0.,-18.13917310096));
#586=CARTESIAN_POINT('',(-6.,0.,-11.88));
#587=CARTESIAN_POINT('',(0.,0.,-11.88));
#588=CARTESIAN_POINT('',(-4.130062519103,0.,-18.));
#589=CARTESIAN_POINT('',(0.,0.,-19.));
#590=CARTESIAN_POINT('',(0.,0.,-19.));
#591=CARTESIAN_POINT('',(0.,0.,-19.));
#592=CARTESIAN_POINT('',(0.,0.,0.));
#593=CARTESIAN_POINT('',(0.,0.,0.));
#594=CARTESIAN_POINT('',(0.,0.,-19.));
#595=CARTESIAN_POINT('',(0.,0.,-19.));
#596=CARTESIAN_POINT('',(0.,0.,-19.));
#597=CARTESIAN_POINT('',(0.,-4.130062519103,-19.));
#598=CARTESIAN_POINT('',(0.,4.130062519103,-19.));
#599=CARTESIAN_POINT('',(0.,0.,-19.));
#600=CARTESIAN_POINT('',(0.,0.,-19.));
#601=CARTESIAN_POINT('',(0.,-4.130062519103,-18.));
#602=CARTESIAN_POINT('',(0.,-5.120330587845,-18.1391731009601));
#603=CARTESIAN_POINT('',(0.,4.130062519103,-18.));
#604=CARTESIAN_POINT('',(0.,5.120330587845,-18.1391731009601));
#605=CARTESIAN_POINT('',(0.,0.,-18.1391731009601));
#606=CARTESIAN_POINT('',(0.,0.,-18.));
#607=CARTESIAN_POINT('',(0.,5.120330587844,-18.1391731009601));
#608=CARTESIAN_POINT('',(0.,6.,-11.88));
#609=CARTESIAN_POINT('',(0.,0.,-11.88));
#610=CARTESIAN_POINT('',(0.,-6.,-11.88));
#611=CARTESIAN_POINT('',(0.,-5.120330587844,-18.1391731009601));
#612=CARTESIAN_POINT('',(0.,0.,-15.00958655048));
#613=CARTESIAN_POINT('',(0.,0.,-18.1391731009601));
#614=CARTESIAN_POINT('',(0.,0.,-11.88));
#615=CARTESIAN_POINT('',(0.,0.,-15.00958655048));
#616=CARTESIAN_POINT('',(150.,150.,-11.88));
#617=CARTESIAN_POINT('',(0.,0.,-18.));
#618=CARTESIAN_POINT('',(0.,0.,-6.5));
#619=CARTESIAN_POINT('',(0.,-6.,-6.5));
#620=CARTESIAN_POINT('',(0.,6.,-6.5));
#621=CARTESIAN_POINT('',(0.,-6.,-11.88));
#622=CARTESIAN_POINT('',(0.,-6.,-11.88));
#623=CARTESIAN_POINT('',(0.,0.,-11.88));
#624=CARTESIAN_POINT('',(0.,6.,-11.88));
#625=CARTESIAN_POINT('',(0.,6.,-11.88));
#626=CARTESIAN_POINT('',(0.,0.,16.385));
#627=CARTESIAN_POINT('',(0.,0.,-6.5));
#628=CARTESIAN_POINT('',(0.,0.,-11.88));
#629=CARTESIAN_POINT('',(0.,0.,16.385));
#630=CARTESIAN_POINT('',(-150.,150.,-11.88));
#631=CARTESIAN_POINT('',(0.,0.,-6.5));
#632=CARTESIAN_POINT('',(0.,5.85,-6.5));
#633=CARTESIAN_POINT('',(0.,-5.85,-6.5));
#634=CARTESIAN_POINT('',(0.,0.,-6.5));
#635=CARTESIAN_POINT('',(0.,0.,-6.5));
#636=CARTESIAN_POINT('',(0.,-5.85,-6.5));
#637=CARTESIAN_POINT('',(0.,-5.85,0.));
#638=CARTESIAN_POINT('',(0.,0.,0.));
#639=CARTESIAN_POINT('',(0.,5.85,0.));
#640=CARTESIAN_POINT('',(0.,5.85,-6.5));
#641=CARTESIAN_POINT('',(0.,0.,16.385));
#642=CARTESIAN_POINT('',(0.,0.,0.));
#643=CARTESIAN_POINT('',(0.,0.,16.385));
#644=CARTESIAN_POINT('',(0.,0.,0.));
#645=CARTESIAN_POINT('',(0.,4.2,0.));
#646=CARTESIAN_POINT('',(0.,-4.2,0.));
#647=CARTESIAN_POINT('',(0.,0.,0.));
#648=CARTESIAN_POINT('',(0.,0.,0.));
#649=CARTESIAN_POINT('',(0.,-4.2,0.));
#650=CARTESIAN_POINT('',(0.,-3.943333333334,7.7));
#651=CARTESIAN_POINT('',(0.,0.,7.7));
#652=CARTESIAN_POINT('',(0.,3.943333333334,7.7));
#653=CARTESIAN_POINT('',(0.,4.2,0.));
#654=CARTESIAN_POINT('',(0.,0.,3.85));
#655=CARTESIAN_POINT('',(0.,0.,7.7));
#656=CARTESIAN_POINT('',(0.,0.,3.85));
#657=CARTESIAN_POINT('',(0.,0.,7.7));
#658=CARTESIAN_POINT('',(0.,3.,7.7));
#659=CARTESIAN_POINT('',(0.,-3.,7.7));
#660=CARTESIAN_POINT('',(0.,0.,7.7));
#661=CARTESIAN_POINT('',(0.,0.,7.7));
#662=CARTESIAN_POINT('',(0.,-3.,7.7));
#663=CARTESIAN_POINT('',(0.,-3.,14.2));
#664=CARTESIAN_POINT('',(0.,0.,14.2));
#665=CARTESIAN_POINT('',(0.,3.,14.2));
#666=CARTESIAN_POINT('',(0.,3.,7.7));
#667=CARTESIAN_POINT('',(0.,0.,16.385));
#668=CARTESIAN_POINT('',(0.,0.,14.2));
#669=CARTESIAN_POINT('',(0.,0.,16.385));
#670=CARTESIAN_POINT('',(0.,-2.5,14.7));
#671=CARTESIAN_POINT('',(0.,-2.5,14.7));
#672=CARTESIAN_POINT('',(0.,2.5,14.7));
#673=CARTESIAN_POINT('',(0.,2.5,14.7));
#674=CARTESIAN_POINT('',(0.,0.,14.7));
#675=CARTESIAN_POINT('',(0.,0.,14.45));
#676=CARTESIAN_POINT('',(0.,0.,14.7));
#677=CARTESIAN_POINT('',(0.,0.,14.7));
#678=CARTESIAN_POINT('',(0.,0.,14.45));
#679=MECHANICAL_DESIGN_GEOMETRIC_PRESENTATION_REPRESENTATION('',(#365,#366,
#367,#368,#369,#370,#371,#372,#373,#374,#375,#376,#377,#378,#379),#680);
#680=(
GEOMETRIC_REPRESENTATION_CONTEXT(3)
GLOBAL_UNCERTAINTY_ASSIGNED_CONTEXT((#681))
GLOBAL_UNIT_ASSIGNED_CONTEXT((#687,#683,#682))
REPRESENTATION_CONTEXT('IMX12C10T100R10T080C','TOP_LEVEL_ASSEMBLY_PART')
);
#681=UNCERTAINTY_MEASURE_WITH_UNIT(LENGTH_MEASURE(2.E-5),#687,
'DISTANCE_ACCURACY_VALUE','Maximum Tolerance applied to model');
#682=(
NAMED_UNIT(*)
SI_UNIT($,.STERADIAN.)
SOLID_ANGLE_UNIT()
);
#683=(
CONVERSION_BASED_UNIT('DEGREE',#685)
NAMED_UNIT(#684)
PLANE_ANGLE_UNIT()
);
#684=DIMENSIONAL_EXPONENTS(0.,0.,0.,0.,0.,0.,0.);
#685=PLANE_ANGLE_MEASURE_WITH_UNIT(PLANE_ANGLE_MEASURE(0.0174532925),#686);
#686=(
NAMED_UNIT(*)
PLANE_ANGLE_UNIT()
SI_UNIT($,.RADIAN.)
);
#687=(
LENGTH_UNIT()
NAMED_UNIT(*)
SI_UNIT(.MILLI.,.METRE.)
);
ENDSEC;
END-ISO-10303-21;
