ISO-10303-21;
HEADER;
/* Generated by software containing ST-Developer
 * from STEP Tools, Inc. (www.steptools.com) 
 */
/* OPTION: using custom schema-name function */

FILE_DESCRIPTION(
/* description */ (''),
/* implementation_level */ '2;1');

FILE_NAME(
/* name */ 'LLSTN33.stp',
/* time_stamp */ '2022-02-03T10:33:03+09:00',
/* author */ (''),
/* organization */ (''),
/* preprocessor_version */ 'ST-DEVELOPER v16',
/* originating_system */ 'SIEMENS PLM Software NX 10.0',
/* authorisation */ '');

FILE_SCHEMA (('AUTOMOTIVE_DESIGN { 1 0 10303 214 3 1 1 1 }'));
ENDSEC;

DATA;
#10=CONSTRUCTIVE_GEOMETRY_REPRESENTATION_RELATIONSHIP(
'supplemental geometry','',#26,#11);
#11=CONSTRUCTIVE_GEOMETRY_REPRESENTATION('supplemental geometry',(#358,
#359),#593);
#12=GEOMETRICALLY_BOUNDED_WIREFRAME_SHAPE_REPRESENTATION('LLSTN33-None',
(#27),#593);
#13=SHAPE_REPRESENTATION_RELATIONSHIP('None',
'relationship between LLSTN33-None and LLSTN33-None',#26,#15);
#14=SHAPE_REPRESENTATION_RELATIONSHIP('None',
'relationship between LLSTN33-None and LLSTN33-None',#26,#12);
#15=ADVANCED_BREP_SHAPE_REPRESENTATION('LLSTN33-None',(#33),#593);
#16=SHAPE_DEFINITION_REPRESENTATION(#17,#26);
#17=PRODUCT_DEFINITION_SHAPE('','',#18);
#18=PRODUCT_DEFINITION('part definition','',#20,#19);
#19=PRODUCT_DEFINITION_CONTEXT('part definition',#25,'design');
#20=PRODUCT_DEFINITION_FORMATION_WITH_SPECIFIED_SOURCE(' ',' ',#22,
 .NOT_KNOWN.);
#21=PRODUCT_RELATED_PRODUCT_CATEGORY('part','',(#22));
#22=PRODUCT('LLSTN33','LLSTN33','NOT SPECIFIED',(#23));
#23=PRODUCT_CONTEXT('',#25,'mechanical');
#24=APPLICATION_PROTOCOL_DEFINITION('international standard',
'automotive_design',2010,#25);
#25=APPLICATION_CONTEXT(
'core data for automotive mechanical design processes');
#26=SHAPE_REPRESENTATION('LLSTN33-None',(#357),#593);
#27=GEOMETRIC_CURVE_SET('None',(#501));
#28=SURFACE_STYLE_USAGE(.BOTH.,#29);
#29=SURFACE_SIDE_STYLE('',(#30));
#30=SURFACE_STYLE_FILL_AREA(#31);
#31=FILL_AREA_STYLE('',(#32));
#32=FILL_AREA_STYLE_COLOUR('',#340);
#33=MANIFOLD_SOLID_BREP('',#34);
#34=CLOSED_SHELL('',(#65,#66,#67,#68,#69,#70,#71,#72,#73,#74,#75,#76,#77,
#78,#79,#80,#81,#82,#83));
#35=ELLIPSE('',#383,0.565685424949264,0.4);
#36=ELLIPSE('',#389,0.565685424949264,0.4);
#37=CYLINDRICAL_SURFACE('',#378,2.4);
#38=CYLINDRICAL_SURFACE('',#380,2.4);
#39=CYLINDRICAL_SURFACE('',#387,1.2);
#40=CYLINDRICAL_SURFACE('',#390,0.4);
#41=CYLINDRICAL_SURFACE('',#395,0.8);
#42=CONICAL_SURFACE('',#374,2.75,45.);
#43=CONICAL_SURFACE('',#376,2.75,45.);
#44=CONICAL_SURFACE('',#381,2.75,30.);
#45=CONICAL_SURFACE('',#382,2.75,30.);
#46=CONICAL_SURFACE('',#386,0.95,45.);
#47=CONICAL_SURFACE('',#394,0.55,45.);
#48=FACE_OUTER_BOUND('',#98,.T.);
#49=FACE_OUTER_BOUND('',#99,.T.);
#50=FACE_OUTER_BOUND('',#102,.T.);
#51=FACE_OUTER_BOUND('',#103,.T.);
#52=FACE_OUTER_BOUND('',#104,.T.);
#53=FACE_OUTER_BOUND('',#105,.T.);
#54=FACE_OUTER_BOUND('',#106,.T.);
#55=FACE_OUTER_BOUND('',#107,.T.);
#56=FACE_OUTER_BOUND('',#108,.T.);
#57=FACE_OUTER_BOUND('',#109,.T.);
#58=FACE_OUTER_BOUND('',#110,.T.);
#59=FACE_OUTER_BOUND('',#111,.T.);
#60=FACE_OUTER_BOUND('',#112,.T.);
#61=FACE_OUTER_BOUND('',#113,.T.);
#62=FACE_OUTER_BOUND('',#114,.T.);
#63=FACE_OUTER_BOUND('',#115,.T.);
#64=FACE_OUTER_BOUND('',#116,.T.);
#65=ADVANCED_FACE('',(#92,#93),#84,.T.);
#66=ADVANCED_FACE('',(#48),#85,.T.);
#67=ADVANCED_FACE('',(#49),#86,.T.);
#68=ADVANCED_FACE('',(#94,#95),#87,.F.);
#69=ADVANCED_FACE('',(#50),#42,.F.);
#70=ADVANCED_FACE('',(#51),#43,.F.);
#71=ADVANCED_FACE('',(#52),#37,.F.);
#72=ADVANCED_FACE('',(#53),#38,.F.);
#73=ADVANCED_FACE('',(#54),#44,.F.);
#74=ADVANCED_FACE('',(#55),#45,.F.);
#75=ADVANCED_FACE('',(#56),#88,.T.);
#76=ADVANCED_FACE('',(#57),#46,.T.);
#77=ADVANCED_FACE('',(#58),#39,.T.);
#78=ADVANCED_FACE('',(#59),#89,.T.);
#79=ADVANCED_FACE('',(#60),#40,.T.);
#80=ADVANCED_FACE('',(#61),#90,.T.);
#81=ADVANCED_FACE('',(#62),#91,.T.);
#82=ADVANCED_FACE('',(#63),#47,.T.);
#83=ADVANCED_FACE('',(#64),#41,.T.);
#84=PLANE('',#365);
#85=PLANE('',#366);
#86=PLANE('',#367);
#87=PLANE('',#372);
#88=PLANE('',#384);
#89=PLANE('',#388);
#90=PLANE('',#391);
#91=PLANE('',#392);
#92=FACE_BOUND('',#96,.T.);
#93=FACE_BOUND('',#97,.T.);
#94=FACE_BOUND('',#100,.T.);
#95=FACE_BOUND('',#101,.T.);
#96=EDGE_LOOP('',(#169,#170,#171,#172,#173,#174));
#97=EDGE_LOOP('',(#175,#176));
#98=EDGE_LOOP('',(#177,#178,#179,#180));
#99=EDGE_LOOP('',(#181,#182,#183,#184));
#100=EDGE_LOOP('',(#185,#186,#187,#188,#189));
#101=EDGE_LOOP('',(#190,#191));
#102=EDGE_LOOP('',(#192,#193,#194,#195));
#103=EDGE_LOOP('',(#196,#197,#198,#199));
#104=EDGE_LOOP('',(#200,#201,#202,#203));
#105=EDGE_LOOP('',(#204,#205,#206,#207));
#106=EDGE_LOOP('',(#208,#209,#210,#211));
#107=EDGE_LOOP('',(#212,#213,#214,#215));
#108=EDGE_LOOP('',(#216,#217,#218,#219,#220));
#109=EDGE_LOOP('',(#221,#222,#223,#224));
#110=EDGE_LOOP('',(#225,#226,#227,#228));
#111=EDGE_LOOP('',(#229,#230,#231,#232));
#112=EDGE_LOOP('',(#233,#234,#235,#236,#237));
#113=EDGE_LOOP('',(#238,#239,#240,#241));
#114=EDGE_LOOP('',(#242,#243,#244,#245,#246));
#115=EDGE_LOOP('',(#247,#248,#249,#250));
#116=EDGE_LOOP('',(#251,#252,#253,#254));
#117=LINE('',#507,#143);
#118=LINE('',#511,#144);
#119=LINE('',#515,#145);
#120=LINE('',#521,#146);
#121=LINE('',#523,#147);
#122=LINE('',#525,#148);
#123=LINE('',#527,#149);
#124=LINE('',#529,#150);
#125=LINE('',#531,#151);
#126=LINE('',#537,#152);
#127=LINE('',#539,#153);
#128=LINE('',#545,#154);
#129=LINE('',#549,#155);
#130=LINE('',#556,#156);
#131=LINE('',#557,#157);
#132=LINE('',#561,#158);
#133=LINE('',#562,#159);
#134=LINE('',#565,#160);
#135=LINE('',#569,#161);
#136=LINE('',#571,#162);
#137=LINE('',#575,#163);
#138=LINE('',#577,#164);
#139=LINE('',#581,#165);
#140=LINE('',#583,#166);
#141=LINE('',#585,#167);
#142=LINE('',#587,#168);
#143=VECTOR('',#404,1.);
#144=VECTOR('',#407,1.);
#145=VECTOR('',#410,1.);
#146=VECTOR('',#417,1.);
#147=VECTOR('',#418,1.);
#148=VECTOR('',#419,1.);
#149=VECTOR('',#422,1.);
#150=VECTOR('',#423,1.);
#151=VECTOR('',#424,1.);
#152=VECTOR('',#431,1.);
#153=VECTOR('',#432,1.);
#154=VECTOR('',#439,1.);
#155=VECTOR('',#442,1.);
#156=VECTOR('',#451,1.);
#157=VECTOR('',#452,1.);
#158=VECTOR('',#459,1.);
#159=VECTOR('',#460,1.);
#160=VECTOR('',#465,1.);
#161=VECTOR('',#468,1.);
#162=VECTOR('',#469,1.);
#163=VECTOR('',#476,1.);
#164=VECTOR('',#479,1.);
#165=VECTOR('',#484,1.);
#166=VECTOR('',#487,1.);
#167=VECTOR('',#488,1.);
#168=VECTOR('',#491,1.);
#169=ORIENTED_EDGE('',*,*,#281,.T.);
#170=ORIENTED_EDGE('',*,*,#282,.T.);
#171=ORIENTED_EDGE('',*,*,#283,.T.);
#172=ORIENTED_EDGE('',*,*,#284,.T.);
#173=ORIENTED_EDGE('',*,*,#285,.T.);
#174=ORIENTED_EDGE('',*,*,#286,.T.);
#175=ORIENTED_EDGE('',*,*,#287,.F.);
#176=ORIENTED_EDGE('',*,*,#288,.F.);
#177=ORIENTED_EDGE('',*,*,#289,.F.);
#178=ORIENTED_EDGE('',*,*,#286,.F.);
#179=ORIENTED_EDGE('',*,*,#290,.T.);
#180=ORIENTED_EDGE('',*,*,#291,.T.);
#181=ORIENTED_EDGE('',*,*,#292,.T.);
#182=ORIENTED_EDGE('',*,*,#291,.F.);
#183=ORIENTED_EDGE('',*,*,#293,.F.);
#184=ORIENTED_EDGE('',*,*,#294,.F.);
#185=ORIENTED_EDGE('',*,*,#295,.F.);
#186=ORIENTED_EDGE('',*,*,#294,.T.);
#187=ORIENTED_EDGE('',*,*,#296,.F.);
#188=ORIENTED_EDGE('',*,*,#297,.F.);
#189=ORIENTED_EDGE('',*,*,#298,.T.);
#190=ORIENTED_EDGE('',*,*,#299,.T.);
#191=ORIENTED_EDGE('',*,*,#300,.T.);
#192=ORIENTED_EDGE('',*,*,#301,.T.);
#193=ORIENTED_EDGE('',*,*,#302,.F.);
#194=ORIENTED_EDGE('',*,*,#303,.F.);
#195=ORIENTED_EDGE('',*,*,#300,.F.);
#196=ORIENTED_EDGE('',*,*,#303,.T.);
#197=ORIENTED_EDGE('',*,*,#304,.T.);
#198=ORIENTED_EDGE('',*,*,#301,.F.);
#199=ORIENTED_EDGE('',*,*,#299,.F.);
#200=ORIENTED_EDGE('',*,*,#305,.T.);
#201=ORIENTED_EDGE('',*,*,#306,.T.);
#202=ORIENTED_EDGE('',*,*,#304,.F.);
#203=ORIENTED_EDGE('',*,*,#307,.F.);
#204=ORIENTED_EDGE('',*,*,#302,.T.);
#205=ORIENTED_EDGE('',*,*,#306,.F.);
#206=ORIENTED_EDGE('',*,*,#308,.F.);
#207=ORIENTED_EDGE('',*,*,#307,.T.);
#208=ORIENTED_EDGE('',*,*,#309,.F.);
#209=ORIENTED_EDGE('',*,*,#308,.T.);
#210=ORIENTED_EDGE('',*,*,#310,.T.);
#211=ORIENTED_EDGE('',*,*,#288,.T.);
#212=ORIENTED_EDGE('',*,*,#310,.F.);
#213=ORIENTED_EDGE('',*,*,#305,.F.);
#214=ORIENTED_EDGE('',*,*,#309,.T.);
#215=ORIENTED_EDGE('',*,*,#287,.T.);
#216=ORIENTED_EDGE('',*,*,#311,.F.);
#217=ORIENTED_EDGE('',*,*,#312,.F.);
#218=ORIENTED_EDGE('',*,*,#313,.F.);
#219=ORIENTED_EDGE('',*,*,#314,.F.);
#220=ORIENTED_EDGE('',*,*,#298,.F.);
#221=ORIENTED_EDGE('',*,*,#314,.T.);
#222=ORIENTED_EDGE('',*,*,#315,.F.);
#223=ORIENTED_EDGE('',*,*,#292,.F.);
#224=ORIENTED_EDGE('',*,*,#295,.T.);
#225=ORIENTED_EDGE('',*,*,#316,.F.);
#226=ORIENTED_EDGE('',*,*,#281,.F.);
#227=ORIENTED_EDGE('',*,*,#289,.T.);
#228=ORIENTED_EDGE('',*,*,#315,.T.);
#229=ORIENTED_EDGE('',*,*,#317,.F.);
#230=ORIENTED_EDGE('',*,*,#282,.F.);
#231=ORIENTED_EDGE('',*,*,#316,.T.);
#232=ORIENTED_EDGE('',*,*,#313,.T.);
#233=ORIENTED_EDGE('',*,*,#318,.T.);
#234=ORIENTED_EDGE('',*,*,#319,.F.);
#235=ORIENTED_EDGE('',*,*,#283,.F.);
#236=ORIENTED_EDGE('',*,*,#317,.T.);
#237=ORIENTED_EDGE('',*,*,#312,.T.);
#238=ORIENTED_EDGE('',*,*,#320,.F.);
#239=ORIENTED_EDGE('',*,*,#284,.F.);
#240=ORIENTED_EDGE('',*,*,#319,.T.);
#241=ORIENTED_EDGE('',*,*,#321,.T.);
#242=ORIENTED_EDGE('',*,*,#322,.T.);
#243=ORIENTED_EDGE('',*,*,#321,.F.);
#244=ORIENTED_EDGE('',*,*,#318,.F.);
#245=ORIENTED_EDGE('',*,*,#311,.T.);
#246=ORIENTED_EDGE('',*,*,#297,.T.);
#247=ORIENTED_EDGE('',*,*,#293,.T.);
#248=ORIENTED_EDGE('',*,*,#323,.F.);
#249=ORIENTED_EDGE('',*,*,#322,.F.);
#250=ORIENTED_EDGE('',*,*,#296,.T.);
#251=ORIENTED_EDGE('',*,*,#290,.F.);
#252=ORIENTED_EDGE('',*,*,#285,.F.);
#253=ORIENTED_EDGE('',*,*,#320,.T.);
#254=ORIENTED_EDGE('',*,*,#323,.T.);
#255=VERTEX_POINT('',#505);
#256=VERTEX_POINT('',#506);
#257=VERTEX_POINT('',#508);
#258=VERTEX_POINT('',#510);
#259=VERTEX_POINT('',#512);
#260=VERTEX_POINT('',#514);
#261=VERTEX_POINT('',#517);
#262=VERTEX_POINT('',#518);
#263=VERTEX_POINT('',#522);
#264=VERTEX_POINT('',#524);
#265=VERTEX_POINT('',#528);
#266=VERTEX_POINT('',#530);
#267=VERTEX_POINT('',#534);
#268=VERTEX_POINT('',#536);
#269=VERTEX_POINT('',#538);
#270=VERTEX_POINT('',#541);
#271=VERTEX_POINT('',#542);
#272=VERTEX_POINT('',#546);
#273=VERTEX_POINT('',#548);
#274=VERTEX_POINT('',#554);
#275=VERTEX_POINT('',#555);
#276=VERTEX_POINT('',#566);
#277=VERTEX_POINT('',#568);
#278=VERTEX_POINT('',#570);
#279=VERTEX_POINT('',#580);
#280=VERTEX_POINT('',#584);
#281=EDGE_CURVE('',#255,#256,#324,.T.);
#282=EDGE_CURVE('',#256,#257,#117,.T.);
#283=EDGE_CURVE('',#257,#258,#325,.T.);
#284=EDGE_CURVE('',#258,#259,#118,.T.);
#285=EDGE_CURVE('',#259,#260,#326,.T.);
#286=EDGE_CURVE('',#260,#255,#119,.T.);
#287=EDGE_CURVE('',#261,#262,#327,.T.);
#288=EDGE_CURVE('',#262,#261,#328,.T.);
#289=EDGE_CURVE('',#255,#263,#120,.T.);
#290=EDGE_CURVE('',#260,#264,#121,.T.);
#291=EDGE_CURVE('',#264,#263,#122,.T.);
#292=EDGE_CURVE('',#265,#263,#123,.T.);
#293=EDGE_CURVE('',#266,#264,#124,.T.);
#294=EDGE_CURVE('',#265,#266,#125,.T.);
#295=EDGE_CURVE('',#265,#267,#329,.T.);
#296=EDGE_CURVE('',#268,#266,#330,.T.);
#297=EDGE_CURVE('',#269,#268,#126,.T.);
#298=EDGE_CURVE('',#269,#267,#127,.T.);
#299=EDGE_CURVE('',#270,#271,#331,.T.);
#300=EDGE_CURVE('',#271,#270,#332,.T.);
#301=EDGE_CURVE('',#271,#272,#128,.T.);
#302=EDGE_CURVE('',#273,#272,#333,.T.);
#303=EDGE_CURVE('',#270,#273,#129,.T.);
#304=EDGE_CURVE('',#273,#272,#334,.T.);
#305=EDGE_CURVE('',#274,#275,#335,.T.);
#306=EDGE_CURVE('',#275,#272,#130,.T.);
#307=EDGE_CURVE('',#274,#273,#131,.T.);
#308=EDGE_CURVE('',#274,#275,#336,.T.);
#309=EDGE_CURVE('',#274,#261,#132,.T.);
#310=EDGE_CURVE('',#275,#262,#133,.T.);
#311=EDGE_CURVE('',#276,#269,#134,.T.);
#312=EDGE_CURVE('',#277,#276,#35,.T.);
#313=EDGE_CURVE('',#278,#277,#135,.T.);
#314=EDGE_CURVE('',#267,#278,#136,.T.);
#315=EDGE_CURVE('',#263,#278,#337,.T.);
#316=EDGE_CURVE('',#256,#278,#137,.T.);
#317=EDGE_CURVE('',#257,#277,#138,.T.);
#318=EDGE_CURVE('',#276,#279,#36,.T.);
#319=EDGE_CURVE('',#258,#279,#139,.T.);
#320=EDGE_CURVE('',#259,#280,#140,.T.);
#321=EDGE_CURVE('',#279,#280,#141,.T.);
#322=EDGE_CURVE('',#268,#280,#142,.T.);
#323=EDGE_CURVE('',#280,#264,#338,.T.);
#324=CIRCLE('',#360,1.2);
#325=CIRCLE('',#361,0.4);
#326=CIRCLE('',#362,0.8);
#327=CIRCLE('',#363,3.1);
#328=CIRCLE('',#364,3.1);
#329=CIRCLE('',#368,0.7);
#330=CIRCLE('',#369,0.3);
#331=CIRCLE('',#370,3.1);
#332=CIRCLE('',#371,3.1);
#333=CIRCLE('',#373,2.4);
#334=CIRCLE('',#375,2.4);
#335=CIRCLE('',#377,2.4);
#336=CIRCLE('',#379,2.4);
#337=CIRCLE('',#385,1.2);
#338=CIRCLE('',#393,0.8);
#339=COLOUR_RGB('Strong Stone',0.576470588235294,0.54508278019379,0.392156862745098);
#340=COLOUR_RGB('spare part',0.301960784313725,0.301960784313725,0.301960784313725);
#341=CURVE_STYLE('',#343,POSITIVE_LENGTH_MEASURE(0.13),#356);
#342=CURVE_STYLE('',#344,POSITIVE_LENGTH_MEASURE(0.13),#339);
#343=DRAUGHTING_PRE_DEFINED_CURVE_FONT('continuous');
#344=DRAUGHTING_PRE_DEFINED_CURVE_FONT('continuous');
#345=PRESENTATION_LAYER_ASSIGNMENT('1','Layer 1',(#501,#358,#359,#33));
#346=STYLED_ITEM('',(#350),#501);
#347=STYLED_ITEM('',(#351),#358);
#348=STYLED_ITEM('',(#352),#359);
#349=STYLED_ITEM('',(#353),#33);
#350=PRESENTATION_STYLE_ASSIGNMENT((#354));
#351=PRESENTATION_STYLE_ASSIGNMENT((#341));
#352=PRESENTATION_STYLE_ASSIGNMENT((#342));
#353=PRESENTATION_STYLE_ASSIGNMENT((#28));
#354=POINT_STYLE('',#355,POSITIVE_LENGTH_MEASURE(3.),#356);
#355=PRE_DEFINED_POINT_MARKER_SYMBOL('plus');
#356=DRAUGHTING_PRE_DEFINED_COLOUR('yellow');
#357=AXIS2_PLACEMENT_3D('',#500,#396,#397);
#358=AXIS2_PLACEMENT_3D('PCS',#502,#398,#399);
#359=AXIS2_PLACEMENT_3D('',#503,#400,#401);
#360=AXIS2_PLACEMENT_3D('',#504,#402,#403);
#361=AXIS2_PLACEMENT_3D('',#509,#405,#406);
#362=AXIS2_PLACEMENT_3D('',#513,#408,#409);
#363=AXIS2_PLACEMENT_3D('',#516,#411,#412);
#364=AXIS2_PLACEMENT_3D('',#519,#413,#414);
#365=AXIS2_PLACEMENT_3D('',#520,#415,#416);
#366=AXIS2_PLACEMENT_3D('',#526,#420,#421);
#367=AXIS2_PLACEMENT_3D('',#532,#425,#426);
#368=AXIS2_PLACEMENT_3D('',#533,#427,#428);
#369=AXIS2_PLACEMENT_3D('',#535,#429,#430);
#370=AXIS2_PLACEMENT_3D('',#540,#433,#434);
#371=AXIS2_PLACEMENT_3D('',#543,#435,#436);
#372=AXIS2_PLACEMENT_3D('',#544,#437,#438);
#373=AXIS2_PLACEMENT_3D('',#547,#440,#441);
#374=AXIS2_PLACEMENT_3D('',#550,#443,#444);
#375=AXIS2_PLACEMENT_3D('',#551,#445,#446);
#376=AXIS2_PLACEMENT_3D('',#552,#447,#448);
#377=AXIS2_PLACEMENT_3D('',#553,#449,#450);
#378=AXIS2_PLACEMENT_3D('',#558,#453,#454);
#379=AXIS2_PLACEMENT_3D('',#559,#455,#456);
#380=AXIS2_PLACEMENT_3D('',#560,#457,#458);
#381=AXIS2_PLACEMENT_3D('',#563,#461,#462);
#382=AXIS2_PLACEMENT_3D('',#564,#463,#464);
#383=AXIS2_PLACEMENT_3D('',#567,#466,#467);
#384=AXIS2_PLACEMENT_3D('',#572,#470,#471);
#385=AXIS2_PLACEMENT_3D('',#573,#472,#473);
#386=AXIS2_PLACEMENT_3D('',#574,#474,#475);
#387=AXIS2_PLACEMENT_3D('',#576,#477,#478);
#388=AXIS2_PLACEMENT_3D('',#578,#480,#481);
#389=AXIS2_PLACEMENT_3D('',#579,#482,#483);
#390=AXIS2_PLACEMENT_3D('',#582,#485,#486);
#391=AXIS2_PLACEMENT_3D('',#586,#489,#490);
#392=AXIS2_PLACEMENT_3D('',#588,#492,#493);
#393=AXIS2_PLACEMENT_3D('',#589,#494,#495);
#394=AXIS2_PLACEMENT_3D('',#590,#496,#497);
#395=AXIS2_PLACEMENT_3D('',#591,#498,#499);
#396=DIRECTION('',(0.,0.,1.));
#397=DIRECTION('',(1.,0.,0.));
#398=DIRECTION('',(0.,0.,1.));
#399=DIRECTION('',(1.,0.,0.));
#400=DIRECTION('',(0.,0.,1.));
#401=DIRECTION('',(1.,0.,0.));
#402=DIRECTION('',(0.,0.,1.));
#403=DIRECTION('',(0.,-1.,0.));
#404=DIRECTION('',(-0.500000000000017,0.866025403784429,0.));
#405=DIRECTION('',(0.,0.,1.));
#406=DIRECTION('',(0.866025403784429,0.500000000000019,0.));
#407=DIRECTION('',(-0.500000000000017,-0.866025403784429,0.));
#408=DIRECTION('',(0.,0.,1.));
#409=DIRECTION('',(-0.866025403784429,0.500000000000016,0.));
#410=DIRECTION('',(1.,0.,0.));
#411=DIRECTION('',(0.,0.,1.));
#412=DIRECTION('',(0.,1.,0.));
#413=DIRECTION('',(0.,0.,1.));
#414=DIRECTION('',(0.,-1.,0.));
#415=DIRECTION('',(0.,0.,1.));
#416=DIRECTION('',(-1.,0.,0.));
#417=DIRECTION('',(-5.614017336559E-11,0.,-1.));
#418=DIRECTION('',(1.211125096925E-10,0.,-1.));
#419=DIRECTION('',(1.,0.,0.));
#420=DIRECTION('',(0.,-1.,0.));
#421=DIRECTION('',(-1.,0.,0.));
#422=DIRECTION('',(1.87897360789613E-10,-0.707106781186547,0.707106781186547));
#423=DIRECTION('',(1.75850355372612E-14,-0.707106781186547,0.707106781186547));
#424=DIRECTION('',(-1.,0.,0.));
#425=DIRECTION('',(0.,-0.707106781186547,-0.707106781186547));
#426=DIRECTION('',(0.,0.707106781186547,-0.707106781186547));
#427=DIRECTION('',(0.,0.,1.));
#428=DIRECTION('',(-7.97183499767762E-10,-1.,0.));
#429=DIRECTION('',(0.,0.,1.));
#430=DIRECTION('',(-0.866025402445168,0.500000002319682,0.));
#431=DIRECTION('',(-0.500000000000017,-0.866025403784429,0.));
#432=DIRECTION('',(0.500000000000017,-0.866025403784429,0.));
#433=DIRECTION('',(0.,0.,1.));
#434=DIRECTION('',(0.,1.,0.));
#435=DIRECTION('',(0.,0.,1.));
#436=DIRECTION('',(0.,-1.,0.));
#437=DIRECTION('',(0.,0.,1.));
#438=DIRECTION('',(-1.,0.,0.));
#439=DIRECTION('',(0.,0.707106781186547,0.707106781186547));
#440=DIRECTION('',(0.,0.,-1.));
#441=DIRECTION('',(0.,1.,0.));
#442=DIRECTION('',(0.,-0.707106781186547,0.707106781186547));
#443=DIRECTION('',(0.,0.,-1.));
#444=DIRECTION('',(0.,1.,-2.50845080046509E-17));
#445=DIRECTION('',(0.,0.,1.));
#446=DIRECTION('',(0.,1.,0.));
#447=DIRECTION('',(0.,0.,-1.));
#448=DIRECTION('',(0.,1.,-2.50845080046509E-17));
#449=DIRECTION('',(0.,0.,1.));
#450=DIRECTION('',(0.,1.,0.));
#451=DIRECTION('',(0.,0.,-1.));
#452=DIRECTION('',(0.,0.,-1.));
#453=DIRECTION('',(0.,0.,-1.));
#454=DIRECTION('',(0.,1.,0.));
#455=DIRECTION('',(0.,0.,-1.));
#456=DIRECTION('',(0.,1.,0.));
#457=DIRECTION('',(0.,0.,-1.));
#458=DIRECTION('',(0.,1.,0.));
#459=DIRECTION('',(0.,0.500000000000017,0.866025403784429));
#460=DIRECTION('',(0.,-0.500000000000017,0.866025403784429));
#461=DIRECTION('',(0.,0.,1.));
#462=DIRECTION('',(0.,-1.,-5.55090322019719E-17));
#463=DIRECTION('',(0.,0.,1.));
#464=DIRECTION('',(0.,-1.,-5.55090322019719E-17));
#465=DIRECTION('',(0.,-0.894427190999896,-0.447213595499998));
#466=DIRECTION('',(-0.612372435695813,-0.353553390593307,0.707106781186515));
#467=DIRECTION('',(0.612372435695756,0.353553390593275,0.70710678118658));
#468=DIRECTION('',(-0.500000000000017,0.866025403784429,0.));
#469=DIRECTION('',(0.612372435614918,0.35355339073341,0.707106781186521));
#470=DIRECTION('',(0.612372435695813,0.353553390593307,-0.707106781186515));
#471=DIRECTION('',(-0.612372435695756,-0.353553390593275,-0.70710678118658));
#472=DIRECTION('',(0.,0.,1.));
#473=DIRECTION('',(0.,-1.,0.));
#474=DIRECTION('',(0.,0.,1.));
#475=DIRECTION('',(0.,-1.,-1.38646164222134E-17));
#476=DIRECTION('',(-6.04278234128E-11,1.046640082897E-10,-1.));
#477=DIRECTION('',(0.,0.,1.));
#478=DIRECTION('',(-1.,0.,0.));
#479=DIRECTION('',(0.,0.,-1.));
#480=DIRECTION('',(0.866025403784429,0.500000000000017,0.));
#481=DIRECTION('',(0.500000000000017,-0.866025403784429,0.));
#482=DIRECTION('',(0.612372435695813,-0.353553390593307,0.707106781186515));
#483=DIRECTION('',(-0.612372435695756,0.353553390593275,0.70710678118658));
#484=DIRECTION('',(0.,0.,-1.));
#485=DIRECTION('',(0.,0.,1.));
#486=DIRECTION('',(-1.,0.,0.));
#487=DIRECTION('',(6.287927924821E-11,1.089103768047E-10,-1.));
#488=DIRECTION('',(-0.500000000000017,-0.866025403784429,0.));
#489=DIRECTION('',(-0.866025403784429,0.500000000000017,0.));
#490=DIRECTION('',(0.500000000000017,0.866025403784429,0.));
#491=DIRECTION('',(-0.612372435695813,0.353553390593307,0.707106781186515));
#492=DIRECTION('',(-0.612372435695813,0.353553390593307,-0.707106781186515));
#493=DIRECTION('',(0.612372435695756,-0.353553390593275,-0.70710678118658));
#494=DIRECTION('',(0.,0.,1.));
#495=DIRECTION('',(-0.866025403784429,0.500000000000016,0.));
#496=DIRECTION('',(0.,0.,1.));
#497=DIRECTION('',(0.,-1.,-1.38701592202433E-17));
#498=DIRECTION('',(0.,0.,1.));
#499=DIRECTION('',(-1.,0.,0.));
#500=CARTESIAN_POINT('',(0.,0.,0.));
#501=CARTESIAN_POINT('',(0.,0.,0.));
#502=CARTESIAN_POINT('',(0.,0.,0.));
#503=CARTESIAN_POINT('',(0.,0.,0.));
#504=CARTESIAN_POINT('',(6.166100874945,-3.56,0.));
#505=CARTESIAN_POINT('',(6.166100874945,-4.76,0.));
#506=CARTESIAN_POINT('',(7.205331359487,-2.96,0.));
#507=CARTESIAN_POINT('',(7.205331359487,-2.96,0.));
#508=CARTESIAN_POINT('',(0.3464101615138,8.92,0.));
#509=CARTESIAN_POINT('',(0.,8.72,0.));
#510=CARTESIAN_POINT('',(-0.3464101615138,8.92,0.));
#511=CARTESIAN_POINT('',(-0.3464101615138,8.92,0.));
#512=CARTESIAN_POINT('',(-7.551741521,-3.56,0.));
#513=CARTESIAN_POINT('',(-6.858921197973,-3.96,0.));
#514=CARTESIAN_POINT('',(-6.858921197973,-4.76,0.));
#515=CARTESIAN_POINT('',(-6.858921197973,-4.76,0.));
#516=CARTESIAN_POINT('',(0.,0.,0.));
#517=CARTESIAN_POINT('',(0.,3.1,0.));
#518=CARTESIAN_POINT('',(0.,-3.1,0.));
#519=CARTESIAN_POINT('',(0.,0.,0.));
#520=CARTESIAN_POINT('',(0.,0.,0.));
#521=CARTESIAN_POINT('',(6.166100874945,-4.76,0.));
#522=CARTESIAN_POINT('',(6.166100874706,-4.76,-4.26));
#523=CARTESIAN_POINT('',(-6.858921197973,-4.76,0.));
#524=CARTESIAN_POINT('',(-6.858921197457,-4.76,-4.26));
#525=CARTESIAN_POINT('',(-6.858921197457,-4.76,-4.26));
#526=CARTESIAN_POINT('',(-6.858921197973,-4.76,0.));
#527=CARTESIAN_POINT('',(6.166100874573,-4.26,-4.76));
#528=CARTESIAN_POINT('',(6.166100874573,-4.26,-4.76));
#529=CARTESIAN_POINT('',(-6.858921197457,-4.26,-4.76));
#530=CARTESIAN_POINT('',(-6.858921197199,-4.26,-4.76));
#531=CARTESIAN_POINT('',(6.166100874573,-4.26,-4.76));
#532=CARTESIAN_POINT('',(-0.3464101615138,-4.51,-4.51));
#533=CARTESIAN_POINT('',(6.166100874945,-3.56,-4.76));
#534=CARTESIAN_POINT('',(6.772318657394,-3.209999999653,-4.76));
#535=CARTESIAN_POINT('',(-6.858921197973,-3.96,-4.76));
#536=CARTESIAN_POINT('',(-7.11872881884,-3.809999999536,-4.76));
#537=CARTESIAN_POINT('',(0.,8.52,-4.76));
#538=CARTESIAN_POINT('',(0.,8.52,-4.76));
#539=CARTESIAN_POINT('',(0.,8.52,-4.76));
#540=CARTESIAN_POINT('',(0.,0.,-4.76));
#541=CARTESIAN_POINT('',(0.,3.1,-4.76));
#542=CARTESIAN_POINT('',(0.,-3.1,-4.76));
#543=CARTESIAN_POINT('',(0.,0.,-4.76));
#544=CARTESIAN_POINT('',(0.,0.,-4.76));
#545=CARTESIAN_POINT('',(0.,-3.1,-4.76));
#546=CARTESIAN_POINT('',(0.,-2.4,-4.06));
#547=CARTESIAN_POINT('',(0.,0.,-4.06));
#548=CARTESIAN_POINT('',(0.,2.4,-4.06));
#549=CARTESIAN_POINT('',(0.,3.1,-4.76));
#550=CARTESIAN_POINT('',(0.,0.,-4.41));
#551=CARTESIAN_POINT('',(0.,0.,-4.06));
#552=CARTESIAN_POINT('',(0.,0.,-4.41));
#553=CARTESIAN_POINT('',(0.,0.,-1.212435565298));
#554=CARTESIAN_POINT('',(0.,2.4,-1.212435565298));
#555=CARTESIAN_POINT('',(0.,-2.4,-1.212435565298));
#556=CARTESIAN_POINT('',(0.,-2.4,-4.06));
#557=CARTESIAN_POINT('',(0.,2.4,-4.06));
#558=CARTESIAN_POINT('',(0.,0.,0.238));
#559=CARTESIAN_POINT('',(0.,0.,-1.212435565298));
#560=CARTESIAN_POINT('',(0.,0.,0.238));
#561=CARTESIAN_POINT('',(0.,2.4,-1.212435565298));
#562=CARTESIAN_POINT('',(0.,-2.4,-1.212435565298));
#563=CARTESIAN_POINT('',(0.,0.,-0.6062177826491));
#564=CARTESIAN_POINT('',(0.,0.,-0.6062177826491));
#565=CARTESIAN_POINT('',(0.,9.12,-4.46));
#566=CARTESIAN_POINT('',(3.3002436504101E-13,9.11999999999998,-4.4599999999998));
#567=CARTESIAN_POINT('',(0.,8.72,-4.66000000000018));
#568=CARTESIAN_POINT('',(0.346410161513732,8.91999999999996,-4.26000000000006));
#569=CARTESIAN_POINT('',(7.205331359229,-2.959999999554,-4.26));
#570=CARTESIAN_POINT('',(7.205331359229,-2.959999999554,-4.26));
#571=CARTESIAN_POINT('',(6.772318657394,-3.209999999653,-4.76));
#572=CARTESIAN_POINT('',(3.559364409551,2.854999999998,-4.510000000004));
#573=CARTESIAN_POINT('',(6.166100874945,-3.56,-4.26));
#574=CARTESIAN_POINT('',(6.166100874945,-3.56,-4.51));
#575=CARTESIAN_POINT('',(7.205331359487,-2.96,0.));
#576=CARTESIAN_POINT('',(6.166100874945,-3.56,0.));
#577=CARTESIAN_POINT('',(0.3464101615138,8.92,0.));
#578=CARTESIAN_POINT('',(7.205331359487,-2.96,0.));
#579=CARTESIAN_POINT('',(0.,8.72,-4.65999999999904));
#580=CARTESIAN_POINT('',(-0.3464101615138,8.92,-4.25999999999949));
#581=CARTESIAN_POINT('',(-0.3464101615138,8.92,0.));
#582=CARTESIAN_POINT('',(0.,8.72,0.));
#583=CARTESIAN_POINT('',(-7.551741521,-3.56,0.));
#584=CARTESIAN_POINT('',(-7.551741520732,-3.559999999536,-4.26));
#585=CARTESIAN_POINT('',(-0.3464101615138,8.92,-4.26));
#586=CARTESIAN_POINT('',(-0.3464101615138,8.92,0.));
#587=CARTESIAN_POINT('',(-7.11872881884,-3.809999999536,-4.76));
#588=CARTESIAN_POINT('',(-3.732569490306,2.554999999997,-4.510000000005));
#589=CARTESIAN_POINT('',(-6.858921197973,-3.96,-4.26));
#590=CARTESIAN_POINT('',(-6.858921197973,-3.96,-4.51));
#591=CARTESIAN_POINT('',(-6.858921197973,-3.96,0.));
#592=MECHANICAL_DESIGN_GEOMETRIC_PRESENTATION_REPRESENTATION('',(#346,#347,
#348,#349),#593);
#593=(
GEOMETRIC_REPRESENTATION_CONTEXT(3)
GLOBAL_UNCERTAINTY_ASSIGNED_CONTEXT((#594))
GLOBAL_UNIT_ASSIGNED_CONTEXT((#600,#596,#595))
REPRESENTATION_CONTEXT('LLSTN33','TOP_LEVEL_ASSEMBLY_PART')
);
#594=UNCERTAINTY_MEASURE_WITH_UNIT(LENGTH_MEASURE(2.E-5),#600,
'DISTANCE_ACCURACY_VALUE','Maximum Tolerance applied to model');
#595=(
NAMED_UNIT(*)
SI_UNIT($,.STERADIAN.)
SOLID_ANGLE_UNIT()
);
#596=(
CONVERSION_BASED_UNIT('DEGREE',#598)
NAMED_UNIT(#597)
PLANE_ANGLE_UNIT()
);
#597=DIMENSIONAL_EXPONENTS(0.,0.,0.,0.,0.,0.,0.);
#598=PLANE_ANGLE_MEASURE_WITH_UNIT(PLANE_ANGLE_MEASURE(0.0174532925),#599);
#599=(
NAMED_UNIT(*)
PLANE_ANGLE_UNIT()
SI_UNIT($,.RADIAN.)
);
#600=(
LENGTH_UNIT()
NAMED_UNIT(*)
SI_UNIT(.MILLI.,.METRE.)
);
ENDSEC;
END-ISO-10303-21;
