ISO-10303-21;
HEADER;
/* Generated by software containing ST-Developer
 * from STEP Tools, Inc. (www.steptools.com) 
 */
/* OPTION: using custom schema-name function */

FILE_DESCRIPTION(
/* description */ (''),
/* implementation_level */ '2;1');

FILE_NAME(
/* name */ 'LLP13.stp',
/* time_stamp */ '2022-02-03T10:46:21+09:00',
/* author */ (''),
/* organization */ (''),
/* preprocessor_version */ 'ST-DEVELOPER v16',
/* originating_system */ 'SIEMENS PLM Software NX 10.0',
/* authorisation */ '');

FILE_SCHEMA (('AUTOMOTIVE_DESIGN { 1 0 10303 214 3 1 1 1 }'));
ENDSEC;

DATA;
#10=CONSTRUCTIVE_GEOMETRY_REPRESENTATION_RELATIONSHIP(
'supplemental geometry','',#26,#11);
#11=CONSTRUCTIVE_GEOMETRY_REPRESENTATION('supplemental geometry',(#176,
#177),#305);
#12=GEOMETRICALLY_BOUNDED_WIREFRAME_SHAPE_REPRESENTATION('LLP13-None',(#27),
#305);
#13=SHAPE_REPRESENTATION_RELATIONSHIP('None',
'relationship between LLP13-None and LLP13-None',#26,#15);
#14=SHAPE_REPRESENTATION_RELATIONSHIP('None',
'relationship between LLP13-None and LLP13-None',#26,#12);
#15=ADVANCED_BREP_SHAPE_REPRESENTATION('LLP13-None',(#33),#305);
#16=SHAPE_DEFINITION_REPRESENTATION(#17,#26);
#17=PRODUCT_DEFINITION_SHAPE('','',#18);
#18=PRODUCT_DEFINITION('part definition','',#20,#19);
#19=PRODUCT_DEFINITION_CONTEXT('part definition',#25,'design');
#20=PRODUCT_DEFINITION_FORMATION_WITH_SPECIFIED_SOURCE(' ',' ',#22,
 .NOT_KNOWN.);
#21=PRODUCT_RELATED_PRODUCT_CATEGORY('part','',(#22));
#22=PRODUCT('LLP13','LLP13','NOT SPECIFIED',(#23));
#23=PRODUCT_CONTEXT('',#25,'mechanical');
#24=APPLICATION_PROTOCOL_DEFINITION('international standard',
'automotive_design',2010,#25);
#25=APPLICATION_CONTEXT(
'core data for automotive mechanical design processes');
#26=SHAPE_REPRESENTATION('LLP13-None',(#175),#305);
#27=GEOMETRIC_CURVE_SET('None',(#233));
#28=SURFACE_STYLE_USAGE(.BOTH.,#29);
#29=SURFACE_SIDE_STYLE('',(#30));
#30=SURFACE_STYLE_FILL_AREA(#31);
#31=FILL_AREA_STYLE('',(#32));
#32=FILL_AREA_STYLE_COLOUR('',#158);
#33=MANIFOLD_SOLID_BREP('',#34);
#34=CLOSED_SHELL('',(#52,#53,#54,#55,#56,#57,#58,#59));
#35=PLANE('',#186);
#36=PLANE('',#187);
#37=PLANE('',#188);
#38=CYLINDRICAL_SURFACE('',#184,2.175);
#39=CYLINDRICAL_SURFACE('',#190,2.425);
#40=LINE('',#271,#46);
#41=LINE('',#273,#47);
#42=LINE('',#277,#48);
#43=LINE('',#281,#49);
#44=LINE('',#290,#50);
#45=LINE('',#299,#51);
#46=VECTOR('',#208,1.);
#47=VECTOR('',#209,1.);
#48=VECTOR('',#214,1.);
#49=VECTOR('',#217,1.);
#50=VECTOR('',#220,1.);
#51=VECTOR('',#223,1.);
#52=ADVANCED_FACE('',(#63),#60,.T.);
#53=ADVANCED_FACE('',(#64),#61,.F.);
#54=ADVANCED_FACE('',(#65),#38,.F.);
#55=ADVANCED_FACE('',(#66),#35,.T.);
#56=ADVANCED_FACE('',(#67),#36,.F.);
#57=ADVANCED_FACE('',(#68),#37,.F.);
#58=ADVANCED_FACE('',(#69),#39,.T.);
#59=ADVANCED_FACE('',(#70),#62,.T.);
#60=CONICAL_SURFACE('',#180,2.666746824527,60.);
#61=CONICAL_SURFACE('',#182,2.366746824527,30.);
#62=CONICAL_SURFACE('',#191,2.6,30.);
#63=FACE_OUTER_BOUND('',#71,.T.);
#64=FACE_OUTER_BOUND('',#72,.T.);
#65=FACE_OUTER_BOUND('',#73,.T.);
#66=FACE_OUTER_BOUND('',#74,.T.);
#67=FACE_OUTER_BOUND('',#75,.T.);
#68=FACE_OUTER_BOUND('',#76,.T.);
#69=FACE_OUTER_BOUND('',#77,.T.);
#70=FACE_OUTER_BOUND('',#78,.T.);
#71=EDGE_LOOP('',(#85,#86,#87,#88));
#72=EDGE_LOOP('',(#89,#90,#91,#92));
#73=EDGE_LOOP('',(#93,#94,#95,#96));
#74=EDGE_LOOP('',(#97,#98,#99,#100));
#75=EDGE_LOOP('',(#101,#102,#103,#104,#105,#106));
#76=EDGE_LOOP('',(#107,#108,#109,#110,#111,#112));
#77=EDGE_LOOP('',(#113,#114,#115,#116));
#78=EDGE_LOOP('',(#117,#118,#119,#120));
#79=CIRCLE('',#178,2.775);
#80=CIRCLE('',#179,2.558493649054);
#81=CIRCLE('',#181,2.175);
#82=CIRCLE('',#183,2.175);
#83=CIRCLE('',#185,2.425);
#84=CIRCLE('',#189,2.425);
#85=ORIENTED_EDGE('',*,*,#133,.F.);
#86=ORIENTED_EDGE('',*,*,#134,.F.);
#87=ORIENTED_EDGE('',*,*,#135,.F.);
#88=ORIENTED_EDGE('',*,*,#136,.T.);
#89=ORIENTED_EDGE('',*,*,#137,.F.);
#90=ORIENTED_EDGE('',*,*,#136,.F.);
#91=ORIENTED_EDGE('',*,*,#138,.F.);
#92=ORIENTED_EDGE('',*,*,#139,.T.);
#93=ORIENTED_EDGE('',*,*,#140,.F.);
#94=ORIENTED_EDGE('',*,*,#139,.F.);
#95=ORIENTED_EDGE('',*,*,#141,.T.);
#96=ORIENTED_EDGE('',*,*,#142,.F.);
#97=ORIENTED_EDGE('',*,*,#142,.T.);
#98=ORIENTED_EDGE('',*,*,#143,.T.);
#99=ORIENTED_EDGE('',*,*,#144,.T.);
#100=ORIENTED_EDGE('',*,*,#145,.T.);
#101=ORIENTED_EDGE('',*,*,#146,.F.);
#102=ORIENTED_EDGE('',*,*,#133,.T.);
#103=ORIENTED_EDGE('',*,*,#137,.T.);
#104=ORIENTED_EDGE('',*,*,#140,.T.);
#105=ORIENTED_EDGE('',*,*,#145,.F.);
#106=ORIENTED_EDGE('',*,*,#147,.F.);
#107=ORIENTED_EDGE('',*,*,#143,.F.);
#108=ORIENTED_EDGE('',*,*,#141,.F.);
#109=ORIENTED_EDGE('',*,*,#138,.T.);
#110=ORIENTED_EDGE('',*,*,#135,.T.);
#111=ORIENTED_EDGE('',*,*,#148,.F.);
#112=ORIENTED_EDGE('',*,*,#149,.T.);
#113=ORIENTED_EDGE('',*,*,#147,.T.);
#114=ORIENTED_EDGE('',*,*,#144,.F.);
#115=ORIENTED_EDGE('',*,*,#149,.F.);
#116=ORIENTED_EDGE('',*,*,#150,.T.);
#117=ORIENTED_EDGE('',*,*,#146,.T.);
#118=ORIENTED_EDGE('',*,*,#150,.F.);
#119=ORIENTED_EDGE('',*,*,#148,.T.);
#120=ORIENTED_EDGE('',*,*,#134,.T.);
#121=VERTEX_POINT('',#242);
#122=VERTEX_POINT('',#243);
#123=VERTEX_POINT('',#245);
#124=VERTEX_POINT('',#252);
#125=VERTEX_POINT('',#261);
#126=VERTEX_POINT('',#268);
#127=VERTEX_POINT('',#272);
#128=VERTEX_POINT('',#274);
#129=VERTEX_POINT('',#278);
#130=VERTEX_POINT('',#280);
#131=VERTEX_POINT('',#289);
#132=VERTEX_POINT('',#298);
#133=EDGE_CURVE('',#121,#122,#151,.T.);
#134=EDGE_CURVE('',#123,#121,#79,.T.);
#135=EDGE_CURVE('',#124,#123,#152,.T.);
#136=EDGE_CURVE('',#124,#122,#80,.T.);
#137=EDGE_CURVE('',#122,#125,#153,.T.);
#138=EDGE_CURVE('',#126,#124,#154,.T.);
#139=EDGE_CURVE('',#126,#125,#81,.T.);
#140=EDGE_CURVE('',#125,#127,#40,.T.);
#141=EDGE_CURVE('',#126,#128,#41,.T.);
#142=EDGE_CURVE('',#127,#128,#82,.T.);
#143=EDGE_CURVE('',#128,#129,#42,.T.);
#144=EDGE_CURVE('',#129,#130,#83,.T.);
#145=EDGE_CURVE('',#130,#127,#43,.T.);
#146=EDGE_CURVE('',#121,#131,#155,.T.);
#147=EDGE_CURVE('',#131,#130,#44,.T.);
#148=EDGE_CURVE('',#132,#123,#156,.T.);
#149=EDGE_CURVE('',#132,#129,#45,.T.);
#150=EDGE_CURVE('',#132,#131,#84,.T.);
#151=B_SPLINE_CURVE_WITH_KNOTS('',3,(#236,#237,#238,#239,#240,#241),
 .UNSPECIFIED.,.F.,.F.,(4,1,1,4),(0.,0.3333333333333,0.6666666666667,1.),
 .UNSPECIFIED.);
#152=B_SPLINE_CURVE_WITH_KNOTS('',3,(#246,#247,#248,#249,#250,#251),
 .UNSPECIFIED.,.F.,.F.,(4,1,1,4),(0.,0.3333333333333,0.6666666666667,1.),
 .UNSPECIFIED.);
#153=B_SPLINE_CURVE_WITH_KNOTS('',3,(#255,#256,#257,#258,#259,#260),
 .UNSPECIFIED.,.F.,.F.,(4,1,1,4),(0.,0.3333333333333,0.6666666666667,1.),
 .UNSPECIFIED.);
#154=B_SPLINE_CURVE_WITH_KNOTS('',3,(#262,#263,#264,#265,#266,#267),
 .UNSPECIFIED.,.F.,.F.,(4,1,1,4),(0.,0.3333333333333,0.6666666666667,1.),
 .UNSPECIFIED.);
#155=B_SPLINE_CURVE_WITH_KNOTS('',3,(#283,#284,#285,#286,#287,#288),
 .UNSPECIFIED.,.F.,.F.,(4,1,1,4),(0.,0.3333333333333,0.6666666666667,1.),
 .UNSPECIFIED.);
#156=B_SPLINE_CURVE_WITH_KNOTS('',3,(#292,#293,#294,#295,#296,#297),
 .UNSPECIFIED.,.F.,.F.,(4,1,1,4),(0.,0.3333333333333,0.6666666666667,1.),
 .UNSPECIFIED.);
#157=COLOUR_RGB('Strong Stone',0.576470588235294,0.54508278019379,0.392156862745098);
#158=COLOUR_RGB('spare part',0.301960784313725,0.301960784313725,0.301960784313725);
#159=CURVE_STYLE('',#161,POSITIVE_LENGTH_MEASURE(0.13),#174);
#160=CURVE_STYLE('',#162,POSITIVE_LENGTH_MEASURE(0.13),#157);
#161=DRAUGHTING_PRE_DEFINED_CURVE_FONT('continuous');
#162=DRAUGHTING_PRE_DEFINED_CURVE_FONT('continuous');
#163=PRESENTATION_LAYER_ASSIGNMENT('1','Layer 1',(#233,#176,#177,#33));
#164=STYLED_ITEM('',(#168),#233);
#165=STYLED_ITEM('',(#169),#176);
#166=STYLED_ITEM('',(#170),#177);
#167=STYLED_ITEM('',(#171),#33);
#168=PRESENTATION_STYLE_ASSIGNMENT((#172));
#169=PRESENTATION_STYLE_ASSIGNMENT((#159));
#170=PRESENTATION_STYLE_ASSIGNMENT((#160));
#171=PRESENTATION_STYLE_ASSIGNMENT((#28));
#172=POINT_STYLE('',#173,POSITIVE_LENGTH_MEASURE(3.),#174);
#173=PRE_DEFINED_POINT_MARKER_SYMBOL('plus');
#174=DRAUGHTING_PRE_DEFINED_COLOUR('yellow');
#175=AXIS2_PLACEMENT_3D('',#232,#192,#193);
#176=AXIS2_PLACEMENT_3D('PCS',#234,#194,#195);
#177=AXIS2_PLACEMENT_3D('',#235,#196,#197);
#178=AXIS2_PLACEMENT_3D('',#244,#198,#199);
#179=AXIS2_PLACEMENT_3D('',#253,#200,#201);
#180=AXIS2_PLACEMENT_3D('',#254,#202,#203);
#181=AXIS2_PLACEMENT_3D('',#269,#204,#205);
#182=AXIS2_PLACEMENT_3D('',#270,#206,#207);
#183=AXIS2_PLACEMENT_3D('',#275,#210,#211);
#184=AXIS2_PLACEMENT_3D('',#276,#212,#213);
#185=AXIS2_PLACEMENT_3D('',#279,#215,#216);
#186=AXIS2_PLACEMENT_3D('',#282,#218,#219);
#187=AXIS2_PLACEMENT_3D('',#291,#221,#222);
#188=AXIS2_PLACEMENT_3D('',#300,#224,#225);
#189=AXIS2_PLACEMENT_3D('',#301,#226,#227);
#190=AXIS2_PLACEMENT_3D('',#302,#228,#229);
#191=AXIS2_PLACEMENT_3D('',#303,#230,#231);
#192=DIRECTION('',(0.,0.,1.));
#193=DIRECTION('',(1.,0.,0.));
#194=DIRECTION('',(0.,0.,1.));
#195=DIRECTION('',(1.,0.,0.));
#196=DIRECTION('',(0.,0.,1.));
#197=DIRECTION('',(1.,0.,0.));
#198=DIRECTION('',(0.,0.,1.));
#199=DIRECTION('',(-0.969965321347383,0.243243243243196,0.));
#200=DIRECTION('',(0.,0.,1.));
#201=DIRECTION('',(-0.964569983471682,0.263827115712995,0.));
#202=DIRECTION('',(0.,0.,1.));
#203=DIRECTION('',(1.,0.,4.40314003038455E-17));
#204=DIRECTION('',(0.,0.,1.));
#205=DIRECTION('',(-0.950624051868294,0.310344827586198,0.));
#206=DIRECTION('',(0.,0.,-1.));
#207=DIRECTION('',(-1.,0.,4.34827679953293E-17));
#208=DIRECTION('',(0.,0.,1.));
#209=DIRECTION('',(0.,0.,1.));
#210=DIRECTION('',(0.,0.,-1.));
#211=DIRECTION('',(0.950624051868294,0.310344827586198,0.));
#212=DIRECTION('',(0.,0.,1.));
#213=DIRECTION('',(1.,0.,0.));
#214=DIRECTION('',(-1.,0.,0.));
#215=DIRECTION('',(0.,0.,1.));
#216=DIRECTION('',(-0.96047956279193,0.278350515463909,0.));
#217=DIRECTION('',(-1.,0.,0.));
#218=DIRECTION('',(0.,0.,1.));
#219=DIRECTION('',(1.,0.,0.));
#220=DIRECTION('',(0.,0.,1.));
#221=DIRECTION('',(0.,-1.,0.));
#222=DIRECTION('',(-1.,0.,0.));
#223=DIRECTION('',(0.,0.,1.));
#224=DIRECTION('',(0.,-1.,0.));
#225=DIRECTION('',(-1.,0.,0.));
#226=DIRECTION('',(0.,0.,1.));
#227=DIRECTION('',(-0.96047956279193,0.278350515463909,0.));
#228=DIRECTION('',(0.,0.,1.));
#229=DIRECTION('',(1.,0.,0.));
#230=DIRECTION('',(0.,0.,-1.));
#231=DIRECTION('',(-1.,0.,1.34602155677994E-17));
#232=CARTESIAN_POINT('',(0.,0.,0.));
#233=CARTESIAN_POINT('',(0.,0.,0.));
#234=CARTESIAN_POINT('',(0.,0.,0.));
#235=CARTESIAN_POINT('',(0.,0.,0.));
#236=CARTESIAN_POINT('',(2.691653766739,0.675,0.125));
#237=CARTESIAN_POINT('',(2.666167740059,0.675,0.110727576841));
#238=CARTESIAN_POINT('',(2.615608424023,0.675,0.08243785310589));
#239=CARTESIAN_POINT('',(2.541011330619,0.675,0.0407730012346));
#240=CARTESIAN_POINT('',(2.492097846697,0.675,0.01350562740342));
#241=CARTESIAN_POINT('',(2.46784617678,0.675,0.));
#242=CARTESIAN_POINT('',(2.691653766739,0.675,0.125));
#243=CARTESIAN_POINT('',(2.46784617678,0.675,0.));
#244=CARTESIAN_POINT('',(0.,0.,0.125));
#245=CARTESIAN_POINT('',(-2.691653766739,0.675,0.125));
#246=CARTESIAN_POINT('',(-2.46784617678,0.675,0.));
#247=CARTESIAN_POINT('',(-2.492089860313,0.675,0.01350117982814));
#248=CARTESIAN_POINT('',(-2.540992699671,0.675,0.04076260779834));
#249=CARTESIAN_POINT('',(-2.61558948864,0.675,0.08242726461952));
#250=CARTESIAN_POINT('',(-2.66615962615,0.675,0.1107230329729));
#251=CARTESIAN_POINT('',(-2.691653766739,0.675,0.125));
#252=CARTESIAN_POINT('',(-2.46784617678,0.675,0.));
#253=CARTESIAN_POINT('',(0.,0.,0.));
#254=CARTESIAN_POINT('',(0.,0.,0.0625));
#255=CARTESIAN_POINT('',(2.46784617678,0.675,0.));
#256=CARTESIAN_POINT('',(2.421291857103,0.675,0.07777756720333));
#257=CARTESIAN_POINT('',(2.329582578341,0.675,0.2306885671729));
#258=CARTESIAN_POINT('',(2.196222098232,0.675,0.4520486518916));
#259=CARTESIAN_POINT('',(2.110027211439,0.675,0.594384884629));
#260=CARTESIAN_POINT('',(2.067607312814,0.675,0.6642304845413));
#261=CARTESIAN_POINT('',(2.067607312814,0.675,0.6642304845413));
#262=CARTESIAN_POINT('',(-2.067607312814,0.675,0.6642304845413));
#263=CARTESIAN_POINT('',(-2.109968338419,0.675,0.5944818207727));
#264=CARTESIAN_POINT('',(-2.196085166974,0.675,0.452275222815));
#265=CARTESIAN_POINT('',(-2.329441746283,0.675,0.2309230353123));
#266=CARTESIAN_POINT('',(-2.421231632313,0.675,0.07787818381003));
#267=CARTESIAN_POINT('',(-2.46784617678,0.675,0.));
#268=CARTESIAN_POINT('',(-2.067607312814,0.675,0.6642304845413));
#269=CARTESIAN_POINT('',(0.,0.,0.6642304845413));
#270=CARTESIAN_POINT('',(0.,0.,0.3321152422707));
#271=CARTESIAN_POINT('',(2.067607312814,0.675,0.6642304845413));
#272=CARTESIAN_POINT('',(2.067607312814,0.675,5.3));
#273=CARTESIAN_POINT('',(-2.067607312814,0.675,0.6642304845413));
#274=CARTESIAN_POINT('',(-2.067607312814,0.675,5.3));
#275=CARTESIAN_POINT('',(0.,0.,5.3));
#276=CARTESIAN_POINT('',(0.,0.,-0.265));
#277=CARTESIAN_POINT('',(-2.067607312814,0.675,5.3));
#278=CARTESIAN_POINT('',(-2.32916293977,0.675,5.3));
#279=CARTESIAN_POINT('',(0.,0.,5.3));
#280=CARTESIAN_POINT('',(2.32916293977,0.675,5.3));
#281=CARTESIAN_POINT('',(2.32916293977,0.675,5.3));
#282=CARTESIAN_POINT('',(0.,0.,5.3));
#283=CARTESIAN_POINT('',(2.691653766739,0.675,0.125));
#284=CARTESIAN_POINT('',(2.649793065654,0.675,0.195327200915));
#285=CARTESIAN_POINT('',(2.567132995095,0.675,0.3340044518529));
#286=CARTESIAN_POINT('',(2.44633239415,0.675,0.5360460522848));
#287=CARTESIAN_POINT('',(2.367873394386,0.675,0.6668190934838));
#288=CARTESIAN_POINT('',(2.32916293977,0.675,0.7312177826491));
#289=CARTESIAN_POINT('',(2.32916293977,0.675,0.7312177826491));
#290=CARTESIAN_POINT('',(2.32916293977,0.675,0.7312177826491));
#291=CARTESIAN_POINT('',(-3.425,0.675,5.3));
#292=CARTESIAN_POINT('',(-2.32916293977,0.675,0.7312177826491));
#293=CARTESIAN_POINT('',(-2.367836507981,0.675,0.666880457686));
#294=CARTESIAN_POINT('',(-2.446246502341,0.675,0.5361894027183));
#295=CARTESIAN_POINT('',(-2.567045066495,0.675,0.3341518163834));
#296=CARTESIAN_POINT('',(-2.649755437894,0.675,0.1953904166511));
#297=CARTESIAN_POINT('',(-2.691653766739,0.675,0.125));
#298=CARTESIAN_POINT('',(-2.32916293977,0.675,0.7312177826491));
#299=CARTESIAN_POINT('',(-2.32916293977,0.675,0.7312177826491));
#300=CARTESIAN_POINT('',(-3.425,0.675,5.3));
#301=CARTESIAN_POINT('',(0.,0.,0.7312177826491));
#302=CARTESIAN_POINT('',(0.,0.,-0.265));
#303=CARTESIAN_POINT('',(0.,0.,0.4281088913246));
#304=MECHANICAL_DESIGN_GEOMETRIC_PRESENTATION_REPRESENTATION('',(#164,#165,
#166,#167),#305);
#305=(
GEOMETRIC_REPRESENTATION_CONTEXT(3)
GLOBAL_UNCERTAINTY_ASSIGNED_CONTEXT((#306))
GLOBAL_UNIT_ASSIGNED_CONTEXT((#312,#308,#307))
REPRESENTATION_CONTEXT('LLP13','TOP_LEVEL_ASSEMBLY_PART')
);
#306=UNCERTAINTY_MEASURE_WITH_UNIT(LENGTH_MEASURE(2.E-5),#312,
'DISTANCE_ACCURACY_VALUE','Maximum Tolerance applied to model');
#307=(
NAMED_UNIT(*)
SI_UNIT($,.STERADIAN.)
SOLID_ANGLE_UNIT()
);
#308=(
CONVERSION_BASED_UNIT('DEGREE',#310)
NAMED_UNIT(#309)
PLANE_ANGLE_UNIT()
);
#309=DIMENSIONAL_EXPONENTS(0.,0.,0.,0.,0.,0.,0.);
#310=PLANE_ANGLE_MEASURE_WITH_UNIT(PLANE_ANGLE_MEASURE(0.0174532925),#311);
#311=(
NAMED_UNIT(*)
PLANE_ANGLE_UNIT()
SI_UNIT($,.RADIAN.)
);
#312=(
LENGTH_UNIT()
NAMED_UNIT(*)
SI_UNIT(.MILLI.,.METRE.)
);
ENDSEC;
END-ISO-10303-21;
