ISO-10303-21;
HEADER;
/* Generated by software containing ST-Developer
 * from STEP Tools, Inc. (www.steptools.com) 
 */
/* OPTION: using custom schema-name function */

FILE_DESCRIPTION(
/* description */ (''),
/* implementation_level */ '2;1');

FILE_NAME(
/* name */ 'LLP14.stp',
/* time_stamp */ '2022-02-03T10:46:21+09:00',
/* author */ (''),
/* organization */ (''),
/* preprocessor_version */ 'ST-DEVELOPER v16',
/* originating_system */ 'SIEMENS PLM Software NX 10.0',
/* authorisation */ '');

FILE_SCHEMA (('AUTOMOTIVE_DESIGN { 1 0 10303 214 3 1 1 1 }'));
ENDSEC;

DATA;
#10=CONSTRUCTIVE_GEOMETRY_REPRESENTATION_RELATIONSHIP(
'supplemental geometry','',#26,#11);
#11=CONSTRUCTIVE_GEOMETRY_REPRESENTATION('supplemental geometry',(#176,
#177),#305);
#12=GEOMETRICALLY_BOUNDED_WIREFRAME_SHAPE_REPRESENTATION('LLP14-None',(#27),
#305);
#13=SHAPE_REPRESENTATION_RELATIONSHIP('None',
'relationship between LLP14-None and LLP14-None',#26,#15);
#14=SHAPE_REPRESENTATION_RELATIONSHIP('None',
'relationship between LLP14-None and LLP14-None',#26,#12);
#15=ADVANCED_BREP_SHAPE_REPRESENTATION('LLP14-None',(#33),#305);
#16=SHAPE_DEFINITION_REPRESENTATION(#17,#26);
#17=PRODUCT_DEFINITION_SHAPE('','',#18);
#18=PRODUCT_DEFINITION('part definition','',#20,#19);
#19=PRODUCT_DEFINITION_CONTEXT('part definition',#25,'design');
#20=PRODUCT_DEFINITION_FORMATION_WITH_SPECIFIED_SOURCE(' ',' ',#22,
 .NOT_KNOWN.);
#21=PRODUCT_RELATED_PRODUCT_CATEGORY('part','',(#22));
#22=PRODUCT('LLP14','LLP14','NOT SPECIFIED',(#23));
#23=PRODUCT_CONTEXT('',#25,'mechanical');
#24=APPLICATION_PROTOCOL_DEFINITION('international standard',
'automotive_design',2010,#25);
#25=APPLICATION_CONTEXT(
'core data for automotive mechanical design processes');
#26=SHAPE_REPRESENTATION('LLP14-None',(#175),#305);
#27=GEOMETRIC_CURVE_SET('None',(#233));
#28=SURFACE_STYLE_USAGE(.BOTH.,#29);
#29=SURFACE_SIDE_STYLE('',(#30));
#30=SURFACE_STYLE_FILL_AREA(#31);
#31=FILL_AREA_STYLE('',(#32));
#32=FILL_AREA_STYLE_COLOUR('',#158);
#33=MANIFOLD_SOLID_BREP('',#34);
#34=CLOSED_SHELL('',(#52,#53,#54,#55,#56,#57,#58,#59));
#35=PLANE('',#186);
#36=PLANE('',#187);
#37=PLANE('',#188);
#38=CYLINDRICAL_SURFACE('',#184,2.925);
#39=CYLINDRICAL_SURFACE('',#190,3.275);
#40=LINE('',#271,#46);
#41=LINE('',#273,#47);
#42=LINE('',#277,#48);
#43=LINE('',#281,#49);
#44=LINE('',#290,#50);
#45=LINE('',#299,#51);
#46=VECTOR('',#208,1.);
#47=VECTOR('',#209,1.);
#48=VECTOR('',#214,1.);
#49=VECTOR('',#217,1.);
#50=VECTOR('',#220,1.);
#51=VECTOR('',#223,1.);
#52=ADVANCED_FACE('',(#63),#60,.T.);
#53=ADVANCED_FACE('',(#64),#61,.F.);
#54=ADVANCED_FACE('',(#65),#38,.F.);
#55=ADVANCED_FACE('',(#66),#35,.T.);
#56=ADVANCED_FACE('',(#67),#36,.F.);
#57=ADVANCED_FACE('',(#68),#37,.F.);
#58=ADVANCED_FACE('',(#69),#39,.T.);
#59=ADVANCED_FACE('',(#70),#62,.T.);
#60=CONICAL_SURFACE('',#180,3.473445554338,60.);
#61=CONICAL_SURFACE('',#182,3.123445554338,30.);
#62=CONICAL_SURFACE('',#191,3.45,30.);
#63=FACE_OUTER_BOUND('',#71,.T.);
#64=FACE_OUTER_BOUND('',#72,.T.);
#65=FACE_OUTER_BOUND('',#73,.T.);
#66=FACE_OUTER_BOUND('',#74,.T.);
#67=FACE_OUTER_BOUND('',#75,.T.);
#68=FACE_OUTER_BOUND('',#76,.T.);
#69=FACE_OUTER_BOUND('',#77,.T.);
#70=FACE_OUTER_BOUND('',#78,.T.);
#71=EDGE_LOOP('',(#85,#86,#87,#88));
#72=EDGE_LOOP('',(#89,#90,#91,#92));
#73=EDGE_LOOP('',(#93,#94,#95,#96));
#74=EDGE_LOOP('',(#97,#98,#99,#100));
#75=EDGE_LOOP('',(#101,#102,#103,#104,#105,#106));
#76=EDGE_LOOP('',(#107,#108,#109,#110,#111,#112));
#77=EDGE_LOOP('',(#113,#114,#115,#116));
#78=EDGE_LOOP('',(#117,#118,#119,#120));
#79=CIRCLE('',#178,3.625);
#80=CIRCLE('',#179,3.321891108675);
#81=CIRCLE('',#181,2.925);
#82=CIRCLE('',#183,2.925);
#83=CIRCLE('',#185,3.275);
#84=CIRCLE('',#189,3.275);
#85=ORIENTED_EDGE('',*,*,#133,.F.);
#86=ORIENTED_EDGE('',*,*,#134,.F.);
#87=ORIENTED_EDGE('',*,*,#135,.F.);
#88=ORIENTED_EDGE('',*,*,#136,.T.);
#89=ORIENTED_EDGE('',*,*,#137,.F.);
#90=ORIENTED_EDGE('',*,*,#136,.F.);
#91=ORIENTED_EDGE('',*,*,#138,.F.);
#92=ORIENTED_EDGE('',*,*,#139,.T.);
#93=ORIENTED_EDGE('',*,*,#140,.F.);
#94=ORIENTED_EDGE('',*,*,#139,.F.);
#95=ORIENTED_EDGE('',*,*,#141,.T.);
#96=ORIENTED_EDGE('',*,*,#142,.F.);
#97=ORIENTED_EDGE('',*,*,#142,.T.);
#98=ORIENTED_EDGE('',*,*,#143,.T.);
#99=ORIENTED_EDGE('',*,*,#144,.T.);
#100=ORIENTED_EDGE('',*,*,#145,.T.);
#101=ORIENTED_EDGE('',*,*,#146,.F.);
#102=ORIENTED_EDGE('',*,*,#133,.T.);
#103=ORIENTED_EDGE('',*,*,#137,.T.);
#104=ORIENTED_EDGE('',*,*,#140,.T.);
#105=ORIENTED_EDGE('',*,*,#145,.F.);
#106=ORIENTED_EDGE('',*,*,#147,.F.);
#107=ORIENTED_EDGE('',*,*,#143,.F.);
#108=ORIENTED_EDGE('',*,*,#141,.F.);
#109=ORIENTED_EDGE('',*,*,#138,.T.);
#110=ORIENTED_EDGE('',*,*,#135,.T.);
#111=ORIENTED_EDGE('',*,*,#148,.F.);
#112=ORIENTED_EDGE('',*,*,#149,.T.);
#113=ORIENTED_EDGE('',*,*,#147,.T.);
#114=ORIENTED_EDGE('',*,*,#144,.F.);
#115=ORIENTED_EDGE('',*,*,#149,.F.);
#116=ORIENTED_EDGE('',*,*,#150,.T.);
#117=ORIENTED_EDGE('',*,*,#146,.T.);
#118=ORIENTED_EDGE('',*,*,#150,.F.);
#119=ORIENTED_EDGE('',*,*,#148,.T.);
#120=ORIENTED_EDGE('',*,*,#134,.T.);
#121=VERTEX_POINT('',#242);
#122=VERTEX_POINT('',#243);
#123=VERTEX_POINT('',#245);
#124=VERTEX_POINT('',#252);
#125=VERTEX_POINT('',#261);
#126=VERTEX_POINT('',#268);
#127=VERTEX_POINT('',#272);
#128=VERTEX_POINT('',#274);
#129=VERTEX_POINT('',#278);
#130=VERTEX_POINT('',#280);
#131=VERTEX_POINT('',#289);
#132=VERTEX_POINT('',#298);
#133=EDGE_CURVE('',#121,#122,#151,.T.);
#134=EDGE_CURVE('',#123,#121,#79,.T.);
#135=EDGE_CURVE('',#124,#123,#152,.T.);
#136=EDGE_CURVE('',#124,#122,#80,.T.);
#137=EDGE_CURVE('',#122,#125,#153,.T.);
#138=EDGE_CURVE('',#126,#124,#154,.T.);
#139=EDGE_CURVE('',#126,#125,#81,.T.);
#140=EDGE_CURVE('',#125,#127,#40,.T.);
#141=EDGE_CURVE('',#126,#128,#41,.T.);
#142=EDGE_CURVE('',#127,#128,#82,.T.);
#143=EDGE_CURVE('',#128,#129,#42,.T.);
#144=EDGE_CURVE('',#129,#130,#83,.T.);
#145=EDGE_CURVE('',#130,#127,#43,.T.);
#146=EDGE_CURVE('',#121,#131,#155,.T.);
#147=EDGE_CURVE('',#131,#130,#44,.T.);
#148=EDGE_CURVE('',#132,#123,#156,.T.);
#149=EDGE_CURVE('',#132,#129,#45,.T.);
#150=EDGE_CURVE('',#132,#131,#84,.T.);
#151=B_SPLINE_CURVE_WITH_KNOTS('',3,(#236,#237,#238,#239,#240,#241),
 .UNSPECIFIED.,.F.,.F.,(4,1,1,4),(0.,0.3333333333333,0.6666666666667,1.),
 .UNSPECIFIED.);
#152=B_SPLINE_CURVE_WITH_KNOTS('',3,(#246,#247,#248,#249,#250,#251),
 .UNSPECIFIED.,.F.,.F.,(4,1,1,4),(0.,0.3333333333333,0.6666666666667,1.),
 .UNSPECIFIED.);
#153=B_SPLINE_CURVE_WITH_KNOTS('',3,(#255,#256,#257,#258,#259,#260),
 .UNSPECIFIED.,.F.,.F.,(4,1,1,4),(0.,0.3333333333333,0.6666666666667,1.),
 .UNSPECIFIED.);
#154=B_SPLINE_CURVE_WITH_KNOTS('',3,(#262,#263,#264,#265,#266,#267),
 .UNSPECIFIED.,.F.,.F.,(4,1,1,4),(0.,0.3333333333333,0.6666666666667,1.),
 .UNSPECIFIED.);
#155=B_SPLINE_CURVE_WITH_KNOTS('',3,(#283,#284,#285,#286,#287,#288),
 .UNSPECIFIED.,.F.,.F.,(4,1,1,4),(0.,0.3333333333333,0.6666666666667,1.),
 .UNSPECIFIED.);
#156=B_SPLINE_CURVE_WITH_KNOTS('',3,(#292,#293,#294,#295,#296,#297),
 .UNSPECIFIED.,.F.,.F.,(4,1,1,4),(0.,0.3333333333333,0.6666666666667,1.),
 .UNSPECIFIED.);
#157=COLOUR_RGB('Strong Stone',0.576470588235294,0.54508278019379,0.392156862745098);
#158=COLOUR_RGB('spare part',0.301960784313725,0.301960784313725,0.301960784313725);
#159=CURVE_STYLE('',#161,POSITIVE_LENGTH_MEASURE(0.13),#174);
#160=CURVE_STYLE('',#162,POSITIVE_LENGTH_MEASURE(0.13),#157);
#161=DRAUGHTING_PRE_DEFINED_CURVE_FONT('continuous');
#162=DRAUGHTING_PRE_DEFINED_CURVE_FONT('continuous');
#163=PRESENTATION_LAYER_ASSIGNMENT('1','Layer 1',(#233,#176,#177,#33));
#164=STYLED_ITEM('',(#168),#233);
#165=STYLED_ITEM('',(#169),#176);
#166=STYLED_ITEM('',(#170),#177);
#167=STYLED_ITEM('',(#171),#33);
#168=PRESENTATION_STYLE_ASSIGNMENT((#172));
#169=PRESENTATION_STYLE_ASSIGNMENT((#159));
#170=PRESENTATION_STYLE_ASSIGNMENT((#160));
#171=PRESENTATION_STYLE_ASSIGNMENT((#28));
#172=POINT_STYLE('',#173,POSITIVE_LENGTH_MEASURE(3.),#174);
#173=PRE_DEFINED_POINT_MARKER_SYMBOL('plus');
#174=DRAUGHTING_PRE_DEFINED_COLOUR('yellow');
#175=AXIS2_PLACEMENT_3D('',#232,#192,#193);
#176=AXIS2_PLACEMENT_3D('PCS',#234,#194,#195);
#177=AXIS2_PLACEMENT_3D('',#235,#196,#197);
#178=AXIS2_PLACEMENT_3D('',#244,#198,#199);
#179=AXIS2_PLACEMENT_3D('',#253,#200,#201);
#180=AXIS2_PLACEMENT_3D('',#254,#202,#203);
#181=AXIS2_PLACEMENT_3D('',#269,#204,#205);
#182=AXIS2_PLACEMENT_3D('',#270,#206,#207);
#183=AXIS2_PLACEMENT_3D('',#275,#210,#211);
#184=AXIS2_PLACEMENT_3D('',#276,#212,#213);
#185=AXIS2_PLACEMENT_3D('',#279,#215,#216);
#186=AXIS2_PLACEMENT_3D('',#282,#218,#219);
#187=AXIS2_PLACEMENT_3D('',#291,#221,#222);
#188=AXIS2_PLACEMENT_3D('',#300,#224,#225);
#189=AXIS2_PLACEMENT_3D('',#301,#226,#227);
#190=AXIS2_PLACEMENT_3D('',#302,#228,#229);
#191=AXIS2_PLACEMENT_3D('',#303,#230,#231);
#192=DIRECTION('',(0.,0.,1.));
#193=DIRECTION('',(1.,0.,0.));
#194=DIRECTION('',(0.,0.,1.));
#195=DIRECTION('',(1.,0.,0.));
#196=DIRECTION('',(0.,0.,1.));
#197=DIRECTION('',(1.,0.,0.));
#198=DIRECTION('',(0.,0.,1.));
#199=DIRECTION('',(-0.959191097970399,0.282758620689699,0.));
#200=DIRECTION('',(0.,0.,1.));
#201=DIRECTION('',(-0.951205147061014,0.308559181040905,0.));
#202=DIRECTION('',(0.,0.,1.));
#203=DIRECTION('',(1.,0.,1.04404929951604E-17));
#204=DIRECTION('',(0.,0.,1.));
#205=DIRECTION('',(-0.936589916704449,0.350427350427381,0.));
#206=DIRECTION('',(0.,0.,-1.));
#207=DIRECTION('',(-1.,0.,-3.82896657874619E-17));
#208=DIRECTION('',(0.,0.,1.));
#209=DIRECTION('',(0.,0.,1.));
#210=DIRECTION('',(0.,0.,-1.));
#211=DIRECTION('',(0.936589916704449,0.350427350427381,0.));
#212=DIRECTION('',(0.,0.,1.));
#213=DIRECTION('',(1.,0.,0.));
#214=DIRECTION('',(-1.,0.,0.));
#215=DIRECTION('',(0.,0.,1.));
#216=DIRECTION('',(-0.949760672671511,0.312977099236604,0.));
#217=DIRECTION('',(-1.,0.,0.));
#218=DIRECTION('',(0.,0.,1.));
#219=DIRECTION('',(1.,0.,0.));
#220=DIRECTION('',(0.,0.,1.));
#221=DIRECTION('',(0.,-1.,0.));
#222=DIRECTION('',(-1.,0.,0.));
#223=DIRECTION('',(0.,0.,1.));
#224=DIRECTION('',(0.,-1.,0.));
#225=DIRECTION('',(-1.,0.,0.));
#226=DIRECTION('',(0.,0.,1.));
#227=DIRECTION('',(-0.949760672671511,0.312977099236604,0.));
#228=DIRECTION('',(0.,0.,1.));
#229=DIRECTION('',(1.,0.,0.));
#230=DIRECTION('',(0.,0.,-1.));
#231=DIRECTION('',(-1.,0.,4.01348758687089E-18));
#232=CARTESIAN_POINT('',(0.,0.,0.));
#233=CARTESIAN_POINT('',(0.,0.,0.));
#234=CARTESIAN_POINT('',(0.,0.,0.));
#235=CARTESIAN_POINT('',(0.,0.,0.));
#236=CARTESIAN_POINT('',(3.477067730143,1.025,0.175));
#237=CARTESIAN_POINT('',(3.440651525667,1.025,0.1548330978502));
#238=CARTESIAN_POINT('',(3.368595985724,1.025,0.1149801832373));
#239=CARTESIAN_POINT('',(3.262860707879,1.025,0.0566564974759));
#240=CARTESIAN_POINT('',(3.193897149096,1.025,0.01872546645456));
#241=CARTESIAN_POINT('',(3.159799920548,1.025,0.));
#242=CARTESIAN_POINT('',(3.477067730143,1.025,0.175));
#243=CARTESIAN_POINT('',(3.159799920548,1.025,0.));
#244=CARTESIAN_POINT('',(0.,0.,0.175));
#245=CARTESIAN_POINT('',(-3.477067730143,1.025,0.175));
#246=CARTESIAN_POINT('',(-3.159799920548,1.025,0.));
#247=CARTESIAN_POINT('',(-3.193881454293,1.025,0.0187168472059));
#248=CARTESIAN_POINT('',(-3.262824097637,1.025,0.05663633976751));
#249=CARTESIAN_POINT('',(-3.368558462808,1.025,0.1149594490206));
#250=CARTESIAN_POINT('',(-3.440635447966,1.025,0.1548241941923));
#251=CARTESIAN_POINT('',(-3.477067730143,1.025,0.175));
#252=CARTESIAN_POINT('',(-3.159799920548,1.025,0.));
#253=CARTESIAN_POINT('',(0.,0.,0.));
#254=CARTESIAN_POINT('',(0.,0.,0.0875));
#255=CARTESIAN_POINT('',(3.159799920548,1.025,0.));
#256=CARTESIAN_POINT('',(3.110996363324,1.025,0.08040560003817));
#257=CARTESIAN_POINT('',(3.01480046704,1.025,0.2385369935891));
#258=CARTESIAN_POINT('',(2.874774126931,1.025,0.46759787594));
#259=CARTESIAN_POINT('',(2.784150387818,1.025,0.6150441311246));
#260=CARTESIAN_POINT('',(2.739525506361,1.025,0.6874355652982));
#261=CARTESIAN_POINT('',(2.739525506361,1.025,0.6874355652982));
#262=CARTESIAN_POINT('',(-2.739525506361,1.025,0.6874355652982));
#263=CARTESIAN_POINT('',(-2.784103815885,1.025,0.6151196811078));
#264=CARTESIAN_POINT('',(-2.87466580662,1.025,0.4677744764916));
#265=CARTESIAN_POINT('',(-3.014688756922,1.025,0.2387203263294));
#266=CARTESIAN_POINT('',(-3.110948603649,1.025,0.08048428580492));
#267=CARTESIAN_POINT('',(-3.159799920548,1.025,0.));
#268=CARTESIAN_POINT('',(-2.739525506361,1.025,0.6874355652982));
#269=CARTESIAN_POINT('',(0.,0.,0.6874355652982));
#270=CARTESIAN_POINT('',(0.,0.,0.3437177826491));
#271=CARTESIAN_POINT('',(2.739525506361,1.025,0.6874355652982));
#272=CARTESIAN_POINT('',(2.739525506361,1.025,5.8));
#273=CARTESIAN_POINT('',(-2.739525506361,1.025,0.6874355652982));
#274=CARTESIAN_POINT('',(-2.739525506361,1.025,5.8));
#275=CARTESIAN_POINT('',(0.,0.,5.8));
#276=CARTESIAN_POINT('',(0.,0.,-0.29));
#277=CARTESIAN_POINT('',(-2.739525506361,1.025,5.8));
#278=CARTESIAN_POINT('',(-3.110466202999,1.025,5.8));
#279=CARTESIAN_POINT('',(0.,0.,5.8));
#280=CARTESIAN_POINT('',(3.110466202999,1.025,5.8));
#281=CARTESIAN_POINT('',(3.110466202999,1.025,5.8));
#282=CARTESIAN_POINT('',(0.,0.,5.8));
#283=CARTESIAN_POINT('',(3.477067730143,1.025,0.175));
#284=CARTESIAN_POINT('',(3.434849080912,1.025,0.2451407008389));
#285=CARTESIAN_POINT('',(3.351404980065,1.025,0.3835677374799));
#286=CARTESIAN_POINT('',(3.229238522003,1.025,0.5855936616704));
#287=CARTESIAN_POINT('',(3.149731890897,1.025,0.7166244012297));
#288=CARTESIAN_POINT('',(3.110466202999,1.025,0.7812177826491));
#289=CARTESIAN_POINT('',(3.110466202999,1.025,0.7812177826491));
#290=CARTESIAN_POINT('',(3.110466202999,1.025,0.7812177826491));
#291=CARTESIAN_POINT('',(-4.275,1.025,5.8));
#292=CARTESIAN_POINT('',(-3.110466202999,1.025,0.7812177826491));
#293=CARTESIAN_POINT('',(-3.149705871466,1.025,0.7166672040712));
#294=CARTESIAN_POINT('',(-3.229177927794,1.025,0.5856936517471));
#295=CARTESIAN_POINT('',(-3.351342865994,1.025,0.3836706689612));
#296=CARTESIAN_POINT('',(-3.434822501818,1.025,0.2451848584881));
#297=CARTESIAN_POINT('',(-3.477067730143,1.025,0.175));
#298=CARTESIAN_POINT('',(-3.110466202999,1.025,0.7812177826491));
#299=CARTESIAN_POINT('',(-3.110466202999,1.025,0.7812177826491));
#300=CARTESIAN_POINT('',(-4.275,1.025,5.8));
#301=CARTESIAN_POINT('',(0.,0.,0.7812177826491));
#302=CARTESIAN_POINT('',(0.,0.,-0.29));
#303=CARTESIAN_POINT('',(0.,0.,0.4781088913246));
#304=MECHANICAL_DESIGN_GEOMETRIC_PRESENTATION_REPRESENTATION('',(#164,#165,
#166,#167),#305);
#305=(
GEOMETRIC_REPRESENTATION_CONTEXT(3)
GLOBAL_UNCERTAINTY_ASSIGNED_CONTEXT((#306))
GLOBAL_UNIT_ASSIGNED_CONTEXT((#312,#308,#307))
REPRESENTATION_CONTEXT('LLP14','TOP_LEVEL_ASSEMBLY_PART')
);
#306=UNCERTAINTY_MEASURE_WITH_UNIT(LENGTH_MEASURE(2.E-5),#312,
'DISTANCE_ACCURACY_VALUE','Maximum Tolerance applied to model');
#307=(
NAMED_UNIT(*)
SI_UNIT($,.STERADIAN.)
SOLID_ANGLE_UNIT()
);
#308=(
CONVERSION_BASED_UNIT('DEGREE',#310)
NAMED_UNIT(#309)
PLANE_ANGLE_UNIT()
);
#309=DIMENSIONAL_EXPONENTS(0.,0.,0.,0.,0.,0.,0.);
#310=PLANE_ANGLE_MEASURE_WITH_UNIT(PLANE_ANGLE_MEASURE(0.0174532925),#311);
#311=(
NAMED_UNIT(*)
PLANE_ANGLE_UNIT()
SI_UNIT($,.RADIAN.)
);
#312=(
LENGTH_UNIT()
NAMED_UNIT(*)
SI_UNIT(.MILLI.,.METRE.)
);
ENDSEC;
END-ISO-10303-21;
