ISO-10303-21;
HEADER;
/* Generated by software containing ST-Developer
 * from STEP Tools, Inc. (www.steptools.com) 
 */
/* OPTION: using custom schema-name function */

FILE_DESCRIPTION(
/* description */ (''),
/* implementation_level */ '2;1');

FILE_NAME(
/* name */ 'HSC04014.stp',
/* time_stamp */ '2022-02-03T10:43:24+09:00',
/* author */ (''),
/* organization */ (''),
/* preprocessor_version */ 'ST-DEVELOPER v16',
/* originating_system */ 'SIEMENS PLM Software NX 10.0',
/* authorisation */ '');

FILE_SCHEMA (('AUTOMOTIVE_DESIGN { 1 0 10303 214 3 1 1 1 }'));
ENDSEC;

DATA;
#10=CONSTRUCTIVE_GEOMETRY_REPRESENTATION_RELATIONSHIP(
'supplemental geometry','',#26,#11);
#11=CONSTRUCTIVE_GEOMETRY_REPRESENTATION('supplemental geometry',(#358,
#359),#593);
#12=GEOMETRICALLY_BOUNDED_WIREFRAME_SHAPE_REPRESENTATION(
'HSC04014-None',(#27),#593);
#13=SHAPE_REPRESENTATION_RELATIONSHIP('None',
'relationship between HSC04014-None and HSC04014-None',#26,#15);
#14=SHAPE_REPRESENTATION_RELATIONSHIP('None',
'relationship between HSC04014-None and HSC04014-None',#26,#12);
#15=ADVANCED_BREP_SHAPE_REPRESENTATION('HSC04014-None',(#33),#593);
#16=SHAPE_DEFINITION_REPRESENTATION(#17,#26);
#17=PRODUCT_DEFINITION_SHAPE('','',#18);
#18=PRODUCT_DEFINITION('part definition','',#20,#19);
#19=PRODUCT_DEFINITION_CONTEXT('part definition',#25,'design');
#20=PRODUCT_DEFINITION_FORMATION_WITH_SPECIFIED_SOURCE(' ',' ',#22,
 .NOT_KNOWN.);
#21=PRODUCT_RELATED_PRODUCT_CATEGORY('part','',(#22));
#22=PRODUCT('HSC04014','HSC04014','NOT SPECIFIED',(#23));
#23=PRODUCT_CONTEXT('',#25,'mechanical');
#24=APPLICATION_PROTOCOL_DEFINITION('international standard',
'automotive_design',2010,#25);
#25=APPLICATION_CONTEXT(
'core data for automotive mechanical design processes');
#26=SHAPE_REPRESENTATION('HSC04014-None',(#357),#593);
#27=GEOMETRIC_CURVE_SET('None',(#501));
#28=SURFACE_STYLE_USAGE(.BOTH.,#29);
#29=SURFACE_SIDE_STYLE('',(#30));
#30=SURFACE_STYLE_FILL_AREA(#31);
#31=FILL_AREA_STYLE('',(#32));
#32=FILL_AREA_STYLE_COLOUR('',#340);
#33=MANIFOLD_SOLID_BREP('',#34);
#34=CLOSED_SHELL('',(#115,#116,#117,#118,#119,#120,#121,#122,#123,#124,
#125,#126,#127,#128,#129,#130,#131,#132,#133,#134));
#35=TOROIDAL_SURFACE('',#384,2.3,0.3);
#36=TOROIDAL_SURFACE('',#386,2.3,0.3);
#37=CONICAL_SURFACE('',#368,3.240192378864,60.);
#38=CONICAL_SURFACE('',#372,3.240192378864,60.);
#39=CONICAL_SURFACE('',#392,1.599999999999,45.);
#40=CONICAL_SURFACE('',#394,1.599999999999,45.);
#41=CYLINDRICAL_SURFACE('',#366,3.5);
#42=CYLINDRICAL_SURFACE('',#373,3.5);
#43=CYLINDRICAL_SURFACE('',#388,2.);
#44=CYLINDRICAL_SURFACE('',#390,2.);
#45=FACE_OUTER_BOUND('',#151,.T.);
#46=FACE_OUTER_BOUND('',#152,.T.);
#47=FACE_OUTER_BOUND('',#155,.T.);
#48=FACE_OUTER_BOUND('',#156,.T.);
#49=FACE_OUTER_BOUND('',#157,.T.);
#50=FACE_OUTER_BOUND('',#158,.T.);
#51=FACE_OUTER_BOUND('',#159,.T.);
#52=FACE_OUTER_BOUND('',#160,.T.);
#53=FACE_OUTER_BOUND('',#161,.T.);
#54=FACE_OUTER_BOUND('',#162,.T.);
#55=FACE_OUTER_BOUND('',#163,.T.);
#56=FACE_OUTER_BOUND('',#164,.T.);
#57=FACE_OUTER_BOUND('',#165,.T.);
#58=FACE_OUTER_BOUND('',#166,.T.);
#59=FACE_OUTER_BOUND('',#167,.T.);
#60=FACE_OUTER_BOUND('',#168,.T.);
#61=FACE_OUTER_BOUND('',#169,.T.);
#62=FACE_OUTER_BOUND('',#170,.T.);
#63=LINE('',#513,#89);
#64=LINE('',#515,#90);
#65=LINE('',#519,#91);
#66=LINE('',#521,#92);
#67=LINE('',#526,#93);
#68=LINE('',#529,#94);
#69=LINE('',#531,#95);
#70=LINE('',#533,#96);
#71=LINE('',#535,#97);
#72=LINE('',#537,#98);
#73=LINE('',#542,#99);
#74=LINE('',#544,#100);
#75=LINE('',#546,#101);
#76=LINE('',#548,#102);
#77=LINE('',#550,#103);
#78=LINE('',#552,#104);
#79=LINE('',#554,#105);
#80=LINE('',#556,#106);
#81=LINE('',#558,#107);
#82=LINE('',#560,#108);
#83=LINE('',#562,#109);
#84=LINE('',#564,#110);
#85=LINE('',#575,#111);
#86=LINE('',#579,#112);
#87=LINE('',#583,#113);
#88=LINE('',#587,#114);
#89=VECTOR('',#412,1.);
#90=VECTOR('',#413,1.);
#91=VECTOR('',#418,1.);
#92=VECTOR('',#419,1.);
#93=VECTOR('',#426,1.);
#94=VECTOR('',#427,1.);
#95=VECTOR('',#428,1.);
#96=VECTOR('',#429,1.);
#97=VECTOR('',#430,1.);
#98=VECTOR('',#431,1.);
#99=VECTOR('',#440,1.);
#100=VECTOR('',#441,1.);
#101=VECTOR('',#442,1.);
#102=VECTOR('',#445,1.);
#103=VECTOR('',#446,1.);
#104=VECTOR('',#449,1.);
#105=VECTOR('',#450,1.);
#106=VECTOR('',#453,1.);
#107=VECTOR('',#454,1.);
#108=VECTOR('',#457,1.);
#109=VECTOR('',#458,1.);
#110=VECTOR('',#461,1.);
#111=VECTOR('',#478,1.);
#112=VECTOR('',#481,1.);
#113=VECTOR('',#488,1.);
#114=VECTOR('',#491,1.);
#115=ADVANCED_FACE('',(#145,#146),#135,.T.);
#116=ADVANCED_FACE('',(#45),#41,.T.);
#117=ADVANCED_FACE('',(#46),#37,.T.);
#118=ADVANCED_FACE('',(#147,#148),#136,.F.);
#119=ADVANCED_FACE('',(#47),#38,.T.);
#120=ADVANCED_FACE('',(#48),#42,.T.);
#121=ADVANCED_FACE('',(#49),#137,.F.);
#122=ADVANCED_FACE('',(#50),#138,.F.);
#123=ADVANCED_FACE('',(#51),#139,.F.);
#124=ADVANCED_FACE('',(#52),#140,.F.);
#125=ADVANCED_FACE('',(#53),#141,.F.);
#126=ADVANCED_FACE('',(#54),#142,.F.);
#127=ADVANCED_FACE('',(#55),#143,.T.);
#128=ADVANCED_FACE('',(#56),#35,.F.);
#129=ADVANCED_FACE('',(#57),#36,.F.);
#130=ADVANCED_FACE('',(#58),#43,.T.);
#131=ADVANCED_FACE('',(#59),#44,.T.);
#132=ADVANCED_FACE('',(#60),#39,.T.);
#133=ADVANCED_FACE('',(#61),#40,.T.);
#134=ADVANCED_FACE('',(#62),#144,.T.);
#135=PLANE('',#364);
#136=PLANE('',#370);
#137=PLANE('',#374);
#138=PLANE('',#375);
#139=PLANE('',#376);
#140=PLANE('',#377);
#141=PLANE('',#378);
#142=PLANE('',#379);
#143=PLANE('',#380);
#144=PLANE('',#395);
#145=FACE_BOUND('',#149,.T.);
#146=FACE_BOUND('',#150,.T.);
#147=FACE_BOUND('',#153,.T.);
#148=FACE_BOUND('',#154,.T.);
#149=EDGE_LOOP('',(#171,#172));
#150=EDGE_LOOP('',(#173,#174));
#151=EDGE_LOOP('',(#175,#176,#177,#178));
#152=EDGE_LOOP('',(#179,#180,#181,#182));
#153=EDGE_LOOP('',(#183,#184));
#154=EDGE_LOOP('',(#185,#186,#187,#188,#189,#190));
#155=EDGE_LOOP('',(#191,#192,#193,#194));
#156=EDGE_LOOP('',(#195,#196,#197,#198));
#157=EDGE_LOOP('',(#199,#200,#201,#202));
#158=EDGE_LOOP('',(#203,#204,#205,#206));
#159=EDGE_LOOP('',(#207,#208,#209,#210));
#160=EDGE_LOOP('',(#211,#212,#213,#214));
#161=EDGE_LOOP('',(#215,#216,#217,#218));
#162=EDGE_LOOP('',(#219,#220,#221,#222));
#163=EDGE_LOOP('',(#223,#224,#225,#226,#227,#228));
#164=EDGE_LOOP('',(#229,#230,#231,#232));
#165=EDGE_LOOP('',(#233,#234,#235,#236));
#166=EDGE_LOOP('',(#237,#238,#239,#240));
#167=EDGE_LOOP('',(#241,#242,#243,#244));
#168=EDGE_LOOP('',(#245,#246,#247,#248));
#169=EDGE_LOOP('',(#249,#250,#251,#252));
#170=EDGE_LOOP('',(#253,#254));
#171=ORIENTED_EDGE('',*,*,#281,.F.);
#172=ORIENTED_EDGE('',*,*,#282,.T.);
#173=ORIENTED_EDGE('',*,*,#283,.F.);
#174=ORIENTED_EDGE('',*,*,#284,.F.);
#175=ORIENTED_EDGE('',*,*,#285,.T.);
#176=ORIENTED_EDGE('',*,*,#282,.F.);
#177=ORIENTED_EDGE('',*,*,#286,.F.);
#178=ORIENTED_EDGE('',*,*,#287,.F.);
#179=ORIENTED_EDGE('',*,*,#288,.T.);
#180=ORIENTED_EDGE('',*,*,#287,.T.);
#181=ORIENTED_EDGE('',*,*,#289,.F.);
#182=ORIENTED_EDGE('',*,*,#290,.F.);
#183=ORIENTED_EDGE('',*,*,#290,.T.);
#184=ORIENTED_EDGE('',*,*,#291,.T.);
#185=ORIENTED_EDGE('',*,*,#292,.F.);
#186=ORIENTED_EDGE('',*,*,#293,.F.);
#187=ORIENTED_EDGE('',*,*,#294,.F.);
#188=ORIENTED_EDGE('',*,*,#295,.F.);
#189=ORIENTED_EDGE('',*,*,#296,.F.);
#190=ORIENTED_EDGE('',*,*,#297,.F.);
#191=ORIENTED_EDGE('',*,*,#289,.T.);
#192=ORIENTED_EDGE('',*,*,#298,.T.);
#193=ORIENTED_EDGE('',*,*,#288,.F.);
#194=ORIENTED_EDGE('',*,*,#291,.F.);
#195=ORIENTED_EDGE('',*,*,#286,.T.);
#196=ORIENTED_EDGE('',*,*,#281,.T.);
#197=ORIENTED_EDGE('',*,*,#285,.F.);
#198=ORIENTED_EDGE('',*,*,#298,.F.);
#199=ORIENTED_EDGE('',*,*,#299,.T.);
#200=ORIENTED_EDGE('',*,*,#300,.F.);
#201=ORIENTED_EDGE('',*,*,#301,.F.);
#202=ORIENTED_EDGE('',*,*,#297,.T.);
#203=ORIENTED_EDGE('',*,*,#301,.T.);
#204=ORIENTED_EDGE('',*,*,#302,.F.);
#205=ORIENTED_EDGE('',*,*,#303,.F.);
#206=ORIENTED_EDGE('',*,*,#292,.T.);
#207=ORIENTED_EDGE('',*,*,#303,.T.);
#208=ORIENTED_EDGE('',*,*,#304,.F.);
#209=ORIENTED_EDGE('',*,*,#305,.F.);
#210=ORIENTED_EDGE('',*,*,#293,.T.);
#211=ORIENTED_EDGE('',*,*,#305,.T.);
#212=ORIENTED_EDGE('',*,*,#306,.F.);
#213=ORIENTED_EDGE('',*,*,#307,.F.);
#214=ORIENTED_EDGE('',*,*,#294,.T.);
#215=ORIENTED_EDGE('',*,*,#307,.T.);
#216=ORIENTED_EDGE('',*,*,#308,.F.);
#217=ORIENTED_EDGE('',*,*,#309,.F.);
#218=ORIENTED_EDGE('',*,*,#295,.T.);
#219=ORIENTED_EDGE('',*,*,#309,.T.);
#220=ORIENTED_EDGE('',*,*,#310,.F.);
#221=ORIENTED_EDGE('',*,*,#299,.F.);
#222=ORIENTED_EDGE('',*,*,#296,.T.);
#223=ORIENTED_EDGE('',*,*,#310,.T.);
#224=ORIENTED_EDGE('',*,*,#308,.T.);
#225=ORIENTED_EDGE('',*,*,#306,.T.);
#226=ORIENTED_EDGE('',*,*,#304,.T.);
#227=ORIENTED_EDGE('',*,*,#302,.T.);
#228=ORIENTED_EDGE('',*,*,#300,.T.);
#229=ORIENTED_EDGE('',*,*,#311,.F.);
#230=ORIENTED_EDGE('',*,*,#312,.F.);
#231=ORIENTED_EDGE('',*,*,#313,.T.);
#232=ORIENTED_EDGE('',*,*,#284,.T.);
#233=ORIENTED_EDGE('',*,*,#313,.F.);
#234=ORIENTED_EDGE('',*,*,#314,.F.);
#235=ORIENTED_EDGE('',*,*,#311,.T.);
#236=ORIENTED_EDGE('',*,*,#283,.T.);
#237=ORIENTED_EDGE('',*,*,#315,.T.);
#238=ORIENTED_EDGE('',*,*,#316,.T.);
#239=ORIENTED_EDGE('',*,*,#317,.F.);
#240=ORIENTED_EDGE('',*,*,#314,.T.);
#241=ORIENTED_EDGE('',*,*,#317,.T.);
#242=ORIENTED_EDGE('',*,*,#318,.T.);
#243=ORIENTED_EDGE('',*,*,#315,.F.);
#244=ORIENTED_EDGE('',*,*,#312,.T.);
#245=ORIENTED_EDGE('',*,*,#319,.F.);
#246=ORIENTED_EDGE('',*,*,#320,.T.);
#247=ORIENTED_EDGE('',*,*,#321,.T.);
#248=ORIENTED_EDGE('',*,*,#318,.F.);
#249=ORIENTED_EDGE('',*,*,#321,.F.);
#250=ORIENTED_EDGE('',*,*,#322,.T.);
#251=ORIENTED_EDGE('',*,*,#319,.T.);
#252=ORIENTED_EDGE('',*,*,#316,.F.);
#253=ORIENTED_EDGE('',*,*,#320,.F.);
#254=ORIENTED_EDGE('',*,*,#322,.F.);
#255=VERTEX_POINT('',#505);
#256=VERTEX_POINT('',#506);
#257=VERTEX_POINT('',#509);
#258=VERTEX_POINT('',#510);
#259=VERTEX_POINT('',#514);
#260=VERTEX_POINT('',#516);
#261=VERTEX_POINT('',#520);
#262=VERTEX_POINT('',#522);
#263=VERTEX_POINT('',#527);
#264=VERTEX_POINT('',#528);
#265=VERTEX_POINT('',#530);
#266=VERTEX_POINT('',#532);
#267=VERTEX_POINT('',#534);
#268=VERTEX_POINT('',#536);
#269=VERTEX_POINT('',#543);
#270=VERTEX_POINT('',#545);
#271=VERTEX_POINT('',#549);
#272=VERTEX_POINT('',#553);
#273=VERTEX_POINT('',#557);
#274=VERTEX_POINT('',#561);
#275=VERTEX_POINT('',#568);
#276=VERTEX_POINT('',#570);
#277=VERTEX_POINT('',#576);
#278=VERTEX_POINT('',#578);
#279=VERTEX_POINT('',#584);
#280=VERTEX_POINT('',#586);
#281=EDGE_CURVE('',#255,#256,#323,.T.);
#282=EDGE_CURVE('',#255,#256,#324,.T.);
#283=EDGE_CURVE('',#257,#258,#325,.T.);
#284=EDGE_CURVE('',#258,#257,#326,.T.);
#285=EDGE_CURVE('',#259,#256,#63,.T.);
#286=EDGE_CURVE('',#260,#255,#64,.T.);
#287=EDGE_CURVE('',#259,#260,#327,.T.);
#288=EDGE_CURVE('',#261,#259,#65,.T.);
#289=EDGE_CURVE('',#262,#260,#66,.T.);
#290=EDGE_CURVE('',#261,#262,#328,.T.);
#291=EDGE_CURVE('',#262,#261,#329,.T.);
#292=EDGE_CURVE('',#263,#264,#67,.T.);
#293=EDGE_CURVE('',#265,#263,#68,.T.);
#294=EDGE_CURVE('',#266,#265,#69,.T.);
#295=EDGE_CURVE('',#267,#266,#70,.T.);
#296=EDGE_CURVE('',#268,#267,#71,.T.);
#297=EDGE_CURVE('',#264,#268,#72,.T.);
#298=EDGE_CURVE('',#260,#259,#330,.T.);
#299=EDGE_CURVE('',#268,#269,#73,.T.);
#300=EDGE_CURVE('',#270,#269,#74,.T.);
#301=EDGE_CURVE('',#264,#270,#75,.T.);
#302=EDGE_CURVE('',#271,#270,#76,.T.);
#303=EDGE_CURVE('',#263,#271,#77,.T.);
#304=EDGE_CURVE('',#272,#271,#78,.T.);
#305=EDGE_CURVE('',#265,#272,#79,.T.);
#306=EDGE_CURVE('',#273,#272,#80,.T.);
#307=EDGE_CURVE('',#266,#273,#81,.T.);
#308=EDGE_CURVE('',#274,#273,#82,.T.);
#309=EDGE_CURVE('',#267,#274,#83,.T.);
#310=EDGE_CURVE('',#269,#274,#84,.T.);
#311=EDGE_CURVE('',#275,#257,#331,.T.);
#312=EDGE_CURVE('',#276,#275,#332,.T.);
#313=EDGE_CURVE('',#276,#258,#333,.T.);
#314=EDGE_CURVE('',#275,#276,#334,.T.);
#315=EDGE_CURVE('',#276,#277,#85,.T.);
#316=EDGE_CURVE('',#277,#278,#335,.T.);
#317=EDGE_CURVE('',#275,#278,#86,.T.);
#318=EDGE_CURVE('',#278,#277,#336,.T.);
#319=EDGE_CURVE('',#279,#278,#87,.T.);
#320=EDGE_CURVE('',#279,#280,#337,.T.);
#321=EDGE_CURVE('',#280,#277,#88,.T.);
#322=EDGE_CURVE('',#280,#279,#338,.T.);
#323=CIRCLE('',#360,3.5);
#324=CIRCLE('',#361,3.5);
#325=CIRCLE('',#362,2.3);
#326=CIRCLE('',#363,2.3);
#327=CIRCLE('',#365,3.5);
#328=CIRCLE('',#367,2.980384757729);
#329=CIRCLE('',#369,2.980384757729);
#330=CIRCLE('',#371,3.5);
#331=CIRCLE('',#381,0.3);
#332=CIRCLE('',#382,2.);
#333=CIRCLE('',#383,0.3);
#334=CIRCLE('',#385,2.);
#335=CIRCLE('',#387,2.);
#336=CIRCLE('',#389,2.);
#337=CIRCLE('',#391,1.2);
#338=CIRCLE('',#393,1.2);
#339=COLOUR_RGB('Strong Stone',0.576470588235294,0.54508278019379,0.392156862745098);
#340=COLOUR_RGB('spare part',0.301960784313725,0.301960784313725,0.301960784313725);
#341=CURVE_STYLE('',#343,POSITIVE_LENGTH_MEASURE(0.13),#356);
#342=CURVE_STYLE('',#344,POSITIVE_LENGTH_MEASURE(0.13),#339);
#343=DRAUGHTING_PRE_DEFINED_CURVE_FONT('continuous');
#344=DRAUGHTING_PRE_DEFINED_CURVE_FONT('continuous');
#345=PRESENTATION_LAYER_ASSIGNMENT('1','Layer 1',(#501,#358,#359,#33));
#346=STYLED_ITEM('',(#350),#501);
#347=STYLED_ITEM('',(#351),#358);
#348=STYLED_ITEM('',(#352),#359);
#349=STYLED_ITEM('',(#353),#33);
#350=PRESENTATION_STYLE_ASSIGNMENT((#354));
#351=PRESENTATION_STYLE_ASSIGNMENT((#341));
#352=PRESENTATION_STYLE_ASSIGNMENT((#342));
#353=PRESENTATION_STYLE_ASSIGNMENT((#28));
#354=POINT_STYLE('',#355,POSITIVE_LENGTH_MEASURE(3.),#356);
#355=PRE_DEFINED_POINT_MARKER_SYMBOL('plus');
#356=DRAUGHTING_PRE_DEFINED_COLOUR('yellow');
#357=AXIS2_PLACEMENT_3D('',#500,#396,#397);
#358=AXIS2_PLACEMENT_3D('PCS',#502,#398,#399);
#359=AXIS2_PLACEMENT_3D('',#503,#400,#401);
#360=AXIS2_PLACEMENT_3D('',#504,#402,#403);
#361=AXIS2_PLACEMENT_3D('',#507,#404,#405);
#362=AXIS2_PLACEMENT_3D('',#508,#406,#407);
#363=AXIS2_PLACEMENT_3D('',#511,#408,#409);
#364=AXIS2_PLACEMENT_3D('',#512,#410,#411);
#365=AXIS2_PLACEMENT_3D('',#517,#414,#415);
#366=AXIS2_PLACEMENT_3D('',#518,#416,#417);
#367=AXIS2_PLACEMENT_3D('',#523,#420,#421);
#368=AXIS2_PLACEMENT_3D('',#524,#422,#423);
#369=AXIS2_PLACEMENT_3D('',#525,#424,#425);
#370=AXIS2_PLACEMENT_3D('',#538,#432,#433);
#371=AXIS2_PLACEMENT_3D('',#539,#434,#435);
#372=AXIS2_PLACEMENT_3D('',#540,#436,#437);
#373=AXIS2_PLACEMENT_3D('',#541,#438,#439);
#374=AXIS2_PLACEMENT_3D('',#547,#443,#444);
#375=AXIS2_PLACEMENT_3D('',#551,#447,#448);
#376=AXIS2_PLACEMENT_3D('',#555,#451,#452);
#377=AXIS2_PLACEMENT_3D('',#559,#455,#456);
#378=AXIS2_PLACEMENT_3D('',#563,#459,#460);
#379=AXIS2_PLACEMENT_3D('',#565,#462,#463);
#380=AXIS2_PLACEMENT_3D('',#566,#464,#465);
#381=AXIS2_PLACEMENT_3D('',#567,#466,#467);
#382=AXIS2_PLACEMENT_3D('',#569,#468,#469);
#383=AXIS2_PLACEMENT_3D('',#571,#470,#471);
#384=AXIS2_PLACEMENT_3D('',#572,#472,#473);
#385=AXIS2_PLACEMENT_3D('',#573,#474,#475);
#386=AXIS2_PLACEMENT_3D('',#574,#476,#477);
#387=AXIS2_PLACEMENT_3D('',#577,#479,#480);
#388=AXIS2_PLACEMENT_3D('',#580,#482,#483);
#389=AXIS2_PLACEMENT_3D('',#581,#484,#485);
#390=AXIS2_PLACEMENT_3D('',#582,#486,#487);
#391=AXIS2_PLACEMENT_3D('',#585,#489,#490);
#392=AXIS2_PLACEMENT_3D('',#588,#492,#493);
#393=AXIS2_PLACEMENT_3D('',#589,#494,#495);
#394=AXIS2_PLACEMENT_3D('',#590,#496,#497);
#395=AXIS2_PLACEMENT_3D('',#591,#498,#499);
#396=DIRECTION('',(0.,0.,1.));
#397=DIRECTION('',(1.,0.,0.));
#398=DIRECTION('',(0.,0.,1.));
#399=DIRECTION('',(1.,0.,0.));
#400=DIRECTION('',(0.,0.,1.));
#401=DIRECTION('',(1.,0.,0.));
#402=DIRECTION('',(0.,0.,-1.));
#403=DIRECTION('',(1.,0.,0.));
#404=DIRECTION('',(0.,0.,1.));
#405=DIRECTION('',(1.,0.,0.));
#406=DIRECTION('',(0.,0.,1.));
#407=DIRECTION('',(1.,0.,0.));
#408=DIRECTION('',(0.,0.,1.));
#409=DIRECTION('',(-1.,0.,0.));
#410=DIRECTION('',(0.,0.,1.));
#411=DIRECTION('',(1.,0.,0.));
#412=DIRECTION('',(-1.176236285549E-13,3.179313320925E-12,1.));
#413=DIRECTION('',(1.177436526656E-13,-3.179095118737E-12,1.));
#414=DIRECTION('',(0.,0.,-1.));
#415=DIRECTION('',(-1.,0.,0.));
#416=DIRECTION('',(0.,0.,1.));
#417=DIRECTION('',(1.,0.,0.));
#418=DIRECTION('',(-0.866025403784429,2.65344647646709E-12,0.500000000000017));
#419=DIRECTION('',(0.866025403784429,-2.65262240601509E-12,0.500000000000017));
#420=DIRECTION('',(0.,0.,-1.));
#421=DIRECTION('',(-1.,0.,0.));
#422=DIRECTION('',(0.,0.,1.));
#423=DIRECTION('',(-1.,0.,-2.85843984626818E-17));
#424=DIRECTION('',(0.,0.,-1.));
#425=DIRECTION('',(1.,0.,0.));
#426=DIRECTION('',(-0.500000000000017,-0.866025403784429,0.));
#427=DIRECTION('',(0.500000000000017,-0.866025403784429,0.));
#428=DIRECTION('',(1.,0.,0.));
#429=DIRECTION('',(0.500000000000017,0.866025403784429,0.));
#430=DIRECTION('',(-0.500000000000017,0.866025403784429,0.));
#431=DIRECTION('',(-1.,0.,0.));
#432=DIRECTION('',(0.,0.,1.));
#433=DIRECTION('',(1.,0.,0.));
#434=DIRECTION('',(0.,0.,-1.));
#435=DIRECTION('',(1.,0.,0.));
#436=DIRECTION('',(0.,0.,1.));
#437=DIRECTION('',(-1.,0.,-2.85843984626818E-17));
#438=DIRECTION('',(0.,0.,1.));
#439=DIRECTION('',(1.,0.,0.));
#440=DIRECTION('',(0.,0.,1.));
#441=DIRECTION('',(-1.,0.,0.));
#442=DIRECTION('',(0.,0.,1.));
#443=DIRECTION('',(0.,-1.,0.));
#444=DIRECTION('',(1.,0.,0.));
#445=DIRECTION('',(-0.500000000000017,-0.866025403784429,0.));
#446=DIRECTION('',(0.,0.,1.));
#447=DIRECTION('',(0.866025403784429,-0.500000000000017,0.));
#448=DIRECTION('',(0.500000000000017,0.866025403784429,0.));
#449=DIRECTION('',(0.500000000000017,-0.866025403784429,0.));
#450=DIRECTION('',(0.,0.,1.));
#451=DIRECTION('',(0.866025403784429,0.500000000000017,0.));
#452=DIRECTION('',(-0.500000000000017,0.866025403784429,0.));
#453=DIRECTION('',(1.,0.,0.));
#454=DIRECTION('',(0.,0.,1.));
#455=DIRECTION('',(0.,1.,0.));
#456=DIRECTION('',(-1.,0.,0.));
#457=DIRECTION('',(0.500000000000017,0.866025403784429,0.));
#458=DIRECTION('',(0.,0.,1.));
#459=DIRECTION('',(-0.866025403784429,0.500000000000017,0.));
#460=DIRECTION('',(-0.500000000000017,-0.866025403784429,0.));
#461=DIRECTION('',(-0.500000000000017,0.866025403784429,0.));
#462=DIRECTION('',(-0.866025403784429,-0.500000000000017,0.));
#463=DIRECTION('',(0.500000000000017,-0.866025403784429,0.));
#464=DIRECTION('',(0.,0.,-1.));
#465=DIRECTION('',(1.,0.,0.));
#466=DIRECTION('',(-1.449274728005E-14,-1.,0.));
#467=DIRECTION('',(-2.31296463463574E-14,3.49235296582219E-28,-1.));
#468=DIRECTION('',(0.,0.,1.));
#469=DIRECTION('',(-1.,0.,0.));
#470=DIRECTION('',(1.436090829587E-14,1.,0.));
#471=DIRECTION('',(2.31296463463574E-14,-3.49235296582219E-28,-1.));
#472=DIRECTION('',(0.,0.,1.));
#473=DIRECTION('',(0.99997044439831,-0.00768832425475508,0.));
#474=DIRECTION('',(0.,0.,1.));
#475=DIRECTION('',(1.,0.,0.));
#476=DIRECTION('',(0.,0.,1.));
#477=DIRECTION('',(-0.99997044439831,0.00768832425475508,0.));
#478=DIRECTION('',(1.365488256488E-13,8.399413608481E-13,1.));
#479=DIRECTION('',(0.,0.,-1.));
#480=DIRECTION('',(-1.,0.,0.));
#481=DIRECTION('',(-1.365660384089E-13,-8.399837125795E-13,1.));
#482=DIRECTION('',(0.,0.,1.));
#483=DIRECTION('',(1.,0.,0.));
#484=DIRECTION('',(0.,0.,-1.));
#485=DIRECTION('',(1.,0.,0.));
#486=DIRECTION('',(0.,0.,1.));
#487=DIRECTION('',(1.,0.,0.));
#488=DIRECTION('',(0.707106781186547,-1.88814557544313E-12,-0.707106781186547));
#489=DIRECTION('',(0.,0.,-1.));
#490=DIRECTION('',(1.,0.,0.));
#491=DIRECTION('',(-0.707106781186547,1.88803891502313E-12,-0.707106781186547));
#492=DIRECTION('',(0.,0.,-1.));
#493=DIRECTION('',(-1.,0.,-5.1958570566398E-17));
#494=DIRECTION('',(0.,0.,-1.));
#495=DIRECTION('',(-1.,0.,0.));
#496=DIRECTION('',(0.,0.,-1.));
#497=DIRECTION('',(-1.,0.,-5.1958570566398E-17));
#498=DIRECTION('',(0.,0.,1.));
#499=DIRECTION('',(1.,0.,0.));
#500=CARTESIAN_POINT('',(0.,0.,0.));
#501=CARTESIAN_POINT('',(0.,0.,0.));
#502=CARTESIAN_POINT('',(0.,0.,0.));
#503=CARTESIAN_POINT('',(0.,0.,0.));
#504=CARTESIAN_POINT('',(0.,0.,4.));
#505=CARTESIAN_POINT('',(3.5,0.,4.));
#506=CARTESIAN_POINT('',(-3.5,0.,4.));
#507=CARTESIAN_POINT('',(0.,0.,4.));
#508=CARTESIAN_POINT('',(0.,0.,4.));
#509=CARTESIAN_POINT('',(2.3,0.,4.));
#510=CARTESIAN_POINT('',(-2.3,0.,4.));
#511=CARTESIAN_POINT('',(0.,0.,4.));
#512=CARTESIAN_POINT('',(0.,0.,4.));
#513=CARTESIAN_POINT('',(-3.5,0.,4.));
#514=CARTESIAN_POINT('',(-3.5,0.,0.3));
#515=CARTESIAN_POINT('',(3.5,0.,4.));
#516=CARTESIAN_POINT('',(3.5,0.,0.3));
#517=CARTESIAN_POINT('',(0.,0.,0.3));
#518=CARTESIAN_POINT('',(0.,0.,-0.9));
#519=CARTESIAN_POINT('',(-2.980384757729,-1.335581292422E-11,-2.855493619336E-13));
#520=CARTESIAN_POINT('',(-2.980384757729,0.,0.));
#521=CARTESIAN_POINT('',(2.980384757729,1.335451113386E-11,-2.854753470653E-13));
#522=CARTESIAN_POINT('',(2.980384757729,0.,0.));
#523=CARTESIAN_POINT('',(0.,0.,0.));
#524=CARTESIAN_POINT('',(0.,0.,0.1499999999997));
#525=CARTESIAN_POINT('',(0.,0.,0.));
#526=CARTESIAN_POINT('',(1.732050807569,0.,0.));
#527=CARTESIAN_POINT('',(1.732050807569,0.,0.));
#528=CARTESIAN_POINT('',(0.8660254037844,-1.5,0.));
#529=CARTESIAN_POINT('',(0.8660254037844,1.5,0.));
#530=CARTESIAN_POINT('',(0.8660254037844,1.5,0.));
#531=CARTESIAN_POINT('',(-0.8660254037844,1.5,0.));
#532=CARTESIAN_POINT('',(-0.8660254037844,1.5,0.));
#533=CARTESIAN_POINT('',(-1.732050807569,0.,0.));
#534=CARTESIAN_POINT('',(-1.732050807569,0.,0.));
#535=CARTESIAN_POINT('',(-0.8660254037844,-1.5,0.));
#536=CARTESIAN_POINT('',(-0.8660254037844,-1.5,0.));
#537=CARTESIAN_POINT('',(0.8660254037844,-1.5,0.));
#538=CARTESIAN_POINT('',(0.,0.,0.));
#539=CARTESIAN_POINT('',(0.,0.,0.3));
#540=CARTESIAN_POINT('',(0.,0.,0.1499999999997));
#541=CARTESIAN_POINT('',(0.,0.,-0.9));
#542=CARTESIAN_POINT('',(-0.8660254037844,-1.5,0.));
#543=CARTESIAN_POINT('',(-0.8660254037844,-1.5,2.2));
#544=CARTESIAN_POINT('',(0.8660254037844,-1.5,2.2));
#545=CARTESIAN_POINT('',(0.8660254037844,-1.5,2.2));
#546=CARTESIAN_POINT('',(0.8660254037844,-1.5,0.));
#547=CARTESIAN_POINT('',(0.8660254037844,-1.5,0.));
#548=CARTESIAN_POINT('',(1.732050807569,0.,2.2));
#549=CARTESIAN_POINT('',(1.732050807569,0.,2.2));
#550=CARTESIAN_POINT('',(1.732050807569,0.,0.));
#551=CARTESIAN_POINT('',(1.732050807569,0.,0.));
#552=CARTESIAN_POINT('',(0.8660254037844,1.5,2.2));
#553=CARTESIAN_POINT('',(0.8660254037844,1.5,2.2));
#554=CARTESIAN_POINT('',(0.8660254037844,1.5,0.));
#555=CARTESIAN_POINT('',(0.8660254037844,1.5,0.));
#556=CARTESIAN_POINT('',(-0.8660254037844,1.5,2.2));
#557=CARTESIAN_POINT('',(-0.8660254037844,1.5,2.2));
#558=CARTESIAN_POINT('',(-0.8660254037844,1.5,0.));
#559=CARTESIAN_POINT('',(-0.8660254037844,1.5,0.));
#560=CARTESIAN_POINT('',(-1.732050807569,0.,2.2));
#561=CARTESIAN_POINT('',(-1.732050807569,0.,2.2));
#562=CARTESIAN_POINT('',(-1.732050807569,0.,0.));
#563=CARTESIAN_POINT('',(-1.732050807569,0.,0.));
#564=CARTESIAN_POINT('',(-0.8660254037844,-1.5,2.2));
#565=CARTESIAN_POINT('',(-0.8660254037844,-1.5,0.));
#566=CARTESIAN_POINT('',(0.,0.,2.2));
#567=CARTESIAN_POINT('',(2.3,-3.333444631437E-14,4.3));
#568=CARTESIAN_POINT('',(2.,0.,4.3));
#569=CARTESIAN_POINT('',(0.,0.,4.3));
#570=CARTESIAN_POINT('',(-2.,0.,4.3));
#571=CARTESIAN_POINT('',(-2.3,3.30291349826E-14,4.3));
#572=CARTESIAN_POINT('',(0.,0.,4.3));
#573=CARTESIAN_POINT('',(0.,0.,4.3));
#574=CARTESIAN_POINT('',(0.,0.,4.3));
#575=CARTESIAN_POINT('',(-1.999999999998,1.068060588901E-11,17.2));
#576=CARTESIAN_POINT('',(-2.,0.,17.2));
#577=CARTESIAN_POINT('',(0.,0.,17.2));
#578=CARTESIAN_POINT('',(2.,0.,17.2));
#579=CARTESIAN_POINT('',(1.999999999998,-1.068122022604E-11,17.2));
#580=CARTESIAN_POINT('',(0.,0.,-0.9));
#581=CARTESIAN_POINT('',(0.,0.,17.2));
#582=CARTESIAN_POINT('',(0.,0.,-0.9));
#583=CARTESIAN_POINT('',(1.999999999998,-1.068122022604E-11,17.2));
#584=CARTESIAN_POINT('',(1.2,0.,18.));
#585=CARTESIAN_POINT('',(0.,0.,18.));
#586=CARTESIAN_POINT('',(-1.2,0.,18.));
#587=CARTESIAN_POINT('',(-1.999999999998,1.068060588901E-11,17.2));
#588=CARTESIAN_POINT('',(0.,0.,17.6));
#589=CARTESIAN_POINT('',(0.,0.,18.));
#590=CARTESIAN_POINT('',(0.,0.,17.6));
#591=CARTESIAN_POINT('',(0.,0.,18.));
#592=MECHANICAL_DESIGN_GEOMETRIC_PRESENTATION_REPRESENTATION('',(#346,#347,
#348,#349),#593);
#593=(
GEOMETRIC_REPRESENTATION_CONTEXT(3)
GLOBAL_UNCERTAINTY_ASSIGNED_CONTEXT((#594))
GLOBAL_UNIT_ASSIGNED_CONTEXT((#600,#596,#595))
REPRESENTATION_CONTEXT('HSC04014','TOP_LEVEL_ASSEMBLY_PART')
);
#594=UNCERTAINTY_MEASURE_WITH_UNIT(LENGTH_MEASURE(2.E-5),#600,
'DISTANCE_ACCURACY_VALUE','Maximum Tolerance applied to model');
#595=(
NAMED_UNIT(*)
SI_UNIT($,.STERADIAN.)
SOLID_ANGLE_UNIT()
);
#596=(
CONVERSION_BASED_UNIT('DEGREE',#598)
NAMED_UNIT(#597)
PLANE_ANGLE_UNIT()
);
#597=DIMENSIONAL_EXPONENTS(0.,0.,0.,0.,0.,0.,0.);
#598=PLANE_ANGLE_MEASURE_WITH_UNIT(PLANE_ANGLE_MEASURE(0.0174532925),#599);
#599=(
NAMED_UNIT(*)
PLANE_ANGLE_UNIT()
SI_UNIT($,.RADIAN.)
);
#600=(
LENGTH_UNIT()
NAMED_UNIT(*)
SI_UNIT(.MILLI.,.METRE.)
);
ENDSEC;
END-ISO-10303-21;
