ISO-10303-21;
HEADER;
/* Generated by software containing ST-Developer
 * from STEP Tools, Inc. (www.steptools.com) 
 */
/* OPTION: using custom schema-name function */

FILE_DESCRIPTION(
/* description */ (''),
/* implementation_level */ '2;1');

FILE_NAME(
/* name */ 'HKY60R.stp',
/* time_stamp */ '2022-02-03T10:43:24+09:00',
/* author */ (''),
/* organization */ (''),
/* preprocessor_version */ 'ST-DEVELOPER v16',
/* originating_system */ 'SIEMENS PLM Software NX 10.0',
/* authorisation */ '');

FILE_SCHEMA (('AUTOMOTIVE_DESIGN { 1 0 10303 214 3 1 1 1 }'));
ENDSEC;

DATA;
#10=CONSTRUCTIVE_GEOMETRY_REPRESENTATION_RELATIONSHIP(
'supplemental geometry','',#26,#11);
#11=CONSTRUCTIVE_GEOMETRY_REPRESENTATION('supplemental geometry',(#504,
#505),#717);
#12=GEOMETRICALLY_BOUNDED_WIREFRAME_SHAPE_REPRESENTATION('HKY60R-None',
(#27),#717);
#13=SHAPE_REPRESENTATION_RELATIONSHIP('None',
'relationship between HKY60R-None and HKY60R-None',#26,#15);
#14=SHAPE_REPRESENTATION_RELATIONSHIP('None',
'relationship between HKY60R-None and HKY60R-None',#26,#12);
#15=ADVANCED_BREP_SHAPE_REPRESENTATION('HKY60R-None',(#153),#717);
#16=SHAPE_DEFINITION_REPRESENTATION(#17,#26);
#17=PRODUCT_DEFINITION_SHAPE('','',#18);
#18=PRODUCT_DEFINITION('part definition','',#20,#19);
#19=PRODUCT_DEFINITION_CONTEXT('part definition',#25,'design');
#20=PRODUCT_DEFINITION_FORMATION_WITH_SPECIFIED_SOURCE(' ',' ',#22,
 .NOT_KNOWN.);
#21=PRODUCT_RELATED_PRODUCT_CATEGORY('part','',(#22));
#22=PRODUCT('HKY60R','HKY60R','NOT SPECIFIED',(#23));
#23=PRODUCT_CONTEXT('',#25,'mechanical');
#24=APPLICATION_PROTOCOL_DEFINITION('international standard',
'automotive_design',2010,#25);
#25=APPLICATION_CONTEXT(
'core data for automotive mechanical design processes');
#26=SHAPE_REPRESENTATION('HKY60R-None',(#503),#717);
#27=GEOMETRIC_CURVE_SET('None',(#627));
#28=OVER_RIDING_STYLED_ITEM('',(#480),#167,#475);
#29=OVER_RIDING_STYLED_ITEM('',(#481),#168,#475);
#30=OVER_RIDING_STYLED_ITEM('',(#482),#169,#475);
#31=OVER_RIDING_STYLED_ITEM('',(#483),#170,#475);
#32=OVER_RIDING_STYLED_ITEM('',(#484),#171,#475);
#33=OVER_RIDING_STYLED_ITEM('',(#485),#172,#475);
#34=OVER_RIDING_STYLED_ITEM('',(#486),#173,#475);
#35=OVER_RIDING_STYLED_ITEM('',(#487),#174,#475);
#36=OVER_RIDING_STYLED_ITEM('',(#488),#175,#475);
#37=OVER_RIDING_STYLED_ITEM('',(#489),#176,#475);
#38=OVER_RIDING_STYLED_ITEM('',(#490),#177,#475);
#39=OVER_RIDING_STYLED_ITEM('',(#491),#178,#475);
#40=OVER_RIDING_STYLED_ITEM('',(#492),#179,#475);
#41=OVER_RIDING_STYLED_ITEM('',(#493),#180,#475);
#42=OVER_RIDING_STYLED_ITEM('',(#494),#181,#475);
#43=OVER_RIDING_STYLED_ITEM('',(#495),#182,#475);
#44=OVER_RIDING_STYLED_ITEM('',(#496),#183,#475);
#45=OVER_RIDING_STYLED_ITEM('',(#497),#184,#475);
#46=OVER_RIDING_STYLED_ITEM('',(#498),#185,#475);
#47=OVER_RIDING_STYLED_ITEM('',(#499),#186,#475);
#48=SURFACE_STYLE_USAGE(.BOTH.,#69);
#49=SURFACE_STYLE_USAGE(.BOTH.,#70);
#50=SURFACE_STYLE_USAGE(.BOTH.,#71);
#51=SURFACE_STYLE_USAGE(.BOTH.,#72);
#52=SURFACE_STYLE_USAGE(.BOTH.,#73);
#53=SURFACE_STYLE_USAGE(.BOTH.,#74);
#54=SURFACE_STYLE_USAGE(.BOTH.,#75);
#55=SURFACE_STYLE_USAGE(.BOTH.,#76);
#56=SURFACE_STYLE_USAGE(.BOTH.,#77);
#57=SURFACE_STYLE_USAGE(.BOTH.,#78);
#58=SURFACE_STYLE_USAGE(.BOTH.,#79);
#59=SURFACE_STYLE_USAGE(.BOTH.,#80);
#60=SURFACE_STYLE_USAGE(.BOTH.,#81);
#61=SURFACE_STYLE_USAGE(.BOTH.,#82);
#62=SURFACE_STYLE_USAGE(.BOTH.,#83);
#63=SURFACE_STYLE_USAGE(.BOTH.,#84);
#64=SURFACE_STYLE_USAGE(.BOTH.,#85);
#65=SURFACE_STYLE_USAGE(.BOTH.,#86);
#66=SURFACE_STYLE_USAGE(.BOTH.,#87);
#67=SURFACE_STYLE_USAGE(.BOTH.,#88);
#68=SURFACE_STYLE_USAGE(.BOTH.,#89);
#69=SURFACE_SIDE_STYLE('',(#90));
#70=SURFACE_SIDE_STYLE('',(#91));
#71=SURFACE_SIDE_STYLE('',(#92));
#72=SURFACE_SIDE_STYLE('',(#93));
#73=SURFACE_SIDE_STYLE('',(#94));
#74=SURFACE_SIDE_STYLE('',(#95));
#75=SURFACE_SIDE_STYLE('',(#96));
#76=SURFACE_SIDE_STYLE('',(#97));
#77=SURFACE_SIDE_STYLE('',(#98));
#78=SURFACE_SIDE_STYLE('',(#99));
#79=SURFACE_SIDE_STYLE('',(#100));
#80=SURFACE_SIDE_STYLE('',(#101));
#81=SURFACE_SIDE_STYLE('',(#102));
#82=SURFACE_SIDE_STYLE('',(#103));
#83=SURFACE_SIDE_STYLE('',(#104));
#84=SURFACE_SIDE_STYLE('',(#105));
#85=SURFACE_SIDE_STYLE('',(#106));
#86=SURFACE_SIDE_STYLE('',(#107));
#87=SURFACE_SIDE_STYLE('',(#108));
#88=SURFACE_SIDE_STYLE('',(#109));
#89=SURFACE_SIDE_STYLE('',(#110));
#90=SURFACE_STYLE_FILL_AREA(#111);
#91=SURFACE_STYLE_FILL_AREA(#112);
#92=SURFACE_STYLE_FILL_AREA(#113);
#93=SURFACE_STYLE_FILL_AREA(#114);
#94=SURFACE_STYLE_FILL_AREA(#115);
#95=SURFACE_STYLE_FILL_AREA(#116);
#96=SURFACE_STYLE_FILL_AREA(#117);
#97=SURFACE_STYLE_FILL_AREA(#118);
#98=SURFACE_STYLE_FILL_AREA(#119);
#99=SURFACE_STYLE_FILL_AREA(#120);
#100=SURFACE_STYLE_FILL_AREA(#121);
#101=SURFACE_STYLE_FILL_AREA(#122);
#102=SURFACE_STYLE_FILL_AREA(#123);
#103=SURFACE_STYLE_FILL_AREA(#124);
#104=SURFACE_STYLE_FILL_AREA(#125);
#105=SURFACE_STYLE_FILL_AREA(#126);
#106=SURFACE_STYLE_FILL_AREA(#127);
#107=SURFACE_STYLE_FILL_AREA(#128);
#108=SURFACE_STYLE_FILL_AREA(#129);
#109=SURFACE_STYLE_FILL_AREA(#130);
#110=SURFACE_STYLE_FILL_AREA(#131);
#111=FILL_AREA_STYLE('',(#132));
#112=FILL_AREA_STYLE('',(#133));
#113=FILL_AREA_STYLE('',(#134));
#114=FILL_AREA_STYLE('',(#135));
#115=FILL_AREA_STYLE('',(#136));
#116=FILL_AREA_STYLE('',(#137));
#117=FILL_AREA_STYLE('',(#138));
#118=FILL_AREA_STYLE('',(#139));
#119=FILL_AREA_STYLE('',(#140));
#120=FILL_AREA_STYLE('',(#141));
#121=FILL_AREA_STYLE('',(#142));
#122=FILL_AREA_STYLE('',(#143));
#123=FILL_AREA_STYLE('',(#144));
#124=FILL_AREA_STYLE('',(#145));
#125=FILL_AREA_STYLE('',(#146));
#126=FILL_AREA_STYLE('',(#147));
#127=FILL_AREA_STYLE('',(#148));
#128=FILL_AREA_STYLE('',(#149));
#129=FILL_AREA_STYLE('',(#150));
#130=FILL_AREA_STYLE('',(#151));
#131=FILL_AREA_STYLE('',(#152));
#132=FILL_AREA_STYLE_COLOUR('',#464);
#133=FILL_AREA_STYLE_COLOUR('',#465);
#134=FILL_AREA_STYLE_COLOUR('',#465);
#135=FILL_AREA_STYLE_COLOUR('',#465);
#136=FILL_AREA_STYLE_COLOUR('',#465);
#137=FILL_AREA_STYLE_COLOUR('',#465);
#138=FILL_AREA_STYLE_COLOUR('',#465);
#139=FILL_AREA_STYLE_COLOUR('',#465);
#140=FILL_AREA_STYLE_COLOUR('',#465);
#141=FILL_AREA_STYLE_COLOUR('',#465);
#142=FILL_AREA_STYLE_COLOUR('',#465);
#143=FILL_AREA_STYLE_COLOUR('',#465);
#144=FILL_AREA_STYLE_COLOUR('',#465);
#145=FILL_AREA_STYLE_COLOUR('',#465);
#146=FILL_AREA_STYLE_COLOUR('',#465);
#147=FILL_AREA_STYLE_COLOUR('',#465);
#148=FILL_AREA_STYLE_COLOUR('',#465);
#149=FILL_AREA_STYLE_COLOUR('',#465);
#150=FILL_AREA_STYLE_COLOUR('',#465);
#151=FILL_AREA_STYLE_COLOUR('',#465);
#152=FILL_AREA_STYLE_COLOUR('',#465);
#153=MANIFOLD_SOLID_BREP('',#154);
#154=CLOSED_SHELL('',(#167,#168,#169,#170,#171,#172,#173,#174,#175,#176,
#177,#178,#179,#180,#181,#182,#183,#184,#185,#186));
#155=CYLINDRICAL_SURFACE('',#517,12.);
#156=CYLINDRICAL_SURFACE('',#523,6.);
#157=CONICAL_SURFACE('',#515,10.5,60.00000000001);
#158=CONICAL_SURFACE('',#519,10.5,60.00000000001);
#159=CONICAL_SURFACE('',#521,7.5,60.00000000001);
#160=CONICAL_SURFACE('',#524,7.5,60.00000000001);
#161=CIRCLE('',#513,9.);
#162=CIRCLE('',#514,12.);
#163=CIRCLE('',#516,12.);
#164=CIRCLE('',#518,9.);
#165=CIRCLE('',#520,6.);
#166=CIRCLE('',#522,6.);
#167=ADVANCED_FACE('',(#201),#187,.T.);
#168=ADVANCED_FACE('',(#202),#188,.F.);
#169=ADVANCED_FACE('',(#203),#189,.F.);
#170=ADVANCED_FACE('',(#204),#190,.F.);
#171=ADVANCED_FACE('',(#205),#191,.T.);
#172=ADVANCED_FACE('',(#206),#192,.T.);
#173=ADVANCED_FACE('',(#207),#193,.T.);
#174=ADVANCED_FACE('',(#208),#157,.T.);
#175=ADVANCED_FACE('',(#209),#155,.T.);
#176=ADVANCED_FACE('',(#210),#158,.T.);
#177=ADVANCED_FACE('',(#211),#159,.F.);
#178=ADVANCED_FACE('',(#212),#156,.F.);
#179=ADVANCED_FACE('',(#213),#160,.F.);
#180=ADVANCED_FACE('',(#214),#194,.T.);
#181=ADVANCED_FACE('',(#215),#195,.T.);
#182=ADVANCED_FACE('',(#216),#196,.F.);
#183=ADVANCED_FACE('',(#217),#197,.F.);
#184=ADVANCED_FACE('',(#218),#198,.F.);
#185=ADVANCED_FACE('',(#219),#199,.T.);
#186=ADVANCED_FACE('',(#220),#200,.T.);
#187=PLANE('',#506);
#188=PLANE('',#507);
#189=PLANE('',#508);
#190=PLANE('',#509);
#191=PLANE('',#510);
#192=PLANE('',#511);
#193=PLANE('',#512);
#194=PLANE('',#525);
#195=PLANE('',#526);
#196=PLANE('',#527);
#197=PLANE('',#528);
#198=PLANE('',#529);
#199=PLANE('',#530);
#200=PLANE('',#531);
#201=FACE_OUTER_BOUND('',#221,.T.);
#202=FACE_OUTER_BOUND('',#222,.T.);
#203=FACE_OUTER_BOUND('',#223,.T.);
#204=FACE_OUTER_BOUND('',#224,.T.);
#205=FACE_OUTER_BOUND('',#225,.T.);
#206=FACE_OUTER_BOUND('',#226,.T.);
#207=FACE_OUTER_BOUND('',#227,.T.);
#208=FACE_OUTER_BOUND('',#228,.T.);
#209=FACE_OUTER_BOUND('',#229,.T.);
#210=FACE_OUTER_BOUND('',#230,.T.);
#211=FACE_OUTER_BOUND('',#231,.T.);
#212=FACE_OUTER_BOUND('',#232,.T.);
#213=FACE_OUTER_BOUND('',#233,.T.);
#214=FACE_OUTER_BOUND('',#234,.T.);
#215=FACE_OUTER_BOUND('',#235,.T.);
#216=FACE_OUTER_BOUND('',#236,.T.);
#217=FACE_OUTER_BOUND('',#237,.T.);
#218=FACE_OUTER_BOUND('',#238,.T.);
#219=FACE_OUTER_BOUND('',#239,.T.);
#220=FACE_OUTER_BOUND('',#240,.T.);
#221=EDGE_LOOP('',(#241,#242,#243,#244,#245,#246));
#222=EDGE_LOOP('',(#247,#248,#249,#250));
#223=EDGE_LOOP('',(#251,#252,#253,#254));
#224=EDGE_LOOP('',(#255,#256,#257,#258));
#225=EDGE_LOOP('',(#259,#260,#261,#262));
#226=EDGE_LOOP('',(#263,#264,#265,#266));
#227=EDGE_LOOP('',(#267,#268,#269,#270));
#228=EDGE_LOOP('',(#271,#272,#273,#274));
#229=EDGE_LOOP('',(#275,#276,#277,#278));
#230=EDGE_LOOP('',(#279,#280,#281,#282));
#231=EDGE_LOOP('',(#283,#284,#285,#286));
#232=EDGE_LOOP('',(#287,#288,#289,#290));
#233=EDGE_LOOP('',(#291,#292,#293,#294));
#234=EDGE_LOOP('',(#295,#296,#297,#298));
#235=EDGE_LOOP('',(#299,#300,#301,#302));
#236=EDGE_LOOP('',(#303,#304,#305,#306));
#237=EDGE_LOOP('',(#307,#308,#309,#310));
#238=EDGE_LOOP('',(#311,#312,#313,#314));
#239=EDGE_LOOP('',(#315,#316,#317,#318));
#240=EDGE_LOOP('',(#319,#320,#321,#322,#323,#324));
#241=ORIENTED_EDGE('',*,*,#349,.F.);
#242=ORIENTED_EDGE('',*,*,#350,.F.);
#243=ORIENTED_EDGE('',*,*,#351,.T.);
#244=ORIENTED_EDGE('',*,*,#352,.F.);
#245=ORIENTED_EDGE('',*,*,#353,.F.);
#246=ORIENTED_EDGE('',*,*,#354,.T.);
#247=ORIENTED_EDGE('',*,*,#355,.T.);
#248=ORIENTED_EDGE('',*,*,#356,.T.);
#249=ORIENTED_EDGE('',*,*,#357,.T.);
#250=ORIENTED_EDGE('',*,*,#354,.F.);
#251=ORIENTED_EDGE('',*,*,#357,.F.);
#252=ORIENTED_EDGE('',*,*,#358,.T.);
#253=ORIENTED_EDGE('',*,*,#359,.T.);
#254=ORIENTED_EDGE('',*,*,#349,.T.);
#255=ORIENTED_EDGE('',*,*,#359,.F.);
#256=ORIENTED_EDGE('',*,*,#360,.T.);
#257=ORIENTED_EDGE('',*,*,#361,.T.);
#258=ORIENTED_EDGE('',*,*,#350,.T.);
#259=ORIENTED_EDGE('',*,*,#361,.F.);
#260=ORIENTED_EDGE('',*,*,#362,.T.);
#261=ORIENTED_EDGE('',*,*,#363,.T.);
#262=ORIENTED_EDGE('',*,*,#351,.F.);
#263=ORIENTED_EDGE('',*,*,#363,.F.);
#264=ORIENTED_EDGE('',*,*,#364,.T.);
#265=ORIENTED_EDGE('',*,*,#365,.T.);
#266=ORIENTED_EDGE('',*,*,#352,.T.);
#267=ORIENTED_EDGE('',*,*,#365,.F.);
#268=ORIENTED_EDGE('',*,*,#366,.T.);
#269=ORIENTED_EDGE('',*,*,#355,.F.);
#270=ORIENTED_EDGE('',*,*,#353,.T.);
#271=ORIENTED_EDGE('',*,*,#367,.T.);
#272=ORIENTED_EDGE('',*,*,#368,.T.);
#273=ORIENTED_EDGE('',*,*,#369,.T.);
#274=ORIENTED_EDGE('',*,*,#366,.F.);
#275=ORIENTED_EDGE('',*,*,#369,.F.);
#276=ORIENTED_EDGE('',*,*,#370,.T.);
#277=ORIENTED_EDGE('',*,*,#371,.T.);
#278=ORIENTED_EDGE('',*,*,#356,.F.);
#279=ORIENTED_EDGE('',*,*,#371,.F.);
#280=ORIENTED_EDGE('',*,*,#372,.T.);
#281=ORIENTED_EDGE('',*,*,#373,.T.);
#282=ORIENTED_EDGE('',*,*,#358,.F.);
#283=ORIENTED_EDGE('',*,*,#373,.F.);
#284=ORIENTED_EDGE('',*,*,#374,.T.);
#285=ORIENTED_EDGE('',*,*,#375,.T.);
#286=ORIENTED_EDGE('',*,*,#360,.F.);
#287=ORIENTED_EDGE('',*,*,#375,.F.);
#288=ORIENTED_EDGE('',*,*,#376,.T.);
#289=ORIENTED_EDGE('',*,*,#377,.T.);
#290=ORIENTED_EDGE('',*,*,#362,.F.);
#291=ORIENTED_EDGE('',*,*,#377,.F.);
#292=ORIENTED_EDGE('',*,*,#378,.T.);
#293=ORIENTED_EDGE('',*,*,#367,.F.);
#294=ORIENTED_EDGE('',*,*,#364,.F.);
#295=ORIENTED_EDGE('',*,*,#379,.T.);
#296=ORIENTED_EDGE('',*,*,#380,.T.);
#297=ORIENTED_EDGE('',*,*,#381,.T.);
#298=ORIENTED_EDGE('',*,*,#378,.F.);
#299=ORIENTED_EDGE('',*,*,#381,.F.);
#300=ORIENTED_EDGE('',*,*,#382,.T.);
#301=ORIENTED_EDGE('',*,*,#383,.T.);
#302=ORIENTED_EDGE('',*,*,#368,.F.);
#303=ORIENTED_EDGE('',*,*,#383,.F.);
#304=ORIENTED_EDGE('',*,*,#384,.T.);
#305=ORIENTED_EDGE('',*,*,#385,.T.);
#306=ORIENTED_EDGE('',*,*,#370,.F.);
#307=ORIENTED_EDGE('',*,*,#385,.F.);
#308=ORIENTED_EDGE('',*,*,#386,.T.);
#309=ORIENTED_EDGE('',*,*,#387,.T.);
#310=ORIENTED_EDGE('',*,*,#372,.F.);
#311=ORIENTED_EDGE('',*,*,#387,.F.);
#312=ORIENTED_EDGE('',*,*,#388,.T.);
#313=ORIENTED_EDGE('',*,*,#389,.T.);
#314=ORIENTED_EDGE('',*,*,#374,.F.);
#315=ORIENTED_EDGE('',*,*,#389,.F.);
#316=ORIENTED_EDGE('',*,*,#390,.T.);
#317=ORIENTED_EDGE('',*,*,#379,.F.);
#318=ORIENTED_EDGE('',*,*,#376,.F.);
#319=ORIENTED_EDGE('',*,*,#382,.F.);
#320=ORIENTED_EDGE('',*,*,#380,.F.);
#321=ORIENTED_EDGE('',*,*,#390,.F.);
#322=ORIENTED_EDGE('',*,*,#388,.F.);
#323=ORIENTED_EDGE('',*,*,#386,.F.);
#324=ORIENTED_EDGE('',*,*,#384,.F.);
#325=VERTEX_POINT('',#631);
#326=VERTEX_POINT('',#632);
#327=VERTEX_POINT('',#634);
#328=VERTEX_POINT('',#636);
#329=VERTEX_POINT('',#638);
#330=VERTEX_POINT('',#640);
#331=VERTEX_POINT('',#644);
#332=VERTEX_POINT('',#646);
#333=VERTEX_POINT('',#650);
#334=VERTEX_POINT('',#654);
#335=VERTEX_POINT('',#658);
#336=VERTEX_POINT('',#662);
#337=VERTEX_POINT('',#668);
#338=VERTEX_POINT('',#670);
#339=VERTEX_POINT('',#674);
#340=VERTEX_POINT('',#678);
#341=VERTEX_POINT('',#682);
#342=VERTEX_POINT('',#686);
#343=VERTEX_POINT('',#692);
#344=VERTEX_POINT('',#694);
#345=VERTEX_POINT('',#698);
#346=VERTEX_POINT('',#702);
#347=VERTEX_POINT('',#706);
#348=VERTEX_POINT('',#710);
#349=EDGE_CURVE('',#325,#326,#391,.T.);
#350=EDGE_CURVE('',#327,#325,#392,.T.);
#351=EDGE_CURVE('',#327,#328,#393,.T.);
#352=EDGE_CURVE('',#329,#328,#394,.T.);
#353=EDGE_CURVE('',#330,#329,#395,.T.);
#354=EDGE_CURVE('',#330,#326,#396,.T.);
#355=EDGE_CURVE('',#330,#331,#397,.T.);
#356=EDGE_CURVE('',#331,#332,#398,.T.);
#357=EDGE_CURVE('',#332,#326,#399,.T.);
#358=EDGE_CURVE('',#332,#333,#400,.T.);
#359=EDGE_CURVE('',#333,#325,#401,.T.);
#360=EDGE_CURVE('',#333,#334,#402,.T.);
#361=EDGE_CURVE('',#334,#327,#403,.T.);
#362=EDGE_CURVE('',#334,#335,#404,.T.);
#363=EDGE_CURVE('',#335,#328,#405,.T.);
#364=EDGE_CURVE('',#335,#336,#406,.T.);
#365=EDGE_CURVE('',#336,#329,#407,.T.);
#366=EDGE_CURVE('',#336,#331,#408,.T.);
#367=EDGE_CURVE('',#336,#337,#161,.T.);
#368=EDGE_CURVE('',#337,#338,#409,.T.);
#369=EDGE_CURVE('',#338,#331,#162,.T.);
#370=EDGE_CURVE('',#338,#339,#410,.T.);
#371=EDGE_CURVE('',#339,#332,#163,.T.);
#372=EDGE_CURVE('',#339,#340,#411,.T.);
#373=EDGE_CURVE('',#340,#333,#164,.T.);
#374=EDGE_CURVE('',#340,#341,#412,.T.);
#375=EDGE_CURVE('',#341,#334,#165,.T.);
#376=EDGE_CURVE('',#341,#342,#413,.T.);
#377=EDGE_CURVE('',#342,#335,#166,.T.);
#378=EDGE_CURVE('',#342,#337,#414,.T.);
#379=EDGE_CURVE('',#342,#343,#415,.T.);
#380=EDGE_CURVE('',#343,#344,#416,.T.);
#381=EDGE_CURVE('',#344,#337,#417,.T.);
#382=EDGE_CURVE('',#344,#345,#418,.T.);
#383=EDGE_CURVE('',#345,#338,#419,.T.);
#384=EDGE_CURVE('',#345,#346,#420,.T.);
#385=EDGE_CURVE('',#346,#339,#421,.T.);
#386=EDGE_CURVE('',#346,#347,#422,.T.);
#387=EDGE_CURVE('',#347,#340,#423,.T.);
#388=EDGE_CURVE('',#347,#348,#424,.T.);
#389=EDGE_CURVE('',#348,#341,#425,.T.);
#390=EDGE_CURVE('',#348,#343,#426,.T.);
#391=LINE('',#630,#427);
#392=LINE('',#633,#428);
#393=LINE('',#635,#429);
#394=LINE('',#637,#430);
#395=LINE('',#639,#431);
#396=LINE('',#641,#432);
#397=LINE('',#643,#433);
#398=LINE('',#645,#434);
#399=LINE('',#647,#435);
#400=LINE('',#649,#436);
#401=LINE('',#651,#437);
#402=LINE('',#653,#438);
#403=LINE('',#655,#439);
#404=LINE('',#657,#440);
#405=LINE('',#659,#441);
#406=LINE('',#661,#442);
#407=LINE('',#663,#443);
#408=LINE('',#665,#444);
#409=LINE('',#669,#445);
#410=LINE('',#673,#446);
#411=LINE('',#677,#447);
#412=LINE('',#681,#448);
#413=LINE('',#685,#449);
#414=LINE('',#689,#450);
#415=LINE('',#691,#451);
#416=LINE('',#693,#452);
#417=LINE('',#695,#453);
#418=LINE('',#697,#454);
#419=LINE('',#699,#455);
#420=LINE('',#701,#456);
#421=LINE('',#703,#457);
#422=LINE('',#705,#458);
#423=LINE('',#707,#459);
#424=LINE('',#709,#460);
#425=LINE('',#711,#461);
#426=LINE('',#713,#462);
#427=VECTOR('',#538,1.);
#428=VECTOR('',#539,1.);
#429=VECTOR('',#540,1.);
#430=VECTOR('',#541,1.);
#431=VECTOR('',#542,1.);
#432=VECTOR('',#543,1.);
#433=VECTOR('',#546,1.);
#434=VECTOR('',#547,1.);
#435=VECTOR('',#548,1.);
#436=VECTOR('',#551,1.);
#437=VECTOR('',#552,1.);
#438=VECTOR('',#555,1.);
#439=VECTOR('',#556,1.);
#440=VECTOR('',#559,1.);
#441=VECTOR('',#560,1.);
#442=VECTOR('',#563,1.);
#443=VECTOR('',#564,1.);
#444=VECTOR('',#567,1.);
#445=VECTOR('',#572,1.);
#446=VECTOR('',#577,1.);
#447=VECTOR('',#582,1.);
#448=VECTOR('',#587,1.);
#449=VECTOR('',#592,1.);
#450=VECTOR('',#597,1.);
#451=VECTOR('',#600,1.);
#452=VECTOR('',#601,1.);
#453=VECTOR('',#602,1.);
#454=VECTOR('',#605,1.);
#455=VECTOR('',#606,1.);
#456=VECTOR('',#609,1.);
#457=VECTOR('',#610,1.);
#458=VECTOR('',#613,1.);
#459=VECTOR('',#614,1.);
#460=VECTOR('',#617,1.);
#461=VECTOR('',#618,1.);
#462=VECTOR('',#621,1.);
#463=COLOUR_RGB('Strong Stone',0.576470588235294,0.54508278019379,0.392156862745098);
#464=COLOUR_RGB('Medium Steel',0.596063172350652,0.666666666666667,0.686259250782025);
#465=COLOUR_RGB('spare part',0.301960784313725,0.301960784313725,0.301960784313725);
#466=CURVE_STYLE('',#468,POSITIVE_LENGTH_MEASURE(0.13),#502);
#467=CURVE_STYLE('',#469,POSITIVE_LENGTH_MEASURE(0.13),#463);
#468=DRAUGHTING_PRE_DEFINED_CURVE_FONT('continuous');
#469=DRAUGHTING_PRE_DEFINED_CURVE_FONT('continuous');
#470=PRESENTATION_LAYER_ASSIGNMENT('2','Layer 2',(#627,#504));
#471=PRESENTATION_LAYER_ASSIGNMENT('1','Layer 1',(#505,#153));
#472=STYLED_ITEM('',(#476),#627);
#473=STYLED_ITEM('',(#477),#504);
#474=STYLED_ITEM('',(#478),#505);
#475=STYLED_ITEM('',(#479),#153);
#476=PRESENTATION_STYLE_ASSIGNMENT((#500));
#477=PRESENTATION_STYLE_ASSIGNMENT((#466));
#478=PRESENTATION_STYLE_ASSIGNMENT((#467));
#479=PRESENTATION_STYLE_ASSIGNMENT((#48));
#480=PRESENTATION_STYLE_ASSIGNMENT((#49));
#481=PRESENTATION_STYLE_ASSIGNMENT((#50));
#482=PRESENTATION_STYLE_ASSIGNMENT((#51));
#483=PRESENTATION_STYLE_ASSIGNMENT((#52));
#484=PRESENTATION_STYLE_ASSIGNMENT((#53));
#485=PRESENTATION_STYLE_ASSIGNMENT((#54));
#486=PRESENTATION_STYLE_ASSIGNMENT((#55));
#487=PRESENTATION_STYLE_ASSIGNMENT((#56));
#488=PRESENTATION_STYLE_ASSIGNMENT((#57));
#489=PRESENTATION_STYLE_ASSIGNMENT((#58));
#490=PRESENTATION_STYLE_ASSIGNMENT((#59));
#491=PRESENTATION_STYLE_ASSIGNMENT((#60));
#492=PRESENTATION_STYLE_ASSIGNMENT((#61));
#493=PRESENTATION_STYLE_ASSIGNMENT((#62));
#494=PRESENTATION_STYLE_ASSIGNMENT((#63));
#495=PRESENTATION_STYLE_ASSIGNMENT((#64));
#496=PRESENTATION_STYLE_ASSIGNMENT((#65));
#497=PRESENTATION_STYLE_ASSIGNMENT((#66));
#498=PRESENTATION_STYLE_ASSIGNMENT((#67));
#499=PRESENTATION_STYLE_ASSIGNMENT((#68));
#500=POINT_STYLE('',#501,POSITIVE_LENGTH_MEASURE(3.),#502);
#501=PRE_DEFINED_POINT_MARKER_SYMBOL('plus');
#502=DRAUGHTING_PRE_DEFINED_COLOUR('yellow');
#503=AXIS2_PLACEMENT_3D('',#626,#532,#533);
#504=AXIS2_PLACEMENT_3D('PCS',#628,#534,#535);
#505=AXIS2_PLACEMENT_3D('',#629,#536,#537);
#506=AXIS2_PLACEMENT_3D('',#642,#544,#545);
#507=AXIS2_PLACEMENT_3D('',#648,#549,#550);
#508=AXIS2_PLACEMENT_3D('',#652,#553,#554);
#509=AXIS2_PLACEMENT_3D('',#656,#557,#558);
#510=AXIS2_PLACEMENT_3D('',#660,#561,#562);
#511=AXIS2_PLACEMENT_3D('',#664,#565,#566);
#512=AXIS2_PLACEMENT_3D('',#666,#568,#569);
#513=AXIS2_PLACEMENT_3D('',#667,#570,#571);
#514=AXIS2_PLACEMENT_3D('',#671,#573,#574);
#515=AXIS2_PLACEMENT_3D('',#672,#575,#576);
#516=AXIS2_PLACEMENT_3D('',#675,#578,#579);
#517=AXIS2_PLACEMENT_3D('',#676,#580,#581);
#518=AXIS2_PLACEMENT_3D('',#679,#583,#584);
#519=AXIS2_PLACEMENT_3D('',#680,#585,#586);
#520=AXIS2_PLACEMENT_3D('',#683,#588,#589);
#521=AXIS2_PLACEMENT_3D('',#684,#590,#591);
#522=AXIS2_PLACEMENT_3D('',#687,#593,#594);
#523=AXIS2_PLACEMENT_3D('',#688,#595,#596);
#524=AXIS2_PLACEMENT_3D('',#690,#598,#599);
#525=AXIS2_PLACEMENT_3D('',#696,#603,#604);
#526=AXIS2_PLACEMENT_3D('',#700,#607,#608);
#527=AXIS2_PLACEMENT_3D('',#704,#611,#612);
#528=AXIS2_PLACEMENT_3D('',#708,#615,#616);
#529=AXIS2_PLACEMENT_3D('',#712,#619,#620);
#530=AXIS2_PLACEMENT_3D('',#714,#622,#623);
#531=AXIS2_PLACEMENT_3D('',#715,#624,#625);
#532=DIRECTION('',(0.,0.,1.));
#533=DIRECTION('',(1.,0.,0.));
#534=DIRECTION('',(0.,0.,1.));
#535=DIRECTION('',(1.,0.,0.));
#536=DIRECTION('',(0.,0.,1.));
#537=DIRECTION('',(1.,0.,0.));
#538=DIRECTION('',(-0.866025403784454,0.499999999999973,0.));
#539=DIRECTION('',(-0.866025403784454,-0.499999999999973,0.));
#540=DIRECTION('',(0.,1.,0.));
#541=DIRECTION('',(0.866025403784454,-0.499999999999973,0.));
#542=DIRECTION('',(0.866025403784454,0.499999999999973,0.));
#543=DIRECTION('',(0.,-1.,0.));
#544=DIRECTION('',(0.,0.,1.));
#545=DIRECTION('',(-1.,0.,0.));
#546=DIRECTION('',(0.,0.,-1.));
#547=DIRECTION('',(1.181265392143E-14,-1.,0.));
#548=DIRECTION('',(0.,0.,1.));
#549=DIRECTION('',(1.,0.,0.));
#550=DIRECTION('',(0.,1.,0.));
#551=DIRECTION('',(0.866025403784497,-0.499999999999898,0.));
#552=DIRECTION('',(0.,0.,1.));
#553=DIRECTION('',(0.499999999999898,0.866025403784497,0.));
#554=DIRECTION('',(0.866025403784497,-0.499999999999899,0.));
#555=DIRECTION('',(0.866025403784497,0.499999999999898,0.));
#556=DIRECTION('',(0.,0.,1.));
#557=DIRECTION('',(-0.499999999999898,0.866025403784497,0.));
#558=DIRECTION('',(0.866025403784497,0.499999999999898,0.));
#559=DIRECTION('',(-1.194538036999E-14,1.,0.));
#560=DIRECTION('',(0.,0.,1.));
#561=DIRECTION('',(1.,0.,0.));
#562=DIRECTION('',(0.,1.,0.));
#563=DIRECTION('',(-0.866025403784497,0.499999999999898,0.));
#564=DIRECTION('',(0.,0.,1.));
#565=DIRECTION('',(0.499999999999898,0.866025403784497,0.));
#566=DIRECTION('',(0.866025403784497,-0.499999999999898,0.));
#567=DIRECTION('',(-0.866025403784497,-0.499999999999898,0.));
#568=DIRECTION('',(-0.499999999999898,0.866025403784497,0.));
#569=DIRECTION('',(0.866025403784497,0.499999999999899,0.));
#570=DIRECTION('',(0.,-1.,0.));
#571=DIRECTION('',(-1.,0.,0.));
#572=DIRECTION('',(0.,-0.499999999999898,-0.866025403784497));
#573=DIRECTION('',(0.,1.,0.));
#574=DIRECTION('',(0.,0.,-1.));
#575=DIRECTION('',(0.,-1.,0.));
#576=DIRECTION('',(1.,-4.47978653361816E-18,0.));
#577=DIRECTION('',(0.,-1.,0.));
#578=DIRECTION('',(0.,1.,0.));
#579=DIRECTION('',(0.,0.,-1.));
#580=DIRECTION('',(0.,-1.,0.));
#581=DIRECTION('',(1.,0.,0.));
#582=DIRECTION('',(0.,-0.499999999999898,0.866025403784497));
#583=DIRECTION('',(0.,1.,0.));
#584=DIRECTION('',(0.,0.,-0.999999999999999));
#585=DIRECTION('',(0.,1.,0.));
#586=DIRECTION('',(1.,3.7331554446818E-18,0.));
#587=DIRECTION('',(0.,0.499999999999898,0.866025403784497));
#588=DIRECTION('',(0.,1.,0.));
#589=DIRECTION('',(0.,0.,-1.));
#590=DIRECTION('',(0.,-1.,0.));
#591=DIRECTION('',(1.,3.73959358163377E-18,0.));
#592=DIRECTION('',(0.,1.,0.));
#593=DIRECTION('',(0.,1.,0.));
#594=DIRECTION('',(0.,0.,-1.));
#595=DIRECTION('',(0.,-1.,0.));
#596=DIRECTION('',(1.,0.,0.));
#597=DIRECTION('',(0.,0.499999999999898,-0.866025403784497));
#598=DIRECTION('',(0.,1.,0.));
#599=DIRECTION('',(1.,5.93348848285892E-17,0.));
#600=DIRECTION('',(1.,0.,0.));
#601=DIRECTION('',(0.,0.499999999999973,-0.866025403784454));
#602=DIRECTION('',(-1.,0.,0.));
#603=DIRECTION('',(0.,0.866025403784497,0.499999999999898));
#604=DIRECTION('',(1.,0.,0.));
#605=DIRECTION('',(0.,-0.499999999999973,-0.866025403784454));
#606=DIRECTION('',(-1.,0.,0.));
#607=DIRECTION('',(0.,0.866025403784497,-0.499999999999898));
#608=DIRECTION('',(1.,0.,0.));
#609=DIRECTION('',(0.,-1.,0.));
#610=DIRECTION('',(-1.,0.,0.));
#611=DIRECTION('',(0.,0.,1.));
#612=DIRECTION('',(0.,1.,0.));
#613=DIRECTION('',(0.,-0.499999999999973,0.866025403784454));
#614=DIRECTION('',(-1.,0.,0.));
#615=DIRECTION('',(0.,0.866025403784497,0.499999999999898));
#616=DIRECTION('',(1.,0.,0.));
#617=DIRECTION('',(0.,0.499999999999973,0.866025403784454));
#618=DIRECTION('',(-1.,0.,0.));
#619=DIRECTION('',(0.,0.866025403784497,-0.499999999999898));
#620=DIRECTION('',(1.,0.,0.));
#621=DIRECTION('',(0.,1.,0.));
#622=DIRECTION('',(0.,0.,1.));
#623=DIRECTION('',(0.,1.,0.));
#624=DIRECTION('',(1.,0.,0.));
#625=DIRECTION('',(0.,0.,-1.));
#626=CARTESIAN_POINT('',(0.,0.,0.));
#627=CARTESIAN_POINT('',(0.,0.,0.));
#628=CARTESIAN_POINT('',(0.,0.,0.));
#629=CARTESIAN_POINT('',(0.,0.,0.));
#630=CARTESIAN_POINT('',(0.,-3.405,0.));
#631=CARTESIAN_POINT('',(0.,-3.405,0.));
#632=CARTESIAN_POINT('',(-3.,-1.672949192431,0.));
#633=CARTESIAN_POINT('',(3.,-1.672949192431,0.));
#634=CARTESIAN_POINT('',(3.,-1.672949192431,0.));
#635=CARTESIAN_POINT('',(3.,-1.672949192431,0.));
#636=CARTESIAN_POINT('',(3.,1.672949192431,0.));
#637=CARTESIAN_POINT('',(0.,3.405,0.));
#638=CARTESIAN_POINT('',(0.,3.405,0.));
#639=CARTESIAN_POINT('',(-3.,1.672949192431,0.));
#640=CARTESIAN_POINT('',(-3.,1.672949192431,0.));
#641=CARTESIAN_POINT('',(-3.,1.672949192431,0.));
#642=CARTESIAN_POINT('',(0.,0.,0.));
#643=CARTESIAN_POINT('',(-3.,1.672949192431,0.));
#644=CARTESIAN_POINT('',(-3.,1.672949192431,-87.));
#645=CARTESIAN_POINT('',(-3.,1.672949192431,-87.));
#646=CARTESIAN_POINT('',(-3.,-1.672949192431,-87.));
#647=CARTESIAN_POINT('',(-3.,-1.672949192431,-87.));
#648=CARTESIAN_POINT('',(-3.,0.,-43.5));
#649=CARTESIAN_POINT('',(-3.,-1.672949192431,-87.));
#650=CARTESIAN_POINT('',(3.896882816434E-14,-3.405,-87.));
#651=CARTESIAN_POINT('',(3.896882816434E-14,-3.405,-87.));
#652=CARTESIAN_POINT('',(-1.5,-2.538974596215,-43.5));
#653=CARTESIAN_POINT('',(3.896882816434E-14,-3.405,-87.));
#654=CARTESIAN_POINT('',(3.,-1.672949192431,-87.));
#655=CARTESIAN_POINT('',(3.,-1.672949192431,-87.));
#656=CARTESIAN_POINT('',(1.5,-2.538974596215,-43.5));
#657=CARTESIAN_POINT('',(3.,-1.672949192431,-87.));
#658=CARTESIAN_POINT('',(3.,1.672949192431,-87.));
#659=CARTESIAN_POINT('',(3.,1.672949192431,-87.));
#660=CARTESIAN_POINT('',(3.,0.,-43.5));
#661=CARTESIAN_POINT('',(3.,1.672949192431,-87.));
#662=CARTESIAN_POINT('',(-3.952393967666E-14,3.405,-87.));
#663=CARTESIAN_POINT('',(-3.952393967666E-14,3.405,-87.));
#664=CARTESIAN_POINT('',(1.5,2.538974596215,-43.5));
#665=CARTESIAN_POINT('',(-3.952393967666E-14,3.405,-87.));
#666=CARTESIAN_POINT('',(-1.5,2.538974596215,-43.5));
#667=CARTESIAN_POINT('',(9.,3.405,-87.));
#668=CARTESIAN_POINT('',(9.,3.405,-96.));
#669=CARTESIAN_POINT('',(9.,3.405,-96.));
#670=CARTESIAN_POINT('',(9.,1.672949192431,-99.));
#671=CARTESIAN_POINT('',(9.,1.672949192431,-87.));
#672=CARTESIAN_POINT('',(9.,2.538974596216,-87.));
#673=CARTESIAN_POINT('',(9.,1.672949192431,-99.));
#674=CARTESIAN_POINT('',(9.,-1.672949192431,-99.));
#675=CARTESIAN_POINT('',(9.,-1.672949192431,-87.));
#676=CARTESIAN_POINT('',(9.,1.739867160128,-87.));
#677=CARTESIAN_POINT('',(9.,-1.672949192431,-99.));
#678=CARTESIAN_POINT('',(9.,-3.405,-96.));
#679=CARTESIAN_POINT('',(9.,-3.405,-87.));
#680=CARTESIAN_POINT('',(9.,-2.538974596215,-87.));
#681=CARTESIAN_POINT('',(9.,-3.405,-96.));
#682=CARTESIAN_POINT('',(9.,-1.672949192431,-93.));
#683=CARTESIAN_POINT('',(9.,-1.672949192431,-87.));
#684=CARTESIAN_POINT('',(9.,-2.538974596215,-87.));
#685=CARTESIAN_POINT('',(9.,-1.672949192431,-93.));
#686=CARTESIAN_POINT('',(9.,1.672949192431,-93.));
#687=CARTESIAN_POINT('',(9.,1.672949192431,-87.));
#688=CARTESIAN_POINT('',(9.,1.739867160128,-87.));
#689=CARTESIAN_POINT('',(9.,1.672949192431,-93.));
#690=CARTESIAN_POINT('',(9.,2.538974596216,-87.));
#691=CARTESIAN_POINT('',(9.,1.672949192431,-93.));
#692=CARTESIAN_POINT('',(35.,1.672949192431,-93.));
#693=CARTESIAN_POINT('',(35.,1.672949192431,-93.));
#694=CARTESIAN_POINT('',(35.,3.405,-96.));
#695=CARTESIAN_POINT('',(35.,3.405,-96.));
#696=CARTESIAN_POINT('',(22.,2.538974596216,-94.5));
#697=CARTESIAN_POINT('',(35.,3.405,-96.));
#698=CARTESIAN_POINT('',(35.,1.672949192431,-99.));
#699=CARTESIAN_POINT('',(35.,1.672949192431,-99.));
#700=CARTESIAN_POINT('',(22.,2.538974596215,-97.5));
#701=CARTESIAN_POINT('',(35.,1.672949192431,-99.));
#702=CARTESIAN_POINT('',(35.,-1.672949192431,-99.));
#703=CARTESIAN_POINT('',(35.,-1.672949192431,-99.));
#704=CARTESIAN_POINT('',(22.,0.,-99.));
#705=CARTESIAN_POINT('',(35.,-1.672949192431,-99.));
#706=CARTESIAN_POINT('',(35.,-3.405,-96.));
#707=CARTESIAN_POINT('',(35.,-3.405,-96.));
#708=CARTESIAN_POINT('',(22.,-2.538974596216,-97.5));
#709=CARTESIAN_POINT('',(35.,-3.405,-96.));
#710=CARTESIAN_POINT('',(35.,-1.672949192431,-93.));
#711=CARTESIAN_POINT('',(35.,-1.672949192431,-93.));
#712=CARTESIAN_POINT('',(22.,-2.538974596216,-94.5));
#713=CARTESIAN_POINT('',(35.,-1.672949192431,-93.));
#714=CARTESIAN_POINT('',(22.,0.,-93.));
#715=CARTESIAN_POINT('',(35.,0.,-96.));
#716=MECHANICAL_DESIGN_GEOMETRIC_PRESENTATION_REPRESENTATION('',(#472,#473,
#474,#475,#28,#29,#30,#31,#32,#33,#34,#35,#36,#37,#38,#39,#40,#41,#42,#43,
#44,#45,#46,#47),#717);
#717=(
GEOMETRIC_REPRESENTATION_CONTEXT(3)
GLOBAL_UNCERTAINTY_ASSIGNED_CONTEXT((#718))
GLOBAL_UNIT_ASSIGNED_CONTEXT((#724,#720,#719))
REPRESENTATION_CONTEXT('HKY60R','TOP_LEVEL_ASSEMBLY_PART')
);
#718=UNCERTAINTY_MEASURE_WITH_UNIT(LENGTH_MEASURE(2.E-5),#724,
'DISTANCE_ACCURACY_VALUE','Maximum Tolerance applied to model');
#719=(
NAMED_UNIT(*)
SI_UNIT($,.STERADIAN.)
SOLID_ANGLE_UNIT()
);
#720=(
CONVERSION_BASED_UNIT('DEGREE',#722)
NAMED_UNIT(#721)
PLANE_ANGLE_UNIT()
);
#721=DIMENSIONAL_EXPONENTS(0.,0.,0.,0.,0.,0.,0.);
#722=PLANE_ANGLE_MEASURE_WITH_UNIT(PLANE_ANGLE_MEASURE(0.0174532925),#723);
#723=(
NAMED_UNIT(*)
PLANE_ANGLE_UNIT()
SI_UNIT($,.RADIAN.)
);
#724=(
LENGTH_UNIT()
NAMED_UNIT(*)
SI_UNIT(.MILLI.,.METRE.)
);
ENDSEC;
END-ISO-10303-21;
