ISO-10303-21;
HEADER;
/* Generated by software containing ST-Developer
 * from STEP Tools, Inc. (www.steptools.com) 
 */
/* OPTION: using custom schema-name function */

FILE_DESCRIPTION(
/* description */ (''),
/* implementation_level */ '2;1');

FILE_NAME(
/* name */ 'HKY30R.stp',
/* time_stamp */ '2022-02-03T10:43:24+09:00',
/* author */ (''),
/* organization */ (''),
/* preprocessor_version */ 'ST-DEVELOPER v16',
/* originating_system */ 'SIEMENS PLM Software NX 10.0',
/* authorisation */ '');

FILE_SCHEMA (('AUTOMOTIVE_DESIGN { 1 0 10303 214 3 1 1 1 }'));
ENDSEC;

DATA;
#10=CONSTRUCTIVE_GEOMETRY_REPRESENTATION_RELATIONSHIP(
'supplemental geometry','',#26,#11);
#11=CONSTRUCTIVE_GEOMETRY_REPRESENTATION('supplemental geometry',(#362,
#363),#575);
#12=GEOMETRICALLY_BOUNDED_WIREFRAME_SHAPE_REPRESENTATION('HKY30R-None',
(#27),#575);
#13=SHAPE_REPRESENTATION_RELATIONSHIP('None',
'relationship between HKY30R-None and HKY30R-None',#26,#15);
#14=SHAPE_REPRESENTATION_RELATIONSHIP('None',
'relationship between HKY30R-None and HKY30R-None',#26,#12);
#15=ADVANCED_BREP_SHAPE_REPRESENTATION('HKY30R-None',(#33),#575);
#16=SHAPE_DEFINITION_REPRESENTATION(#17,#26);
#17=PRODUCT_DEFINITION_SHAPE('','',#18);
#18=PRODUCT_DEFINITION('part definition','',#20,#19);
#19=PRODUCT_DEFINITION_CONTEXT('part definition',#25,'design');
#20=PRODUCT_DEFINITION_FORMATION_WITH_SPECIFIED_SOURCE(' ',' ',#22,
 .NOT_KNOWN.);
#21=PRODUCT_RELATED_PRODUCT_CATEGORY('part','',(#22));
#22=PRODUCT('HKY30R','HKY30R','NOT SPECIFIED',(#23));
#23=PRODUCT_CONTEXT('',#25,'mechanical');
#24=APPLICATION_PROTOCOL_DEFINITION('international standard',
'automotive_design',2010,#25);
#25=APPLICATION_CONTEXT(
'core data for automotive mechanical design processes');
#26=SHAPE_REPRESENTATION('HKY30R-None',(#361),#575);
#27=GEOMETRIC_CURVE_SET('None',(#485));
#28=SURFACE_STYLE_USAGE(.BOTH.,#29);
#29=SURFACE_SIDE_STYLE('',(#30));
#30=SURFACE_STYLE_FILL_AREA(#31);
#31=FILL_AREA_STYLE('',(#32));
#32=FILL_AREA_STYLE_COLOUR('',#344);
#33=MANIFOLD_SOLID_BREP('',#34);
#34=CLOSED_SHELL('',(#47,#48,#49,#50,#51,#52,#53,#54,#55,#56,#57,#58,#59,
#60,#61,#62,#63,#64,#65,#66));
#35=CYLINDRICAL_SURFACE('',#375,4.5);
#36=CYLINDRICAL_SURFACE('',#381,1.5);
#37=CONICAL_SURFACE('',#373,3.75,60.);
#38=CONICAL_SURFACE('',#377,3.75,60.);
#39=CONICAL_SURFACE('',#379,2.25,60.);
#40=CONICAL_SURFACE('',#382,2.25,60.);
#41=CIRCLE('',#371,3.);
#42=CIRCLE('',#372,4.5);
#43=CIRCLE('',#374,4.5);
#44=CIRCLE('',#376,3.);
#45=CIRCLE('',#378,1.5);
#46=CIRCLE('',#380,1.5);
#47=ADVANCED_FACE('',(#81),#67,.F.);
#48=ADVANCED_FACE('',(#82),#68,.F.);
#49=ADVANCED_FACE('',(#83),#69,.T.);
#50=ADVANCED_FACE('',(#84),#70,.T.);
#51=ADVANCED_FACE('',(#85),#71,.T.);
#52=ADVANCED_FACE('',(#86),#72,.F.);
#53=ADVANCED_FACE('',(#87),#73,.F.);
#54=ADVANCED_FACE('',(#88),#37,.T.);
#55=ADVANCED_FACE('',(#89),#35,.T.);
#56=ADVANCED_FACE('',(#90),#38,.T.);
#57=ADVANCED_FACE('',(#91),#39,.F.);
#58=ADVANCED_FACE('',(#92),#36,.F.);
#59=ADVANCED_FACE('',(#93),#40,.F.);
#60=ADVANCED_FACE('',(#94),#74,.F.);
#61=ADVANCED_FACE('',(#95),#75,.F.);
#62=ADVANCED_FACE('',(#96),#76,.T.);
#63=ADVANCED_FACE('',(#97),#77,.T.);
#64=ADVANCED_FACE('',(#98),#78,.T.);
#65=ADVANCED_FACE('',(#99),#79,.F.);
#66=ADVANCED_FACE('',(#100),#80,.T.);
#67=PLANE('',#364);
#68=PLANE('',#365);
#69=PLANE('',#366);
#70=PLANE('',#367);
#71=PLANE('',#368);
#72=PLANE('',#369);
#73=PLANE('',#370);
#74=PLANE('',#383);
#75=PLANE('',#384);
#76=PLANE('',#385);
#77=PLANE('',#386);
#78=PLANE('',#387);
#79=PLANE('',#388);
#80=PLANE('',#389);
#81=FACE_OUTER_BOUND('',#101,.T.);
#82=FACE_OUTER_BOUND('',#102,.T.);
#83=FACE_OUTER_BOUND('',#103,.T.);
#84=FACE_OUTER_BOUND('',#104,.T.);
#85=FACE_OUTER_BOUND('',#105,.T.);
#86=FACE_OUTER_BOUND('',#106,.T.);
#87=FACE_OUTER_BOUND('',#107,.T.);
#88=FACE_OUTER_BOUND('',#108,.T.);
#89=FACE_OUTER_BOUND('',#109,.T.);
#90=FACE_OUTER_BOUND('',#110,.T.);
#91=FACE_OUTER_BOUND('',#111,.T.);
#92=FACE_OUTER_BOUND('',#112,.T.);
#93=FACE_OUTER_BOUND('',#113,.T.);
#94=FACE_OUTER_BOUND('',#114,.T.);
#95=FACE_OUTER_BOUND('',#115,.T.);
#96=FACE_OUTER_BOUND('',#116,.T.);
#97=FACE_OUTER_BOUND('',#117,.T.);
#98=FACE_OUTER_BOUND('',#118,.T.);
#99=FACE_OUTER_BOUND('',#119,.T.);
#100=FACE_OUTER_BOUND('',#120,.T.);
#101=EDGE_LOOP('',(#121,#122,#123,#124,#125,#126));
#102=EDGE_LOOP('',(#127,#128,#129,#130));
#103=EDGE_LOOP('',(#131,#132,#133,#134));
#104=EDGE_LOOP('',(#135,#136,#137,#138));
#105=EDGE_LOOP('',(#139,#140,#141,#142));
#106=EDGE_LOOP('',(#143,#144,#145,#146));
#107=EDGE_LOOP('',(#147,#148,#149,#150));
#108=EDGE_LOOP('',(#151,#152,#153,#154));
#109=EDGE_LOOP('',(#155,#156,#157,#158));
#110=EDGE_LOOP('',(#159,#160,#161,#162));
#111=EDGE_LOOP('',(#163,#164,#165,#166));
#112=EDGE_LOOP('',(#167,#168,#169,#170));
#113=EDGE_LOOP('',(#171,#172,#173,#174));
#114=EDGE_LOOP('',(#175,#176,#177,#178));
#115=EDGE_LOOP('',(#179,#180,#181,#182));
#116=EDGE_LOOP('',(#183,#184,#185,#186));
#117=EDGE_LOOP('',(#187,#188,#189,#190));
#118=EDGE_LOOP('',(#191,#192,#193,#194));
#119=EDGE_LOOP('',(#195,#196,#197,#198));
#120=EDGE_LOOP('',(#199,#200,#201,#202,#203,#204));
#121=ORIENTED_EDGE('',*,*,#229,.F.);
#122=ORIENTED_EDGE('',*,*,#230,.F.);
#123=ORIENTED_EDGE('',*,*,#231,.F.);
#124=ORIENTED_EDGE('',*,*,#232,.F.);
#125=ORIENTED_EDGE('',*,*,#233,.F.);
#126=ORIENTED_EDGE('',*,*,#234,.F.);
#127=ORIENTED_EDGE('',*,*,#235,.T.);
#128=ORIENTED_EDGE('',*,*,#236,.F.);
#129=ORIENTED_EDGE('',*,*,#237,.F.);
#130=ORIENTED_EDGE('',*,*,#234,.T.);
#131=ORIENTED_EDGE('',*,*,#237,.T.);
#132=ORIENTED_EDGE('',*,*,#238,.F.);
#133=ORIENTED_EDGE('',*,*,#239,.F.);
#134=ORIENTED_EDGE('',*,*,#229,.T.);
#135=ORIENTED_EDGE('',*,*,#239,.T.);
#136=ORIENTED_EDGE('',*,*,#240,.F.);
#137=ORIENTED_EDGE('',*,*,#241,.F.);
#138=ORIENTED_EDGE('',*,*,#230,.T.);
#139=ORIENTED_EDGE('',*,*,#241,.T.);
#140=ORIENTED_EDGE('',*,*,#242,.F.);
#141=ORIENTED_EDGE('',*,*,#243,.F.);
#142=ORIENTED_EDGE('',*,*,#231,.T.);
#143=ORIENTED_EDGE('',*,*,#243,.T.);
#144=ORIENTED_EDGE('',*,*,#244,.F.);
#145=ORIENTED_EDGE('',*,*,#245,.F.);
#146=ORIENTED_EDGE('',*,*,#232,.T.);
#147=ORIENTED_EDGE('',*,*,#245,.T.);
#148=ORIENTED_EDGE('',*,*,#246,.F.);
#149=ORIENTED_EDGE('',*,*,#235,.F.);
#150=ORIENTED_EDGE('',*,*,#233,.T.);
#151=ORIENTED_EDGE('',*,*,#247,.T.);
#152=ORIENTED_EDGE('',*,*,#248,.F.);
#153=ORIENTED_EDGE('',*,*,#249,.F.);
#154=ORIENTED_EDGE('',*,*,#246,.T.);
#155=ORIENTED_EDGE('',*,*,#249,.T.);
#156=ORIENTED_EDGE('',*,*,#250,.F.);
#157=ORIENTED_EDGE('',*,*,#251,.F.);
#158=ORIENTED_EDGE('',*,*,#236,.T.);
#159=ORIENTED_EDGE('',*,*,#251,.T.);
#160=ORIENTED_EDGE('',*,*,#252,.F.);
#161=ORIENTED_EDGE('',*,*,#253,.F.);
#162=ORIENTED_EDGE('',*,*,#238,.T.);
#163=ORIENTED_EDGE('',*,*,#253,.T.);
#164=ORIENTED_EDGE('',*,*,#254,.F.);
#165=ORIENTED_EDGE('',*,*,#255,.F.);
#166=ORIENTED_EDGE('',*,*,#240,.T.);
#167=ORIENTED_EDGE('',*,*,#255,.T.);
#168=ORIENTED_EDGE('',*,*,#256,.F.);
#169=ORIENTED_EDGE('',*,*,#257,.F.);
#170=ORIENTED_EDGE('',*,*,#242,.T.);
#171=ORIENTED_EDGE('',*,*,#257,.T.);
#172=ORIENTED_EDGE('',*,*,#258,.F.);
#173=ORIENTED_EDGE('',*,*,#247,.F.);
#174=ORIENTED_EDGE('',*,*,#244,.T.);
#175=ORIENTED_EDGE('',*,*,#259,.T.);
#176=ORIENTED_EDGE('',*,*,#260,.F.);
#177=ORIENTED_EDGE('',*,*,#261,.F.);
#178=ORIENTED_EDGE('',*,*,#258,.T.);
#179=ORIENTED_EDGE('',*,*,#261,.T.);
#180=ORIENTED_EDGE('',*,*,#262,.F.);
#181=ORIENTED_EDGE('',*,*,#263,.F.);
#182=ORIENTED_EDGE('',*,*,#248,.T.);
#183=ORIENTED_EDGE('',*,*,#263,.T.);
#184=ORIENTED_EDGE('',*,*,#264,.F.);
#185=ORIENTED_EDGE('',*,*,#265,.F.);
#186=ORIENTED_EDGE('',*,*,#250,.T.);
#187=ORIENTED_EDGE('',*,*,#265,.T.);
#188=ORIENTED_EDGE('',*,*,#266,.F.);
#189=ORIENTED_EDGE('',*,*,#267,.F.);
#190=ORIENTED_EDGE('',*,*,#252,.T.);
#191=ORIENTED_EDGE('',*,*,#267,.T.);
#192=ORIENTED_EDGE('',*,*,#268,.F.);
#193=ORIENTED_EDGE('',*,*,#269,.F.);
#194=ORIENTED_EDGE('',*,*,#254,.T.);
#195=ORIENTED_EDGE('',*,*,#269,.T.);
#196=ORIENTED_EDGE('',*,*,#270,.F.);
#197=ORIENTED_EDGE('',*,*,#259,.F.);
#198=ORIENTED_EDGE('',*,*,#256,.T.);
#199=ORIENTED_EDGE('',*,*,#262,.T.);
#200=ORIENTED_EDGE('',*,*,#260,.T.);
#201=ORIENTED_EDGE('',*,*,#270,.T.);
#202=ORIENTED_EDGE('',*,*,#268,.T.);
#203=ORIENTED_EDGE('',*,*,#266,.T.);
#204=ORIENTED_EDGE('',*,*,#264,.T.);
#205=VERTEX_POINT('',#489);
#206=VERTEX_POINT('',#490);
#207=VERTEX_POINT('',#492);
#208=VERTEX_POINT('',#494);
#209=VERTEX_POINT('',#496);
#210=VERTEX_POINT('',#498);
#211=VERTEX_POINT('',#502);
#212=VERTEX_POINT('',#504);
#213=VERTEX_POINT('',#508);
#214=VERTEX_POINT('',#512);
#215=VERTEX_POINT('',#516);
#216=VERTEX_POINT('',#520);
#217=VERTEX_POINT('',#526);
#218=VERTEX_POINT('',#528);
#219=VERTEX_POINT('',#532);
#220=VERTEX_POINT('',#536);
#221=VERTEX_POINT('',#540);
#222=VERTEX_POINT('',#544);
#223=VERTEX_POINT('',#550);
#224=VERTEX_POINT('',#552);
#225=VERTEX_POINT('',#556);
#226=VERTEX_POINT('',#560);
#227=VERTEX_POINT('',#564);
#228=VERTEX_POINT('',#568);
#229=EDGE_CURVE('',#205,#206,#271,.T.);
#230=EDGE_CURVE('',#207,#205,#272,.T.);
#231=EDGE_CURVE('',#208,#207,#273,.T.);
#232=EDGE_CURVE('',#209,#208,#274,.T.);
#233=EDGE_CURVE('',#210,#209,#275,.T.);
#234=EDGE_CURVE('',#206,#210,#276,.T.);
#235=EDGE_CURVE('',#210,#211,#277,.T.);
#236=EDGE_CURVE('',#212,#211,#278,.T.);
#237=EDGE_CURVE('',#206,#212,#279,.T.);
#238=EDGE_CURVE('',#213,#212,#280,.T.);
#239=EDGE_CURVE('',#205,#213,#281,.T.);
#240=EDGE_CURVE('',#214,#213,#282,.T.);
#241=EDGE_CURVE('',#207,#214,#283,.T.);
#242=EDGE_CURVE('',#215,#214,#284,.T.);
#243=EDGE_CURVE('',#208,#215,#285,.T.);
#244=EDGE_CURVE('',#216,#215,#286,.T.);
#245=EDGE_CURVE('',#209,#216,#287,.T.);
#246=EDGE_CURVE('',#211,#216,#288,.T.);
#247=EDGE_CURVE('',#216,#217,#41,.T.);
#248=EDGE_CURVE('',#218,#217,#289,.T.);
#249=EDGE_CURVE('',#211,#218,#42,.T.);
#250=EDGE_CURVE('',#219,#218,#290,.T.);
#251=EDGE_CURVE('',#212,#219,#43,.T.);
#252=EDGE_CURVE('',#220,#219,#291,.T.);
#253=EDGE_CURVE('',#213,#220,#44,.T.);
#254=EDGE_CURVE('',#221,#220,#292,.T.);
#255=EDGE_CURVE('',#214,#221,#45,.T.);
#256=EDGE_CURVE('',#222,#221,#293,.T.);
#257=EDGE_CURVE('',#215,#222,#46,.T.);
#258=EDGE_CURVE('',#217,#222,#294,.T.);
#259=EDGE_CURVE('',#222,#223,#295,.T.);
#260=EDGE_CURVE('',#224,#223,#296,.T.);
#261=EDGE_CURVE('',#217,#224,#297,.T.);
#262=EDGE_CURVE('',#225,#224,#298,.T.);
#263=EDGE_CURVE('',#218,#225,#299,.T.);
#264=EDGE_CURVE('',#226,#225,#300,.T.);
#265=EDGE_CURVE('',#219,#226,#301,.T.);
#266=EDGE_CURVE('',#227,#226,#302,.T.);
#267=EDGE_CURVE('',#220,#227,#303,.T.);
#268=EDGE_CURVE('',#228,#227,#304,.T.);
#269=EDGE_CURVE('',#221,#228,#305,.T.);
#270=EDGE_CURVE('',#223,#228,#306,.T.);
#271=LINE('',#488,#307);
#272=LINE('',#491,#308);
#273=LINE('',#493,#309);
#274=LINE('',#495,#310);
#275=LINE('',#497,#311);
#276=LINE('',#499,#312);
#277=LINE('',#501,#313);
#278=LINE('',#503,#314);
#279=LINE('',#505,#315);
#280=LINE('',#507,#316);
#281=LINE('',#509,#317);
#282=LINE('',#511,#318);
#283=LINE('',#513,#319);
#284=LINE('',#515,#320);
#285=LINE('',#517,#321);
#286=LINE('',#519,#322);
#287=LINE('',#521,#323);
#288=LINE('',#523,#324);
#289=LINE('',#527,#325);
#290=LINE('',#531,#326);
#291=LINE('',#535,#327);
#292=LINE('',#539,#328);
#293=LINE('',#543,#329);
#294=LINE('',#547,#330);
#295=LINE('',#549,#331);
#296=LINE('',#551,#332);
#297=LINE('',#553,#333);
#298=LINE('',#555,#334);
#299=LINE('',#557,#335);
#300=LINE('',#559,#336);
#301=LINE('',#561,#337);
#302=LINE('',#563,#338);
#303=LINE('',#565,#339);
#304=LINE('',#567,#340);
#305=LINE('',#569,#341);
#306=LINE('',#571,#342);
#307=VECTOR('',#396,1.);
#308=VECTOR('',#397,1.);
#309=VECTOR('',#398,1.);
#310=VECTOR('',#399,1.);
#311=VECTOR('',#400,1.);
#312=VECTOR('',#401,1.);
#313=VECTOR('',#404,1.);
#314=VECTOR('',#405,1.);
#315=VECTOR('',#406,1.);
#316=VECTOR('',#409,1.);
#317=VECTOR('',#410,1.);
#318=VECTOR('',#413,1.);
#319=VECTOR('',#414,1.);
#320=VECTOR('',#417,1.);
#321=VECTOR('',#418,1.);
#322=VECTOR('',#421,1.);
#323=VECTOR('',#422,1.);
#324=VECTOR('',#425,1.);
#325=VECTOR('',#430,1.);
#326=VECTOR('',#435,1.);
#327=VECTOR('',#440,1.);
#328=VECTOR('',#445,1.);
#329=VECTOR('',#450,1.);
#330=VECTOR('',#455,1.);
#331=VECTOR('',#458,1.);
#332=VECTOR('',#459,1.);
#333=VECTOR('',#460,1.);
#334=VECTOR('',#463,1.);
#335=VECTOR('',#464,1.);
#336=VECTOR('',#467,1.);
#337=VECTOR('',#468,1.);
#338=VECTOR('',#471,1.);
#339=VECTOR('',#472,1.);
#340=VECTOR('',#475,1.);
#341=VECTOR('',#476,1.);
#342=VECTOR('',#479,1.);
#343=COLOUR_RGB('Strong Stone',0.576470588235294,0.54508278019379,0.392156862745098);
#344=COLOUR_RGB('spare part',0.301960784313725,0.301960784313725,0.301960784313725);
#345=CURVE_STYLE('',#347,POSITIVE_LENGTH_MEASURE(0.13),#360);
#346=CURVE_STYLE('',#348,POSITIVE_LENGTH_MEASURE(0.13),#343);
#347=DRAUGHTING_PRE_DEFINED_CURVE_FONT('continuous');
#348=DRAUGHTING_PRE_DEFINED_CURVE_FONT('continuous');
#349=PRESENTATION_LAYER_ASSIGNMENT('1','Layer 1',(#485,#362,#363,#33));
#350=STYLED_ITEM('',(#354),#485);
#351=STYLED_ITEM('',(#355),#362);
#352=STYLED_ITEM('',(#356),#363);
#353=STYLED_ITEM('',(#357),#33);
#354=PRESENTATION_STYLE_ASSIGNMENT((#358));
#355=PRESENTATION_STYLE_ASSIGNMENT((#345));
#356=PRESENTATION_STYLE_ASSIGNMENT((#346));
#357=PRESENTATION_STYLE_ASSIGNMENT((#28));
#358=POINT_STYLE('',#359,POSITIVE_LENGTH_MEASURE(3.),#360);
#359=PRE_DEFINED_POINT_MARKER_SYMBOL('plus');
#360=DRAUGHTING_PRE_DEFINED_COLOUR('yellow');
#361=AXIS2_PLACEMENT_3D('',#484,#390,#391);
#362=AXIS2_PLACEMENT_3D('PCS',#486,#392,#393);
#363=AXIS2_PLACEMENT_3D('',#487,#394,#395);
#364=AXIS2_PLACEMENT_3D('',#500,#402,#403);
#365=AXIS2_PLACEMENT_3D('',#506,#407,#408);
#366=AXIS2_PLACEMENT_3D('',#510,#411,#412);
#367=AXIS2_PLACEMENT_3D('',#514,#415,#416);
#368=AXIS2_PLACEMENT_3D('',#518,#419,#420);
#369=AXIS2_PLACEMENT_3D('',#522,#423,#424);
#370=AXIS2_PLACEMENT_3D('',#524,#426,#427);
#371=AXIS2_PLACEMENT_3D('',#525,#428,#429);
#372=AXIS2_PLACEMENT_3D('',#529,#431,#432);
#373=AXIS2_PLACEMENT_3D('',#530,#433,#434);
#374=AXIS2_PLACEMENT_3D('',#533,#436,#437);
#375=AXIS2_PLACEMENT_3D('',#534,#438,#439);
#376=AXIS2_PLACEMENT_3D('',#537,#441,#442);
#377=AXIS2_PLACEMENT_3D('',#538,#443,#444);
#378=AXIS2_PLACEMENT_3D('',#541,#446,#447);
#379=AXIS2_PLACEMENT_3D('',#542,#448,#449);
#380=AXIS2_PLACEMENT_3D('',#545,#451,#452);
#381=AXIS2_PLACEMENT_3D('',#546,#453,#454);
#382=AXIS2_PLACEMENT_3D('',#548,#456,#457);
#383=AXIS2_PLACEMENT_3D('',#554,#461,#462);
#384=AXIS2_PLACEMENT_3D('',#558,#465,#466);
#385=AXIS2_PLACEMENT_3D('',#562,#469,#470);
#386=AXIS2_PLACEMENT_3D('',#566,#473,#474);
#387=AXIS2_PLACEMENT_3D('',#570,#477,#478);
#388=AXIS2_PLACEMENT_3D('',#572,#480,#481);
#389=AXIS2_PLACEMENT_3D('',#573,#482,#483);
#390=DIRECTION('',(0.,0.,1.));
#391=DIRECTION('',(1.,0.,0.));
#392=DIRECTION('',(0.,0.,1.));
#393=DIRECTION('',(1.,0.,0.));
#394=DIRECTION('',(0.,0.,1.));
#395=DIRECTION('',(1.,0.,0.));
#396=DIRECTION('',(-0.866025403784429,0.500000000000017,0.));
#397=DIRECTION('',(-0.866025403784429,-0.500000000000017,0.));
#398=DIRECTION('',(0.,-1.,0.));
#399=DIRECTION('',(0.866025403784429,-0.500000000000017,0.));
#400=DIRECTION('',(0.866025403784429,0.500000000000017,0.));
#401=DIRECTION('',(0.,1.,0.));
#402=DIRECTION('',(0.,0.,-1.));
#403=DIRECTION('',(-1.,0.,0.));
#404=DIRECTION('',(0.,0.,-1.));
#405=DIRECTION('',(0.,1.,0.));
#406=DIRECTION('',(0.,0.,-1.));
#407=DIRECTION('',(1.,0.,0.));
#408=DIRECTION('',(0.,1.,0.));
#409=DIRECTION('',(-0.866025403784429,0.500000000000017,0.));
#410=DIRECTION('',(0.,0.,-1.));
#411=DIRECTION('',(-0.500000000000017,-0.866025403784429,0.));
#412=DIRECTION('',(0.,0.,1.));
#413=DIRECTION('',(-0.866025403784429,-0.500000000000017,0.));
#414=DIRECTION('',(0.,0.,-1.));
#415=DIRECTION('',(0.500000000000017,-0.866025403784429,0.));
#416=DIRECTION('',(0.,0.,1.));
#417=DIRECTION('',(0.,-1.,0.));
#418=DIRECTION('',(0.,0.,-1.));
#419=DIRECTION('',(1.,0.,0.));
#420=DIRECTION('',(0.,1.,0.));
#421=DIRECTION('',(0.866025403784429,-0.500000000000017,0.));
#422=DIRECTION('',(0.,0.,-1.));
#423=DIRECTION('',(-0.500000000000017,-0.866025403784429,0.));
#424=DIRECTION('',(0.,0.,1.));
#425=DIRECTION('',(0.866025403784429,0.500000000000017,0.));
#426=DIRECTION('',(0.500000000000017,-0.866025403784429,0.));
#427=DIRECTION('',(0.,0.,1.));
#428=DIRECTION('',(0.,-1.,0.));
#429=DIRECTION('',(-1.,0.,0.));
#430=DIRECTION('',(0.,0.500000000000017,0.866025403784429));
#431=DIRECTION('',(0.,-1.,0.));
#432=DIRECTION('',(-1.,0.,0.));
#433=DIRECTION('',(0.,-1.,0.));
#434=DIRECTION('',(1.,1.49906901910573E-18,0.));
#435=DIRECTION('',(0.,1.,0.));
#436=DIRECTION('',(0.,-1.,0.));
#437=DIRECTION('',(-1.,0.,0.));
#438=DIRECTION('',(0.,-1.,0.));
#439=DIRECTION('',(1.,0.,0.));
#440=DIRECTION('',(0.,0.500000000000017,-0.866025403784429));
#441=DIRECTION('',(0.,-1.,0.));
#442=DIRECTION('',(-1.,0.,0.));
#443=DIRECTION('',(0.,1.,0.));
#444=DIRECTION('',(1.,-1.49906901910573E-18,0.));
#445=DIRECTION('',(0.,-0.500000000000017,-0.866025403784429));
#446=DIRECTION('',(0.,-1.,0.));
#447=DIRECTION('',(-1.,0.,0.));
#448=DIRECTION('',(0.,-1.,0.));
#449=DIRECTION('',(1.,6.25152319455658E-17,0.));
#450=DIRECTION('',(0.,-1.,0.));
#451=DIRECTION('',(0.,-1.,0.));
#452=DIRECTION('',(-1.,0.,0.));
#453=DIRECTION('',(0.,-1.,0.));
#454=DIRECTION('',(1.,0.,0.));
#455=DIRECTION('',(0.,-0.500000000000017,0.866025403784429));
#456=DIRECTION('',(0.,1.,0.));
#457=DIRECTION('',(1.,-6.25152319455658E-17,0.));
#458=DIRECTION('',(1.,0.,0.));
#459=DIRECTION('',(0.,-0.500000000000017,0.866025403784429));
#460=DIRECTION('',(1.,0.,0.));
#461=DIRECTION('',(0.,-0.866025403784429,-0.500000000000017));
#462=DIRECTION('',(0.,-0.500000000000017,0.866025403784429));
#463=DIRECTION('',(0.,0.500000000000017,0.866025403784429));
#464=DIRECTION('',(1.,0.,0.));
#465=DIRECTION('',(0.,-0.866025403784429,0.500000000000017));
#466=DIRECTION('',(0.,0.500000000000017,0.866025403784429));
#467=DIRECTION('',(0.,1.,0.));
#468=DIRECTION('',(1.,0.,0.));
#469=DIRECTION('',(0.,0.,-1.));
#470=DIRECTION('',(0.,1.,0.));
#471=DIRECTION('',(0.,0.500000000000017,-0.866025403784429));
#472=DIRECTION('',(1.,0.,0.));
#473=DIRECTION('',(0.,-0.866025403784429,-0.500000000000017));
#474=DIRECTION('',(0.,-0.500000000000017,0.866025403784429));
#475=DIRECTION('',(0.,-0.500000000000017,-0.866025403784429));
#476=DIRECTION('',(1.,0.,0.));
#477=DIRECTION('',(0.,-0.866025403784429,0.500000000000017));
#478=DIRECTION('',(0.,0.500000000000017,0.866025403784429));
#479=DIRECTION('',(0.,-1.,0.));
#480=DIRECTION('',(0.,0.,-1.));
#481=DIRECTION('',(0.,1.,0.));
#482=DIRECTION('',(1.,0.,0.));
#483=DIRECTION('',(0.,0.,-1.));
#484=CARTESIAN_POINT('',(0.,0.,0.));
#485=CARTESIAN_POINT('',(0.,0.,0.));
#486=CARTESIAN_POINT('',(0.,0.,0.));
#487=CARTESIAN_POINT('',(0.,0.,0.));
#488=CARTESIAN_POINT('',(0.02139129372359,-1.695,0.));
#489=CARTESIAN_POINT('',(0.02139129372359,-1.695,0.));
#490=CARTESIAN_POINT('',(-1.478608706276,-0.8289745962156,0.));
#491=CARTESIAN_POINT('',(1.521391293724,-0.8289745962156,0.));
#492=CARTESIAN_POINT('',(1.521391293724,-0.8289745962156,0.));
#493=CARTESIAN_POINT('',(1.521391293724,0.8289745962156,0.));
#494=CARTESIAN_POINT('',(1.521391293724,0.8289745962156,0.));
#495=CARTESIAN_POINT('',(0.02139129372359,1.695,0.));
#496=CARTESIAN_POINT('',(0.02139129372359,1.695,0.));
#497=CARTESIAN_POINT('',(-1.478608706276,0.8289745962156,0.));
#498=CARTESIAN_POINT('',(-1.478608706276,0.8289745962156,0.));
#499=CARTESIAN_POINT('',(-1.478608706276,-0.8289745962156,0.));
#500=CARTESIAN_POINT('',(0.02139129372359,0.,0.));
#501=CARTESIAN_POINT('',(-1.478608706276,0.8289745962156,0.));
#502=CARTESIAN_POINT('',(-1.478608706276,0.8289745962156,-61.5));
#503=CARTESIAN_POINT('',(-1.478608706276,-0.8289745962156,-61.5));
#504=CARTESIAN_POINT('',(-1.478608706276,-0.8289745962156,-61.5));
#505=CARTESIAN_POINT('',(-1.478608706276,-0.8289745962156,0.));
#506=CARTESIAN_POINT('',(-1.478608706276,0.,-30.75));
#507=CARTESIAN_POINT('',(0.02139129372358,-1.695,-61.5));
#508=CARTESIAN_POINT('',(0.02139129372358,-1.695,-61.5));
#509=CARTESIAN_POINT('',(0.02139129372359,-1.695,0.));
#510=CARTESIAN_POINT('',(-0.7286087062764,-1.261987298108,-30.75));
#511=CARTESIAN_POINT('',(1.521391293724,-0.8289745962156,-61.5));
#512=CARTESIAN_POINT('',(1.521391293724,-0.8289745962156,-61.5));
#513=CARTESIAN_POINT('',(1.521391293724,-0.8289745962156,0.));
#514=CARTESIAN_POINT('',(0.7713912937236,-1.261987298108,-30.75));
#515=CARTESIAN_POINT('',(1.521391293724,0.8289745962156,-61.5));
#516=CARTESIAN_POINT('',(1.521391293724,0.8289745962156,-61.5));
#517=CARTESIAN_POINT('',(1.521391293724,0.8289745962156,0.));
#518=CARTESIAN_POINT('',(1.521391293724,0.,-30.75));
#519=CARTESIAN_POINT('',(0.02139129372358,1.695,-61.5));
#520=CARTESIAN_POINT('',(0.02139129372358,1.695,-61.5));
#521=CARTESIAN_POINT('',(0.02139129372359,1.695,0.));
#522=CARTESIAN_POINT('',(0.7713912937236,1.261987298108,-30.75));
#523=CARTESIAN_POINT('',(-1.478608706276,0.8289745962156,-61.5));
#524=CARTESIAN_POINT('',(-0.7286087062764,1.261987298108,-30.75));
#525=CARTESIAN_POINT('',(3.021391293724,1.695,-61.5));
#526=CARTESIAN_POINT('',(3.021391293724,1.695,-64.5));
#527=CARTESIAN_POINT('',(3.021391293724,0.8289745962156,-66.));
#528=CARTESIAN_POINT('',(3.021391293724,0.8289745962156,-66.));
#529=CARTESIAN_POINT('',(3.021391293724,0.8289745962156,-61.5));
#530=CARTESIAN_POINT('',(3.021391293724,1.261987298108,-61.5));
#531=CARTESIAN_POINT('',(3.021391293724,-0.8289745962156,-66.));
#532=CARTESIAN_POINT('',(3.021391293724,-0.8289745962156,-66.));
#533=CARTESIAN_POINT('',(3.021391293724,-0.8289745962156,-61.5));
#534=CARTESIAN_POINT('',(3.021391293724,0.,-61.5));
#535=CARTESIAN_POINT('',(3.021391293724,-1.695,-64.5));
#536=CARTESIAN_POINT('',(3.021391293724,-1.695,-64.5));
#537=CARTESIAN_POINT('',(3.021391293724,-1.695,-61.5));
#538=CARTESIAN_POINT('',(3.021391293724,-1.261987298108,-61.5));
#539=CARTESIAN_POINT('',(3.021391293724,-0.8289745962156,-63.));
#540=CARTESIAN_POINT('',(3.021391293724,-0.8289745962156,-63.));
#541=CARTESIAN_POINT('',(3.021391293724,-0.8289745962156,-61.5));
#542=CARTESIAN_POINT('',(3.021391293724,-1.261987298108,-61.5));
#543=CARTESIAN_POINT('',(3.021391293724,0.8289745962156,-63.));
#544=CARTESIAN_POINT('',(3.021391293724,0.8289745962156,-63.));
#545=CARTESIAN_POINT('',(3.021391293724,0.8289745962156,-61.5));
#546=CARTESIAN_POINT('',(3.021391293724,0.,-61.5));
#547=CARTESIAN_POINT('',(3.021391293724,1.695,-64.5));
#548=CARTESIAN_POINT('',(3.021391293724,1.261987298108,-61.5));
#549=CARTESIAN_POINT('',(3.021391293724,0.8289745962156,-63.));
#550=CARTESIAN_POINT('',(21.52139129372,0.8289745962156,-63.));
#551=CARTESIAN_POINT('',(21.52139129372,1.695,-64.5));
#552=CARTESIAN_POINT('',(21.52139129372,1.695,-64.5));
#553=CARTESIAN_POINT('',(3.021391293724,1.695,-64.5));
#554=CARTESIAN_POINT('',(12.27139129372,1.261987298108,-63.75));
#555=CARTESIAN_POINT('',(21.52139129372,0.8289745962156,-66.));
#556=CARTESIAN_POINT('',(21.52139129372,0.8289745962156,-66.));
#557=CARTESIAN_POINT('',(3.021391293724,0.8289745962156,-66.));
#558=CARTESIAN_POINT('',(12.27139129372,1.261987298108,-65.25));
#559=CARTESIAN_POINT('',(21.52139129372,-0.8289745962156,-66.));
#560=CARTESIAN_POINT('',(21.52139129372,-0.8289745962156,-66.));
#561=CARTESIAN_POINT('',(3.021391293724,-0.8289745962156,-66.));
#562=CARTESIAN_POINT('',(12.27139129372,0.,-66.));
#563=CARTESIAN_POINT('',(21.52139129372,-1.695,-64.5));
#564=CARTESIAN_POINT('',(21.52139129372,-1.695,-64.5));
#565=CARTESIAN_POINT('',(3.021391293724,-1.695,-64.5));
#566=CARTESIAN_POINT('',(12.27139129372,-1.261987298108,-65.25));
#567=CARTESIAN_POINT('',(21.52139129372,-0.8289745962156,-63.));
#568=CARTESIAN_POINT('',(21.52139129372,-0.8289745962156,-63.));
#569=CARTESIAN_POINT('',(3.021391293724,-0.8289745962156,-63.));
#570=CARTESIAN_POINT('',(12.27139129372,-1.261987298108,-63.75));
#571=CARTESIAN_POINT('',(21.52139129372,0.8289745962156,-63.));
#572=CARTESIAN_POINT('',(12.27139129372,0.,-63.));
#573=CARTESIAN_POINT('',(21.52139129372,0.,-64.5));
#574=MECHANICAL_DESIGN_GEOMETRIC_PRESENTATION_REPRESENTATION('',(#350,#351,
#352,#353),#575);
#575=(
GEOMETRIC_REPRESENTATION_CONTEXT(3)
GLOBAL_UNCERTAINTY_ASSIGNED_CONTEXT((#576))
GLOBAL_UNIT_ASSIGNED_CONTEXT((#582,#578,#577))
REPRESENTATION_CONTEXT('HKY30R','TOP_LEVEL_ASSEMBLY_PART')
);
#576=UNCERTAINTY_MEASURE_WITH_UNIT(LENGTH_MEASURE(2.E-5),#582,
'DISTANCE_ACCURACY_VALUE','Maximum Tolerance applied to model');
#577=(
NAMED_UNIT(*)
SI_UNIT($,.STERADIAN.)
SOLID_ANGLE_UNIT()
);
#578=(
CONVERSION_BASED_UNIT('DEGREE',#580)
NAMED_UNIT(#579)
PLANE_ANGLE_UNIT()
);
#579=DIMENSIONAL_EXPONENTS(0.,0.,0.,0.,0.,0.,0.);
#580=PLANE_ANGLE_MEASURE_WITH_UNIT(PLANE_ANGLE_MEASURE(0.0174532925),#581);
#581=(
NAMED_UNIT(*)
PLANE_ANGLE_UNIT()
SI_UNIT($,.RADIAN.)
);
#582=(
LENGTH_UNIT()
NAMED_UNIT(*)
SI_UNIT(.MILLI.,.METRE.)
);
ENDSEC;
END-ISO-10303-21;
