ISO-10303-21;
HEADER;
/* Generated by software containing ST-Developer
 * from STEP Tools, Inc. (www.steptools.com) 
 */
/* OPTION: using custom schema-name function */

FILE_DESCRIPTION(
/* description */ (''),
/* implementation_level */ '2;1');

FILE_NAME(
/* name */ 'CWSP415TR.stp',
/* time_stamp */ '2022-02-03T10:33:32+09:00',
/* author */ (''),
/* organization */ (''),
/* preprocessor_version */ 'ST-DEVELOPER v16',
/* originating_system */ 'SIEMENS PLM Software NX 10.0',
/* authorisation */ '');

FILE_SCHEMA (('AUTOMOTIVE_DESIGN { 1 0 10303 214 3 1 1 1 }'));
ENDSEC;

DATA;
#10=CONSTRUCTIVE_GEOMETRY_REPRESENTATION_RELATIONSHIP(
'supplemental geometry','',#26,#11);
#11=CONSTRUCTIVE_GEOMETRY_REPRESENTATION('supplemental geometry',(#368,
#369),#621);
#12=GEOMETRICALLY_BOUNDED_WIREFRAME_SHAPE_REPRESENTATION(
'CWSP415TR-None',(#27),#621);
#13=SHAPE_REPRESENTATION_RELATIONSHIP('None',
'relationship between CWSP415TR-None and CWSP415TR-None',#26,#15);
#14=SHAPE_REPRESENTATION_RELATIONSHIP('None',
'relationship between CWSP415TR-None and CWSP415TR-None',#26,#12);
#15=ADVANCED_BREP_SHAPE_REPRESENTATION('CWSP415TR-None',(#33),#621);
#16=SHAPE_DEFINITION_REPRESENTATION(#17,#26);
#17=PRODUCT_DEFINITION_SHAPE('','',#18);
#18=PRODUCT_DEFINITION('part definition','',#20,#19);
#19=PRODUCT_DEFINITION_CONTEXT('part definition',#25,'design');
#20=PRODUCT_DEFINITION_FORMATION_WITH_SPECIFIED_SOURCE(' ',' ',#22,
 .NOT_KNOWN.);
#21=PRODUCT_RELATED_PRODUCT_CATEGORY('part','',(#22));
#22=PRODUCT('CWSP415TR','CWSP415TR','NOT SPECIFIED',(#23));
#23=PRODUCT_CONTEXT('',#25,'mechanical');
#24=APPLICATION_PROTOCOL_DEFINITION('international standard',
'automotive_design',2010,#25);
#25=APPLICATION_CONTEXT(
'core data for automotive mechanical design processes');
#26=SHAPE_REPRESENTATION('CWSP415TR-None',(#367),#621);
#27=GEOMETRIC_CURVE_SET('None',(#484));
#28=SURFACE_STYLE_USAGE(.BOTH.,#29);
#29=SURFACE_SIDE_STYLE('',(#30));
#30=SURFACE_STYLE_FILL_AREA(#31);
#31=FILL_AREA_STYLE('',(#32));
#32=FILL_AREA_STYLE_COLOUR('',#350);
#33=MANIFOLD_SOLID_BREP('',#34);
#34=CLOSED_SHELL('',(#47,#48,#49,#50,#51,#52,#53,#54,#55,#56,#57,#58,#59,
#60,#61,#62,#63));
#35=CYLINDRICAL_SURFACE('',#384,7.5);
#36=CYLINDRICAL_SURFACE('',#385,3.5);
#37=CYLINDRICAL_SURFACE('',#386,3.5);
#38=FACE_BOUND('',#101,.T.);
#39=FACE_BOUND('',#102,.T.);
#40=ELLIPSE('',#373,4.94974746830583,3.5);
#41=ELLIPSE('',#374,4.94974746830583,3.5);
#42=ELLIPSE('',#381,10.6066017177982,7.5);
#43=ELLIPSE('',#383,7.95615331360941,7.5);
#44=B_SPLINE_CURVE_WITH_KNOTS('',3,(#498,#499,#500,#501),.UNSPECIFIED.,
 .F.,.F.,(4,4),(0.,1.),.UNSPECIFIED.);
#45=B_SPLINE_CURVE_WITH_KNOTS('',3,(#551,#552,#553,#554,#555,#556,#557,
#558,#559,#560,#561,#562,#563,#564,#565,#566,#567,#568,#569,#570,#571,#572,
#573,#574,#575,#576,#577,#578,#579,#580,#581),.UNSPECIFIED.,.F.,.F.,(4,
3,3,3,3,3,3,3,3,3,4),(0.,0.102709974186579,0.205231946580099,0.310395512908758,
0.414313943306443,0.511693910590306,0.607888106737419,0.712498670352731,
0.831142113601952,0.926008957739342,1.),.UNSPECIFIED.);
#46=B_SPLINE_CURVE_WITH_KNOTS('',3,(#584,#585,#586,#587,#588,#589,#590,
#591,#592,#593),.UNSPECIFIED.,.F.,.F.,(4,2,2,2,4),(0.,0.25,0.5,0.75,1.),
 .UNSPECIFIED.);
#47=ADVANCED_FACE('',(#78),#64,.F.);
#48=ADVANCED_FACE('',(#79),#65,.T.);
#49=ADVANCED_FACE('',(#80),#66,.F.);
#50=ADVANCED_FACE('',(#81),#67,.T.);
#51=ADVANCED_FACE('',(#82),#68,.T.);
#52=ADVANCED_FACE('',(#83),#69,.T.);
#53=ADVANCED_FACE('',(#84),#70,.T.);
#54=ADVANCED_FACE('',(#38,#39),#35,.F.);
#55=ADVANCED_FACE('',(#85),#36,.F.);
#56=ADVANCED_FACE('',(#86),#37,.F.);
#57=ADVANCED_FACE('',(#87),#71,.T.);
#58=ADVANCED_FACE('',(#88),#72,.T.);
#59=ADVANCED_FACE('',(#89),#73,.F.);
#60=ADVANCED_FACE('',(#90),#74,.F.);
#61=ADVANCED_FACE('',(#91),#75,.F.);
#62=ADVANCED_FACE('',(#92),#76,.T.);
#63=ADVANCED_FACE('',(#93),#77,.T.);
#64=PLANE('',#371);
#65=PLANE('',#372);
#66=PLANE('',#375);
#67=PLANE('',#377);
#68=PLANE('',#379);
#69=PLANE('',#380);
#70=PLANE('',#382);
#71=PLANE('',#387);
#72=PLANE('',#388);
#73=PLANE('',#389);
#74=PLANE('',#390);
#75=PLANE('',#391);
#76=PLANE('',#392);
#77=PLANE('',#393);
#78=FACE_OUTER_BOUND('',#94,.T.);
#79=FACE_OUTER_BOUND('',#95,.T.);
#80=FACE_OUTER_BOUND('',#96,.T.);
#81=FACE_OUTER_BOUND('',#97,.T.);
#82=FACE_OUTER_BOUND('',#98,.T.);
#83=FACE_OUTER_BOUND('',#99,.T.);
#84=FACE_OUTER_BOUND('',#100,.T.);
#85=FACE_OUTER_BOUND('',#103,.T.);
#86=FACE_OUTER_BOUND('',#104,.T.);
#87=FACE_OUTER_BOUND('',#105,.T.);
#88=FACE_OUTER_BOUND('',#106,.T.);
#89=FACE_OUTER_BOUND('',#107,.T.);
#90=FACE_OUTER_BOUND('',#108,.T.);
#91=FACE_OUTER_BOUND('',#109,.T.);
#92=FACE_OUTER_BOUND('',#110,.T.);
#93=FACE_OUTER_BOUND('',#111,.T.);
#94=EDGE_LOOP('',(#115,#116,#117,#118,#119));
#95=EDGE_LOOP('',(#120,#121,#122,#123,#124));
#96=EDGE_LOOP('',(#125,#126,#127,#128,#129,#130,#131,#132,#133,#134));
#97=EDGE_LOOP('',(#135,#136,#137,#138));
#98=EDGE_LOOP('',(#139,#140,#141,#142));
#99=EDGE_LOOP('',(#143,#144,#145,#146,#147));
#100=EDGE_LOOP('',(#148,#149,#150,#151,#152));
#101=EDGE_LOOP('',(#153,#154,#155,#156,#157,#158));
#102=EDGE_LOOP('',(#159,#160));
#103=EDGE_LOOP('',(#161,#162,#163,#164,#165));
#104=EDGE_LOOP('',(#166,#167,#168,#169,#170));
#105=EDGE_LOOP('',(#171,#172,#173,#174));
#106=EDGE_LOOP('',(#175,#176,#177,#178,#179));
#107=EDGE_LOOP('',(#180,#181,#182,#183));
#108=EDGE_LOOP('',(#184,#185,#186));
#109=EDGE_LOOP('',(#187,#188,#189,#190,#191,#192,#193,#194,#195,#196));
#110=EDGE_LOOP('',(#197,#198,#199,#200));
#111=EDGE_LOOP('',(#201,#202,#203,#204));
#112=CIRCLE('',#370,7.5);
#113=CIRCLE('',#376,3.5);
#114=CIRCLE('',#378,3.5);
#115=ORIENTED_EDGE('',*,*,#234,.F.);
#116=ORIENTED_EDGE('',*,*,#235,.F.);
#117=ORIENTED_EDGE('',*,*,#236,.T.);
#118=ORIENTED_EDGE('',*,*,#237,.F.);
#119=ORIENTED_EDGE('',*,*,#238,.T.);
#120=ORIENTED_EDGE('',*,*,#238,.F.);
#121=ORIENTED_EDGE('',*,*,#239,.F.);
#122=ORIENTED_EDGE('',*,*,#240,.F.);
#123=ORIENTED_EDGE('',*,*,#241,.T.);
#124=ORIENTED_EDGE('',*,*,#242,.F.);
#125=ORIENTED_EDGE('',*,*,#243,.T.);
#126=ORIENTED_EDGE('',*,*,#244,.T.);
#127=ORIENTED_EDGE('',*,*,#245,.T.);
#128=ORIENTED_EDGE('',*,*,#246,.F.);
#129=ORIENTED_EDGE('',*,*,#247,.F.);
#130=ORIENTED_EDGE('',*,*,#248,.T.);
#131=ORIENTED_EDGE('',*,*,#249,.T.);
#132=ORIENTED_EDGE('',*,*,#250,.F.);
#133=ORIENTED_EDGE('',*,*,#234,.T.);
#134=ORIENTED_EDGE('',*,*,#242,.T.);
#135=ORIENTED_EDGE('',*,*,#251,.T.);
#136=ORIENTED_EDGE('',*,*,#252,.T.);
#137=ORIENTED_EDGE('',*,*,#235,.T.);
#138=ORIENTED_EDGE('',*,*,#250,.T.);
#139=ORIENTED_EDGE('',*,*,#253,.F.);
#140=ORIENTED_EDGE('',*,*,#254,.T.);
#141=ORIENTED_EDGE('',*,*,#255,.T.);
#142=ORIENTED_EDGE('',*,*,#247,.T.);
#143=ORIENTED_EDGE('',*,*,#252,.F.);
#144=ORIENTED_EDGE('',*,*,#254,.F.);
#145=ORIENTED_EDGE('',*,*,#256,.F.);
#146=ORIENTED_EDGE('',*,*,#257,.T.);
#147=ORIENTED_EDGE('',*,*,#258,.T.);
#148=ORIENTED_EDGE('',*,*,#236,.F.);
#149=ORIENTED_EDGE('',*,*,#258,.F.);
#150=ORIENTED_EDGE('',*,*,#259,.T.);
#151=ORIENTED_EDGE('',*,*,#260,.F.);
#152=ORIENTED_EDGE('',*,*,#261,.F.);
#153=ORIENTED_EDGE('',*,*,#237,.T.);
#154=ORIENTED_EDGE('',*,*,#261,.T.);
#155=ORIENTED_EDGE('',*,*,#262,.T.);
#156=ORIENTED_EDGE('',*,*,#263,.T.);
#157=ORIENTED_EDGE('',*,*,#264,.F.);
#158=ORIENTED_EDGE('',*,*,#239,.T.);
#159=ORIENTED_EDGE('',*,*,#265,.T.);
#160=ORIENTED_EDGE('',*,*,#266,.T.);
#161=ORIENTED_EDGE('',*,*,#267,.F.);
#162=ORIENTED_EDGE('',*,*,#266,.F.);
#163=ORIENTED_EDGE('',*,*,#268,.T.);
#164=ORIENTED_EDGE('',*,*,#251,.F.);
#165=ORIENTED_EDGE('',*,*,#249,.F.);
#166=ORIENTED_EDGE('',*,*,#255,.F.);
#167=ORIENTED_EDGE('',*,*,#268,.F.);
#168=ORIENTED_EDGE('',*,*,#265,.F.);
#169=ORIENTED_EDGE('',*,*,#267,.T.);
#170=ORIENTED_EDGE('',*,*,#248,.F.);
#171=ORIENTED_EDGE('',*,*,#264,.T.);
#172=ORIENTED_EDGE('',*,*,#269,.F.);
#173=ORIENTED_EDGE('',*,*,#270,.F.);
#174=ORIENTED_EDGE('',*,*,#240,.T.);
#175=ORIENTED_EDGE('',*,*,#270,.T.);
#176=ORIENTED_EDGE('',*,*,#271,.T.);
#177=ORIENTED_EDGE('',*,*,#272,.F.);
#178=ORIENTED_EDGE('',*,*,#243,.F.);
#179=ORIENTED_EDGE('',*,*,#241,.F.);
#180=ORIENTED_EDGE('',*,*,#272,.T.);
#181=ORIENTED_EDGE('',*,*,#273,.T.);
#182=ORIENTED_EDGE('',*,*,#274,.T.);
#183=ORIENTED_EDGE('',*,*,#244,.F.);
#184=ORIENTED_EDGE('',*,*,#274,.F.);
#185=ORIENTED_EDGE('',*,*,#275,.F.);
#186=ORIENTED_EDGE('',*,*,#245,.F.);
#187=ORIENTED_EDGE('',*,*,#275,.T.);
#188=ORIENTED_EDGE('',*,*,#273,.F.);
#189=ORIENTED_EDGE('',*,*,#271,.F.);
#190=ORIENTED_EDGE('',*,*,#269,.T.);
#191=ORIENTED_EDGE('',*,*,#263,.F.);
#192=ORIENTED_EDGE('',*,*,#276,.T.);
#193=ORIENTED_EDGE('',*,*,#277,.F.);
#194=ORIENTED_EDGE('',*,*,#256,.T.);
#195=ORIENTED_EDGE('',*,*,#253,.T.);
#196=ORIENTED_EDGE('',*,*,#246,.T.);
#197=ORIENTED_EDGE('',*,*,#257,.F.);
#198=ORIENTED_EDGE('',*,*,#277,.T.);
#199=ORIENTED_EDGE('',*,*,#278,.F.);
#200=ORIENTED_EDGE('',*,*,#259,.F.);
#201=ORIENTED_EDGE('',*,*,#278,.T.);
#202=ORIENTED_EDGE('',*,*,#276,.F.);
#203=ORIENTED_EDGE('',*,*,#262,.F.);
#204=ORIENTED_EDGE('',*,*,#260,.T.);
#205=VERTEX_POINT('',#488);
#206=VERTEX_POINT('',#489);
#207=VERTEX_POINT('',#491);
#208=VERTEX_POINT('',#493);
#209=VERTEX_POINT('',#495);
#210=VERTEX_POINT('',#502);
#211=VERTEX_POINT('',#504);
#212=VERTEX_POINT('',#506);
#213=VERTEX_POINT('',#510);
#214=VERTEX_POINT('',#512);
#215=VERTEX_POINT('',#514);
#216=VERTEX_POINT('',#516);
#217=VERTEX_POINT('',#518);
#218=VERTEX_POINT('',#520);
#219=VERTEX_POINT('',#522);
#220=VERTEX_POINT('',#526);
#221=VERTEX_POINT('',#530);
#222=VERTEX_POINT('',#535);
#223=VERTEX_POINT('',#537);
#224=VERTEX_POINT('',#541);
#225=VERTEX_POINT('',#543);
#226=VERTEX_POINT('',#547);
#227=VERTEX_POINT('',#549);
#228=VERTEX_POINT('',#582);
#229=VERTEX_POINT('',#583);
#230=VERTEX_POINT('',#600);
#231=VERTEX_POINT('',#604);
#232=VERTEX_POINT('',#608);
#233=VERTEX_POINT('',#614);
#234=EDGE_CURVE('',#205,#206,#279,.T.);
#235=EDGE_CURVE('',#207,#205,#280,.T.);
#236=EDGE_CURVE('',#207,#208,#281,.T.);
#237=EDGE_CURVE('',#209,#208,#112,.T.);
#238=EDGE_CURVE('',#209,#206,#282,.T.);
#239=EDGE_CURVE('',#210,#209,#44,.T.);
#240=EDGE_CURVE('',#211,#210,#283,.T.);
#241=EDGE_CURVE('',#211,#212,#284,.T.);
#242=EDGE_CURVE('',#206,#212,#285,.T.);
#243=EDGE_CURVE('',#212,#213,#286,.T.);
#244=EDGE_CURVE('',#213,#214,#287,.T.);
#245=EDGE_CURVE('',#214,#215,#288,.T.);
#246=EDGE_CURVE('',#216,#215,#289,.T.);
#247=EDGE_CURVE('',#217,#216,#290,.T.);
#248=EDGE_CURVE('',#217,#218,#40,.T.);
#249=EDGE_CURVE('',#218,#219,#41,.T.);
#250=EDGE_CURVE('',#205,#219,#291,.T.);
#251=EDGE_CURVE('',#219,#220,#113,.T.);
#252=EDGE_CURVE('',#220,#207,#292,.T.);
#253=EDGE_CURVE('',#221,#216,#293,.T.);
#254=EDGE_CURVE('',#221,#220,#294,.T.);
#255=EDGE_CURVE('',#220,#217,#114,.T.);
#256=EDGE_CURVE('',#222,#221,#295,.T.);
#257=EDGE_CURVE('',#222,#223,#296,.T.);
#258=EDGE_CURVE('',#223,#207,#297,.T.);
#259=EDGE_CURVE('',#223,#224,#298,.T.);
#260=EDGE_CURVE('',#225,#224,#299,.T.);
#261=EDGE_CURVE('',#208,#225,#42,.T.);
#262=EDGE_CURVE('',#225,#226,#300,.T.);
#263=EDGE_CURVE('',#226,#227,#43,.T.);
#264=EDGE_CURVE('',#210,#227,#301,.T.);
#265=EDGE_CURVE('',#228,#229,#45,.T.);
#266=EDGE_CURVE('',#229,#228,#46,.T.);
#267=EDGE_CURVE('',#228,#218,#302,.T.);
#268=EDGE_CURVE('',#229,#220,#303,.T.);
#269=EDGE_CURVE('',#230,#227,#304,.T.);
#270=EDGE_CURVE('',#211,#230,#305,.T.);
#271=EDGE_CURVE('',#230,#231,#306,.T.);
#272=EDGE_CURVE('',#213,#231,#307,.T.);
#273=EDGE_CURVE('',#231,#232,#308,.T.);
#274=EDGE_CURVE('',#232,#214,#309,.T.);
#275=EDGE_CURVE('',#215,#232,#310,.T.);
#276=EDGE_CURVE('',#226,#233,#311,.T.);
#277=EDGE_CURVE('',#222,#233,#312,.T.);
#278=EDGE_CURVE('',#224,#233,#313,.T.);
#279=LINE('',#487,#314);
#280=LINE('',#490,#315);
#281=LINE('',#492,#316);
#282=LINE('',#496,#317);
#283=LINE('',#503,#318);
#284=LINE('',#505,#319);
#285=LINE('',#507,#320);
#286=LINE('',#509,#321);
#287=LINE('',#511,#322);
#288=LINE('',#513,#323);
#289=LINE('',#515,#324);
#290=LINE('',#517,#325);
#291=LINE('',#523,#326);
#292=LINE('',#527,#327);
#293=LINE('',#529,#328);
#294=LINE('',#531,#329);
#295=LINE('',#534,#330);
#296=LINE('',#536,#331);
#297=LINE('',#538,#332);
#298=LINE('',#540,#333);
#299=LINE('',#542,#334);
#300=LINE('',#546,#335);
#301=LINE('',#550,#336);
#302=LINE('',#595,#337);
#303=LINE('',#596,#338);
#304=LINE('',#599,#339);
#305=LINE('',#601,#340);
#306=LINE('',#603,#341);
#307=LINE('',#605,#342);
#308=LINE('',#607,#343);
#309=LINE('',#609,#344);
#310=LINE('',#611,#345);
#311=LINE('',#613,#346);
#312=LINE('',#615,#347);
#313=LINE('',#617,#348);
#314=VECTOR('',#400,1.);
#315=VECTOR('',#401,1.);
#316=VECTOR('',#402,1.);
#317=VECTOR('',#405,1.);
#318=VECTOR('',#408,1.);
#319=VECTOR('',#409,1.);
#320=VECTOR('',#410,1.);
#321=VECTOR('',#413,1.);
#322=VECTOR('',#414,1.);
#323=VECTOR('',#415,1.);
#324=VECTOR('',#416,1.);
#325=VECTOR('',#417,1.);
#326=VECTOR('',#422,1.);
#327=VECTOR('',#427,1.);
#328=VECTOR('',#430,1.);
#329=VECTOR('',#431,1.);
#330=VECTOR('',#436,1.);
#331=VECTOR('',#437,1.);
#332=VECTOR('',#438,1.);
#333=VECTOR('',#441,1.);
#334=VECTOR('',#442,1.);
#335=VECTOR('',#447,1.);
#336=VECTOR('',#450,1.);
#337=VECTOR('',#453,1.);
#338=VECTOR('',#454,1.);
#339=VECTOR('',#459,1.);
#340=VECTOR('',#460,1.);
#341=VECTOR('',#463,1.);
#342=VECTOR('',#464,1.);
#343=VECTOR('',#467,1.);
#344=VECTOR('',#468,1.);
#345=VECTOR('',#471,1.);
#346=VECTOR('',#474,1.);
#347=VECTOR('',#475,1.);
#348=VECTOR('',#478,1.);
#349=COLOUR_RGB('Strong Stone',0.576470588235294,0.54508278019379,0.392156862745098);
#350=COLOUR_RGB('spare part',0.301960784313725,0.301960784313725,0.301960784313725);
#351=CURVE_STYLE('',#353,POSITIVE_LENGTH_MEASURE(0.13),#366);
#352=CURVE_STYLE('',#354,POSITIVE_LENGTH_MEASURE(0.13),#349);
#353=DRAUGHTING_PRE_DEFINED_CURVE_FONT('continuous');
#354=DRAUGHTING_PRE_DEFINED_CURVE_FONT('continuous');
#355=PRESENTATION_LAYER_ASSIGNMENT('1','Layer 1',(#484,#368,#369,#33));
#356=STYLED_ITEM('',(#360),#484);
#357=STYLED_ITEM('',(#361),#368);
#358=STYLED_ITEM('',(#362),#369);
#359=STYLED_ITEM('',(#363),#33);
#360=PRESENTATION_STYLE_ASSIGNMENT((#364));
#361=PRESENTATION_STYLE_ASSIGNMENT((#351));
#362=PRESENTATION_STYLE_ASSIGNMENT((#352));
#363=PRESENTATION_STYLE_ASSIGNMENT((#28));
#364=POINT_STYLE('',#365,POSITIVE_LENGTH_MEASURE(3.),#366);
#365=PRE_DEFINED_POINT_MARKER_SYMBOL('plus');
#366=DRAUGHTING_PRE_DEFINED_COLOUR('yellow');
#367=AXIS2_PLACEMENT_3D('',#483,#394,#395);
#368=AXIS2_PLACEMENT_3D('PCS',#485,#396,#397);
#369=AXIS2_PLACEMENT_3D('',#486,#398,#399);
#370=AXIS2_PLACEMENT_3D('',#494,#403,#404);
#371=AXIS2_PLACEMENT_3D('',#497,#406,#407);
#372=AXIS2_PLACEMENT_3D('',#508,#411,#412);
#373=AXIS2_PLACEMENT_3D('',#519,#418,#419);
#374=AXIS2_PLACEMENT_3D('',#521,#420,#421);
#375=AXIS2_PLACEMENT_3D('',#524,#423,#424);
#376=AXIS2_PLACEMENT_3D('',#525,#425,#426);
#377=AXIS2_PLACEMENT_3D('',#528,#428,#429);
#378=AXIS2_PLACEMENT_3D('',#532,#432,#433);
#379=AXIS2_PLACEMENT_3D('',#533,#434,#435);
#380=AXIS2_PLACEMENT_3D('',#539,#439,#440);
#381=AXIS2_PLACEMENT_3D('',#544,#443,#444);
#382=AXIS2_PLACEMENT_3D('',#545,#445,#446);
#383=AXIS2_PLACEMENT_3D('',#548,#448,#449);
#384=AXIS2_PLACEMENT_3D('',#594,#451,#452);
#385=AXIS2_PLACEMENT_3D('',#597,#455,#456);
#386=AXIS2_PLACEMENT_3D('',#598,#457,#458);
#387=AXIS2_PLACEMENT_3D('',#602,#461,#462);
#388=AXIS2_PLACEMENT_3D('',#606,#465,#466);
#389=AXIS2_PLACEMENT_3D('',#610,#469,#470);
#390=AXIS2_PLACEMENT_3D('',#612,#472,#473);
#391=AXIS2_PLACEMENT_3D('',#616,#476,#477);
#392=AXIS2_PLACEMENT_3D('',#618,#479,#480);
#393=AXIS2_PLACEMENT_3D('',#619,#481,#482);
#394=DIRECTION('',(0.,0.,1.));
#395=DIRECTION('',(1.,0.,0.));
#396=DIRECTION('',(0.,0.,1.));
#397=DIRECTION('',(1.,0.,0.));
#398=DIRECTION('',(0.,0.,1.));
#399=DIRECTION('',(1.,0.,0.));
#400=DIRECTION('',(0.,0.707106781186547,0.707106781186547));
#401=DIRECTION('',(0.,1.,0.));
#402=DIRECTION('',(0.,0.,1.));
#403=DIRECTION('',(-1.,0.,0.));
#404=DIRECTION('',(0.,0.436367975761407,-0.899768297802213));
#405=DIRECTION('',(0.,-0.190808995376495,-0.981627183447674));
#406=DIRECTION('',(1.,0.,0.));
#407=DIRECTION('',(0.,-1.,0.));
#408=DIRECTION('',(-0.70052067502273,-0.713632106806931,0.));
#409=DIRECTION('',(0.,-0.190808995376495,-0.981627183447674));
#410=DIRECTION('',(0.488067010791394,0.617167154414893,0.617167154414893));
#411=DIRECTION('',(-0.707106781186525,0.694115238012925,-0.134922334542105));
#412=DIRECTION('',(-0.707106781186569,-0.694115238012882,0.134922334542096));
#413=DIRECTION('',(1.,0.,0.));
#414=DIRECTION('',(0.488067010791394,-0.617167154414893,-0.617167154414893));
#415=DIRECTION('',(1.,0.,0.));
#416=DIRECTION('',(-0.332196162355805,0.66695041409241,0.66695041409241));
#417=DIRECTION('',(1.,0.,0.));
#418=DIRECTION('',(0.,-0.707106781186548,0.707106781186548));
#419=DIRECTION('',(0.,0.707106781186548,0.707106781186548));
#420=DIRECTION('',(0.,-0.707106781186548,0.707106781186548));
#421=DIRECTION('',(0.,0.707106781186548,0.707106781186548));
#422=DIRECTION('',(1.,0.,0.));
#423=DIRECTION('',(0.,-0.707106781186547,0.707106781186547));
#424=DIRECTION('',(0.,-0.707106781186547,-0.707106781186547));
#425=DIRECTION('',(0.,0.,1.));
#426=DIRECTION('',(-0.445367134644192,0.895348041478185,0.));
#427=DIRECTION('',(-1.,0.,0.));
#428=DIRECTION('',(0.,0.,-1.));
#429=DIRECTION('',(0.,-1.,0.));
#430=DIRECTION('',(-0.26471468452201,0.964326778534337,0.));
#431=DIRECTION('',(-1.,0.,0.));
#432=DIRECTION('',(0.,0.,1.));
#433=DIRECTION('',(0.,-1.,0.));
#434=DIRECTION('',(0.,0.,-1.));
#435=DIRECTION('',(0.,-1.,0.));
#436=DIRECTION('',(-0.0359911952832096,0.706648651686991,-0.706648651686991));
#437=DIRECTION('',(-1.,0.,0.));
#438=DIRECTION('',(-0.577350269189626,0.577350269189626,-0.577350269189626));
#439=DIRECTION('',(0.,-0.707106781186547,-0.707106781186547));
#440=DIRECTION('',(0.,0.707106781186547,-0.707106781186547));
#441=DIRECTION('',(0.,0.,1.));
#442=DIRECTION('',(0.707106781186547,-0.707106781186547,0.));
#443=DIRECTION('',(-0.707106781186548,-0.707106781186548,0.));
#444=DIRECTION('',(0.707106781186548,-0.707106781186548,0.));
#445=DIRECTION('',(-0.707106781186547,-0.707106781186547,0.));
#446=DIRECTION('',(-0.707106781186547,0.707106781186547,0.));
#447=DIRECTION('',(1.,0.,0.));
#448=DIRECTION('',(0.942666600852307,0.258768808881702,0.210756691916302));
#449=DIRECTION('',(0.33373594298121,-0.730915319746809,-0.595300861516143));
#450=DIRECTION('',(1.,0.,0.));
#451=DIRECTION('',(1.,0.,0.));
#452=DIRECTION('',(0.,-1.,0.));
#453=DIRECTION('',(0.,0.,-1.));
#454=DIRECTION('',(-8.349358776956E-9,0.,-1.));
#455=DIRECTION('',(0.,0.,1.));
#456=DIRECTION('',(0.,-1.,0.));
#457=DIRECTION('',(0.,0.,1.));
#458=DIRECTION('',(0.,-1.,0.));
#459=DIRECTION('',(0.26471468452201,-0.964326778534337,0.));
#460=DIRECTION('',(1.,0.,0.));
#461=DIRECTION('',(0.,0.,1.));
#462=DIRECTION('',(0.,1.,0.));
#463=DIRECTION('',(0.262325562112694,-0.184126755512196,-0.947250039517978));
#464=DIRECTION('',(0.,0.190808995376495,0.981627183447674));
#465=DIRECTION('',(0.,0.981627183447674,-0.190808995376495));
#466=DIRECTION('',(0.,-0.190808995376495,-0.981627183447674));
#467=DIRECTION('',(0.314818355819001,-0.479888641464701,-0.818899441099202));
#468=DIRECTION('',(0.,-0.190808995376495,-0.981627183447674));
#469=DIRECTION('',(-0.707106781186525,-0.694115238012925,0.134922334542105));
#470=DIRECTION('',(-0.707106781186569,0.694115238012882,-0.134922334542096));
#471=DIRECTION('',(-0.262325562112694,0.184126755512196,0.947250039517978));
#472=DIRECTION('',(0.,-0.981627183447674,0.190808995376495));
#473=DIRECTION('',(-1.,0.,0.));
#474=DIRECTION('',(0.264714684521985,-0.964326778534344,0.));
#475=DIRECTION('',(-0.218188342733993,0.,0.975906679501167));
#476=DIRECTION('',(-0.942666600852307,-0.258768808881702,-0.210756691916302));
#477=DIRECTION('',(0.203238321770205,0.0557903912115114,-0.977538550039075));
#478=DIRECTION('',(1.,0.,0.));
#479=DIRECTION('',(0.,-1.,0.));
#480=DIRECTION('',(0.,0.,1.));
#481=DIRECTION('',(0.,0.,1.));
#482=DIRECTION('',(0.,1.,0.));
#483=CARTESIAN_POINT('',(0.,0.,0.));
#484=CARTESIAN_POINT('',(0.,0.,0.));
#485=CARTESIAN_POINT('',(0.,0.,0.));
#486=CARTESIAN_POINT('',(0.,0.,0.));
#487=CARTESIAN_POINT('',(-6.5,3.133718145174,0.));
#488=CARTESIAN_POINT('',(-6.5,3.133718145174,0.));
#489=CARTESIAN_POINT('',(-6.5,3.36920499274,0.2354868475659));
#490=CARTESIAN_POINT('',(-6.5,-3.5,0.));
#491=CARTESIAN_POINT('',(-6.5,-3.5,0.));
#492=CARTESIAN_POINT('',(-6.5,-3.5,0.));
#493=CARTESIAN_POINT('',(-6.5,-3.5,8.29843137104432));
#494=CARTESIAN_POINT('',(-6.5,1.447632019952,13.93500279303));
#495=CARTESIAN_POINT('',(-6.5,4.720391838163,7.186740559513));
#496=CARTESIAN_POINT('',(-6.5,4.720391838163,7.186740559513));
#497=CARTESIAN_POINT('',(-6.5,0.,9.));
#498=CARTESIAN_POINT('',(-5.990813591724,5.3,7.5));
#499=CARTESIAN_POINT('',(-6.156650415453,5.108811106521,7.385543177669));
#500=CARTESIAN_POINT('',(-6.326482742843,4.915554819147,7.281390343423));
#501=CARTESIAN_POINT('',(-6.5,4.720391838163,7.186740559513));
#502=CARTESIAN_POINT('',(-5.990813591724,5.3,7.5));
#503=CARTESIAN_POINT('',(-5.5,5.8,7.5));
#504=CARTESIAN_POINT('',(-5.5,5.8,7.5));
#505=CARTESIAN_POINT('',(-5.5,5.8,7.5));
#506=CARTESIAN_POINT('',(-5.5,4.633718145174,1.5));
#507=CARTESIAN_POINT('',(-6.5,3.36920499274,0.2354868475659));
#508=CARTESIAN_POINT('',(-6.,4.677054991668,4.343370279757));
#509=CARTESIAN_POINT('',(-5.5,4.633718145174,1.5));
#510=CARTESIAN_POINT('',(5.5,4.633718145174,1.5));
#511=CARTESIAN_POINT('',(5.5,4.633718145174,1.5));
#512=CARTESIAN_POINT('',(5.9,4.1279128842,0.9941947390264));
#513=CARTESIAN_POINT('',(5.9,4.1279128842,0.9941947390264));
#514=CARTESIAN_POINT('',(7.321473396048,4.1279128842,0.9941947390264));
#515=CARTESIAN_POINT('',(7.816664147804,3.133718145174,0.));
#516=CARTESIAN_POINT('',(7.816664147804,3.133718145174,0.));
#517=CARTESIAN_POINT('',(1.558784971255,3.133718145174,0.));
#518=CARTESIAN_POINT('',(1.55878497125397,3.133718145174,0.));
#519=CARTESIAN_POINT('',(0.,0.,-3.133718145174));
#520=CARTESIAN_POINT('',(0.,3.5,0.36628185482615));
#521=CARTESIAN_POINT('',(0.,0.,-3.133718145174));
#522=CARTESIAN_POINT('',(-1.55878497125397,3.133718145174,0.));
#523=CARTESIAN_POINT('',(-6.5,3.133718145174,0.));
#524=CARTESIAN_POINT('',(-6.5,3.133718145174,0.));
#525=CARTESIAN_POINT('',(0.,0.,0.));
#526=CARTESIAN_POINT('',(-6.928658108854E-8,-3.5,0.));
#527=CARTESIAN_POINT('',(-6.928658108854E-8,-3.5,0.));
#528=CARTESIAN_POINT('',(-6.5,-4.5,0.));
#529=CARTESIAN_POINT('',(9.63766782114,-3.5,0.));
#530=CARTESIAN_POINT('',(9.63766782114,-3.5,0.));
#531=CARTESIAN_POINT('',(9.63766782114,-3.5,0.));
#532=CARTESIAN_POINT('',(0.,0.,0.));
#533=CARTESIAN_POINT('',(-6.5,-4.5,0.));
#534=CARTESIAN_POINT('',(9.688600056272,-4.5,1.));
#535=CARTESIAN_POINT('',(9.688600056272,-4.5,1.));
#536=CARTESIAN_POINT('',(9.688600056272,-4.5,1.));
#537=CARTESIAN_POINT('',(-5.5,-4.5,1.));
#538=CARTESIAN_POINT('',(-5.5,-4.5,1.));
#539=CARTESIAN_POINT('',(1.56883391057,-4.,0.5));
#540=CARTESIAN_POINT('',(-5.5,-4.5,1.));
#541=CARTESIAN_POINT('',(-5.5,-4.5,9.));
#542=CARTESIAN_POINT('',(-5.8,-4.2,9.));
#543=CARTESIAN_POINT('',(-5.80000000000004,-4.19999999999996,9.));
#544=CARTESIAN_POINT('',(-11.447632019952,1.447632019952,13.93500279303));
#545=CARTESIAN_POINT('',(-6.,-4.,4.649215685522));
#546=CARTESIAN_POINT('',(-5.8,-4.2,9.));
#547=CARTESIAN_POINT('',(7.81764782735166,-4.2,9.));
#548=CARTESIAN_POINT('',(5.16398865262483,1.447632019952,13.93500279303));
#549=CARTESIAN_POINT('',(5.54519153732894,5.3,7.5));
#550=CARTESIAN_POINT('',(-5.990813591724,5.3,7.5));
#551=CARTESIAN_POINT('',(3.42113882891801E-46,3.5,6.72128075274638));
#552=CARTESIAN_POINT('',(0.385139325663837,3.5,6.72128075274638));
#553=CARTESIAN_POINT('',(0.775534804490948,3.4345093188588,6.70182033771744));
#554=CARTESIAN_POINT('',(1.13847070436889,3.30966530865189,6.66982337117306));
#555=CARTESIAN_POINT('',(1.50102026958883,3.18495419124507,6.63786046446441));
#556=CARTESIAN_POINT('',(1.84623015394826,2.99794958382806,6.59311173397121));
#557=CARTESIAN_POINT('',(2.14817022333511,2.76321636713023,6.55128842792488));
#558=CARTESIAN_POINT('',(2.45758946675058,2.52266871652323,6.50842914217236));
#559=CARTESIAN_POINT('',(2.73035279368773,2.22491001897242,6.46801637580965));
#560=CARTESIAN_POINT('',(2.943409396658,1.89376374547234,6.44828345252549));
#561=CARTESIAN_POINT('',(3.15373474489004,1.56686256372691,6.42880349319301));
#562=CARTESIAN_POINT('',(3.3116066237583,1.19738887331891,6.42963180623548));
#563=CARTESIAN_POINT('',(3.40252043842555,0.820277188574935,6.46128712306049));
#564=CARTESIAN_POINT('',(3.48786898076788,0.466250325760287,6.49100466552955));
#565=CARTESIAN_POINT('',(3.51673518730966,0.0959151530370444,6.54882171801205));
#566=CARTESIAN_POINT('',(3.49040717278201,-0.258955147065785,6.63174596875152));
#567=CARTESIAN_POINT('',(3.46435112942037,-0.610159599552352,6.71381360323763));
#568=CARTESIAN_POINT('',(3.38430449281259,-0.955016924040398,6.82214276887011));
#569=CARTESIAN_POINT('',(3.26077753173666,-1.27174285471608,6.9453675885988));
#570=CARTESIAN_POINT('',(3.12644140957195,-1.61618371965264,7.07937513069822));
#571=CARTESIAN_POINT('',(2.93811861652927,-1.93588682120622,7.23393670497469));
#572=CARTESIAN_POINT('',(2.70973897746644,-2.21524596241572,7.39028546633928));
#573=CARTESIAN_POINT('',(2.45139235796318,-2.53126139205282,7.56714963044696));
#574=CARTESIAN_POINT('',(2.13477319967752,-2.80466513218032,7.75138724757564));
#575=CARTESIAN_POINT('',(1.77594541911214,-3.01596052168038,7.90786901134871));
#576=CARTESIAN_POINT('',(1.48842681245985,-3.1852655734949,8.03325344678913));
#577=CARTESIAN_POINT('',(1.16586232573646,-3.31857333205622,8.14319973102289));
#578=CARTESIAN_POINT('',(0.826220985783286,-3.40108201645466,8.21311742252903));
#579=CARTESIAN_POINT('',(0.560537150610894,-3.46562428833778,8.26781041257645));
#580=CARTESIAN_POINT('',(0.278827775323894,-3.5,8.29843137104432));
#581=CARTESIAN_POINT('',(0.,-3.5,8.29843137104432));
#582=CARTESIAN_POINT('',(3.42113882891801E-46,3.5,6.72128075274638));
#583=CARTESIAN_POINT('',(0.,-3.5,8.29843137104432));
#584=CARTESIAN_POINT('',(0.,-3.5,8.29843137104432));
#585=CARTESIAN_POINT('',(-0.953402186125566,-3.5,8.29843137104432));
#586=CARTESIAN_POINT('',(-1.82810275909205,-3.10731905771485,7.93435425492205));
#587=CARTESIAN_POINT('',(-3.06463678956872,-1.89878718456275,7.1854220130489));
#588=CARTESIAN_POINT('',(-3.46030973376093,-1.05950458742732,6.80416461148107));
#589=CARTESIAN_POINT('',(-3.53406382382444,0.778900708354794,6.40590021885909));
#590=CARTESIAN_POINT('',(-3.17467284890983,1.74641689211905,6.40996890514384));
#591=CARTESIAN_POINT('',(-1.8770120709239,3.09924915814943,6.58737948732879));
#592=CARTESIAN_POINT('',(-0.952136485157943,3.5,6.72128075274638));
#593=CARTESIAN_POINT('',(-1.54350294881549E-16,3.5,6.72128075274638));
#594=CARTESIAN_POINT('',(-6.5,1.447632019952,13.93500279303));
#595=CARTESIAN_POINT('',(0.,3.5,6.721280752746));
#596=CARTESIAN_POINT('',(0.,-3.5,8.298431371044));
#597=CARTESIAN_POINT('',(0.,0.,9.));
#598=CARTESIAN_POINT('',(0.,0.,9.));
#599=CARTESIAN_POINT('',(5.407937916245,5.8,7.5));
#600=CARTESIAN_POINT('',(5.407937916245,5.8,7.5));
#601=CARTESIAN_POINT('',(-5.5,5.8,7.5));
#602=CARTESIAN_POINT('',(-6.5,5.8,7.5));
#603=CARTESIAN_POINT('',(5.407937916245,5.8,7.5));
#604=CARTESIAN_POINT('',(5.5,5.73538146778,7.16756647056));
#605=CARTESIAN_POINT('',(5.5,4.633718145174,1.5));
#606=CARTESIAN_POINT('',(-6.5,4.342147681467,0.));
#607=CARTESIAN_POINT('',(5.5,5.73538146778,7.16756647056));
#608=CARTESIAN_POINT('',(5.9,5.125647463908,6.127094177934));
#609=CARTESIAN_POINT('',(5.9,5.125647463908,6.127094177934));
#610=CARTESIAN_POINT('',(2.9,13.12245556138,31.54457619821));
#611=CARTESIAN_POINT('',(7.321473396048,4.1279128842,0.9941947390264));
#612=CARTESIAN_POINT('',(5.9,10.17757401103,32.11700318434));
#613=CARTESIAN_POINT('',(7.81764782735,-4.2,9.));
#614=CARTESIAN_POINT('',(7.9,-4.5,9.));
#615=CARTESIAN_POINT('',(9.688600056272,-4.5,1.));
#616=CARTESIAN_POINT('',(14.68673620173,-21.89320646243,0.));
#617=CARTESIAN_POINT('',(-5.5,-4.5,9.));
#618=CARTESIAN_POINT('',(-6.5,-4.5,9.));
#619=CARTESIAN_POINT('',(-6.5,-4.2,9.));
#620=MECHANICAL_DESIGN_GEOMETRIC_PRESENTATION_REPRESENTATION('',(#356,#357,
#358,#359),#621);
#621=(
GEOMETRIC_REPRESENTATION_CONTEXT(3)
GLOBAL_UNCERTAINTY_ASSIGNED_CONTEXT((#622))
GLOBAL_UNIT_ASSIGNED_CONTEXT((#628,#624,#623))
REPRESENTATION_CONTEXT('CWSP415TR','TOP_LEVEL_ASSEMBLY_PART')
);
#622=UNCERTAINTY_MEASURE_WITH_UNIT(LENGTH_MEASURE(0.0508),#628,
'DISTANCE_ACCURACY_VALUE','Maximum Tolerance applied to model');
#623=(
NAMED_UNIT(*)
SI_UNIT($,.STERADIAN.)
SOLID_ANGLE_UNIT()
);
#624=(
CONVERSION_BASED_UNIT('DEGREE',#626)
NAMED_UNIT(#625)
PLANE_ANGLE_UNIT()
);
#625=DIMENSIONAL_EXPONENTS(0.,0.,0.,0.,0.,0.,0.);
#626=PLANE_ANGLE_MEASURE_WITH_UNIT(PLANE_ANGLE_MEASURE(0.0174532925),#627);
#627=(
NAMED_UNIT(*)
PLANE_ANGLE_UNIT()
SI_UNIT($,.RADIAN.)
);
#628=(
LENGTH_UNIT()
NAMED_UNIT(*)
SI_UNIT(.MILLI.,.METRE.)
);
ENDSEC;
END-ISO-10303-21;
