ISO-10303-21;
HEADER;
/* Generated by software containing ST-Developer
 * from STEP Tools, Inc. (www.steptools.com) 
 */
/* OPTION: using custom schema-name function */

FILE_DESCRIPTION(
/* description */ (''),
/* implementation_level */ '2;1');

FILE_NAME(
/* name */ 'CWSE545TR.stp',
/* time_stamp */ '2022-02-03T10:33:33+09:00',
/* author */ (''),
/* organization */ (''),
/* preprocessor_version */ 'ST-DEVELOPER v16',
/* originating_system */ 'SIEMENS PLM Software NX 10.0',
/* authorisation */ '');

FILE_SCHEMA (('AUTOMOTIVE_DESIGN { 1 0 10303 214 3 1 1 1 }'));
ENDSEC;

DATA;
#10=CONSTRUCTIVE_GEOMETRY_REPRESENTATION_RELATIONSHIP(
'supplemental geometry','',#26,#11);
#11=CONSTRUCTIVE_GEOMETRY_REPRESENTATION('supplemental geometry',(#289,
#290),#512);
#12=GEOMETRICALLY_BOUNDED_WIREFRAME_SHAPE_REPRESENTATION(
'CWSE545TR-None',(#27),#512);
#13=SHAPE_REPRESENTATION_RELATIONSHIP('None',
'relationship between CWSE545TR-None and CWSE545TR-None',#26,#15);
#14=SHAPE_REPRESENTATION_RELATIONSHIP('None',
'relationship between CWSE545TR-None and CWSE545TR-None',#26,#12);
#15=ADVANCED_BREP_SHAPE_REPRESENTATION('CWSE545TR-None',(#33),#512);
#16=SHAPE_DEFINITION_REPRESENTATION(#17,#26);
#17=PRODUCT_DEFINITION_SHAPE('','',#18);
#18=PRODUCT_DEFINITION('part definition','',#20,#19);
#19=PRODUCT_DEFINITION_CONTEXT('part definition',#25,'design');
#20=PRODUCT_DEFINITION_FORMATION_WITH_SPECIFIED_SOURCE(' ',' ',#22,
 .NOT_KNOWN.);
#21=PRODUCT_RELATED_PRODUCT_CATEGORY('part','',(#22));
#22=PRODUCT('CWSE545TR','CWSE545TR','NOT SPECIFIED',(#23));
#23=PRODUCT_CONTEXT('',#25,'mechanical');
#24=APPLICATION_PROTOCOL_DEFINITION('international standard',
'automotive_design',2010,#25);
#25=APPLICATION_CONTEXT(
'core data for automotive mechanical design processes');
#26=SHAPE_REPRESENTATION('CWSE545TR-None',(#288),#512);
#27=GEOMETRIC_CURVE_SET('None',(#374));
#28=SURFACE_STYLE_USAGE(.BOTH.,#29);
#29=SURFACE_SIDE_STYLE('',(#30));
#30=SURFACE_STYLE_FILL_AREA(#31);
#31=FILL_AREA_STYLE('',(#32));
#32=FILL_AREA_STYLE_COLOUR('',#271);
#33=MANIFOLD_SOLID_BREP('',#34);
#34=CLOSED_SHELL('',(#47,#48,#49,#50,#51,#52,#53,#54,#55,#56,#57,#58,#59));
#35=CYLINDRICAL_SURFACE('',#295,15.);
#36=CYLINDRICAL_SURFACE('',#297,3.5);
#37=CYLINDRICAL_SURFACE('',#300,3.5);
#38=FACE_BOUND('',#83,.T.);
#39=FACE_BOUND('',#84,.T.);
#40=FACE_BOUND('',#86,.T.);
#41=FACE_BOUND('',#87,.T.);
#42=ELLIPSE('',#294,15.9626665871389,15.);
#43=B_SPLINE_CURVE_WITH_KNOTS('',3,(#390,#391,#392,#393),.UNSPECIFIED.,
 .F.,.F.,(4,4),(0.,1.),.UNSPECIFIED.);
#44=B_SPLINE_CURVE_WITH_KNOTS('',3,(#401,#402,#403,#404),.UNSPECIFIED.,
 .F.,.F.,(4,4),(0.,1.),.UNSPECIFIED.);
#45=B_SPLINE_CURVE_WITH_KNOTS('',3,(#405,#406,#407,#408,#409,#410,#411,
#412,#413,#414,#415,#416,#417,#418,#419,#420,#421,#422,#423,#424,#425,#426,
#427,#428,#429,#430,#431,#432,#433,#434,#435),.UNSPECIFIED.,.F.,.F.,(4,
3,3,3,3,3,3,3,3,3,4),(0.,0.105655502778262,0.21118309639978,0.318620275183224,
0.427326731903174,0.533633824677904,0.637351803511424,0.742135673682432,
0.849993370061776,0.958507627657138,1.),.UNSPECIFIED.);
#46=B_SPLINE_CURVE_WITH_KNOTS('',3,(#438,#439,#440,#441,#442,#443,#444,
#445,#446,#447,#448,#449,#450,#451,#452,#453,#454,#455,#456,#457,#458,#459,
#460,#461,#462,#463,#464,#465,#466,#467,#468),.UNSPECIFIED.,.F.,.F.,(4,
3,3,3,3,3,3,3,3,3,4),(0.,0.105315735870352,0.210529391057872,0.317301804106273,
0.425609158710919,0.532400949354839,0.637181124316151,0.742771456127016,
0.850637850099645,0.958520951210187,1.),.UNSPECIFIED.);
#47=ADVANCED_FACE('',(#70),#60,.F.);
#48=ADVANCED_FACE('',(#71),#61,.T.);
#49=ADVANCED_FACE('',(#38,#39),#35,.F.);
#50=ADVANCED_FACE('',(#72),#36,.F.);
#51=ADVANCED_FACE('',(#40,#41),#62,.T.);
#52=ADVANCED_FACE('',(#73),#37,.F.);
#53=ADVANCED_FACE('',(#74),#63,.T.);
#54=ADVANCED_FACE('',(#75),#64,.F.);
#55=ADVANCED_FACE('',(#76),#65,.T.);
#56=ADVANCED_FACE('',(#77),#66,.F.);
#57=ADVANCED_FACE('',(#78),#67,.T.);
#58=ADVANCED_FACE('',(#79),#68,.T.);
#59=ADVANCED_FACE('',(#80),#69,.T.);
#60=PLANE('',#292);
#61=PLANE('',#293);
#62=PLANE('',#299);
#63=PLANE('',#301);
#64=PLANE('',#302);
#65=PLANE('',#303);
#66=PLANE('',#304);
#67=PLANE('',#305);
#68=PLANE('',#306);
#69=PLANE('',#307);
#70=FACE_OUTER_BOUND('',#81,.T.);
#71=FACE_OUTER_BOUND('',#82,.T.);
#72=FACE_OUTER_BOUND('',#85,.T.);
#73=FACE_OUTER_BOUND('',#88,.T.);
#74=FACE_OUTER_BOUND('',#89,.T.);
#75=FACE_OUTER_BOUND('',#90,.T.);
#76=FACE_OUTER_BOUND('',#91,.T.);
#77=FACE_OUTER_BOUND('',#92,.T.);
#78=FACE_OUTER_BOUND('',#93,.T.);
#79=FACE_OUTER_BOUND('',#94,.T.);
#80=FACE_OUTER_BOUND('',#95,.T.);
#81=EDGE_LOOP('',(#146,#147,#148,#149));
#82=EDGE_LOOP('',(#150,#151,#152,#153));
#83=EDGE_LOOP('',(#154,#155,#156,#157,#158,#159));
#84=EDGE_LOOP('',(#160,#161));
#85=EDGE_LOOP('',(#162,#163,#164,#165));
#86=EDGE_LOOP('',(#166,#167,#168,#169,#170,#171));
#87=EDGE_LOOP('',(#172,#173));
#88=EDGE_LOOP('',(#174,#175,#176,#177));
#89=EDGE_LOOP('',(#178,#179,#180,#181));
#90=EDGE_LOOP('',(#182,#183,#184,#185,#186,#187,#188));
#91=EDGE_LOOP('',(#189,#190,#191,#192));
#92=EDGE_LOOP('',(#193,#194,#195,#196,#197,#198,#199));
#93=EDGE_LOOP('',(#200,#201,#202,#203));
#94=EDGE_LOOP('',(#204,#205,#206,#207));
#95=EDGE_LOOP('',(#208,#209,#210,#211));
#96=LINE('',#380,#121);
#97=LINE('',#382,#122);
#98=LINE('',#384,#123);
#99=LINE('',#386,#124);
#100=LINE('',#388,#125);
#101=LINE('',#395,#126);
#102=LINE('',#399,#127);
#103=LINE('',#470,#128);
#104=LINE('',#472,#129);
#105=LINE('',#476,#130);
#106=LINE('',#478,#131);
#107=LINE('',#480,#132);
#108=LINE('',#482,#133);
#109=LINE('',#486,#134);
#110=LINE('',#488,#135);
#111=LINE('',#490,#136);
#112=LINE('',#492,#137);
#113=LINE('',#494,#138);
#114=LINE('',#496,#139);
#115=LINE('',#498,#140);
#116=LINE('',#500,#141);
#117=LINE('',#502,#142);
#118=LINE('',#504,#143);
#119=LINE('',#506,#144);
#120=LINE('',#508,#145);
#121=VECTOR('',#316,1.);
#122=VECTOR('',#317,1.);
#123=VECTOR('',#318,1.);
#124=VECTOR('',#321,1.);
#125=VECTOR('',#322,1.);
#126=VECTOR('',#325,1.);
#127=VECTOR('',#328,1.);
#128=VECTOR('',#331,1.);
#129=VECTOR('',#332,1.);
#130=VECTOR('',#337,1.);
#131=VECTOR('',#338,1.);
#132=VECTOR('',#339,1.);
#133=VECTOR('',#340,1.);
#134=VECTOR('',#347,1.);
#135=VECTOR('',#350,1.);
#136=VECTOR('',#351,1.);
#137=VECTOR('',#352,1.);
#138=VECTOR('',#353,1.);
#139=VECTOR('',#356,1.);
#140=VECTOR('',#357,1.);
#141=VECTOR('',#360,1.);
#142=VECTOR('',#361,1.);
#143=VECTOR('',#362,1.);
#144=VECTOR('',#365,1.);
#145=VECTOR('',#368,1.);
#146=ORIENTED_EDGE('',*,*,#234,.F.);
#147=ORIENTED_EDGE('',*,*,#235,.F.);
#148=ORIENTED_EDGE('',*,*,#236,.F.);
#149=ORIENTED_EDGE('',*,*,#237,.T.);
#150=ORIENTED_EDGE('',*,*,#237,.F.);
#151=ORIENTED_EDGE('',*,*,#238,.F.);
#152=ORIENTED_EDGE('',*,*,#239,.T.);
#153=ORIENTED_EDGE('',*,*,#240,.F.);
#154=ORIENTED_EDGE('',*,*,#241,.T.);
#155=ORIENTED_EDGE('',*,*,#242,.T.);
#156=ORIENTED_EDGE('',*,*,#243,.F.);
#157=ORIENTED_EDGE('',*,*,#244,.F.);
#158=ORIENTED_EDGE('',*,*,#234,.T.);
#159=ORIENTED_EDGE('',*,*,#240,.T.);
#160=ORIENTED_EDGE('',*,*,#245,.T.);
#161=ORIENTED_EDGE('',*,*,#246,.T.);
#162=ORIENTED_EDGE('',*,*,#247,.T.);
#163=ORIENTED_EDGE('',*,*,#246,.F.);
#164=ORIENTED_EDGE('',*,*,#248,.F.);
#165=ORIENTED_EDGE('',*,*,#249,.F.);
#166=ORIENTED_EDGE('',*,*,#236,.T.);
#167=ORIENTED_EDGE('',*,*,#250,.F.);
#168=ORIENTED_EDGE('',*,*,#251,.T.);
#169=ORIENTED_EDGE('',*,*,#252,.T.);
#170=ORIENTED_EDGE('',*,*,#253,.F.);
#171=ORIENTED_EDGE('',*,*,#238,.T.);
#172=ORIENTED_EDGE('',*,*,#254,.T.);
#173=ORIENTED_EDGE('',*,*,#249,.T.);
#174=ORIENTED_EDGE('',*,*,#248,.T.);
#175=ORIENTED_EDGE('',*,*,#245,.F.);
#176=ORIENTED_EDGE('',*,*,#247,.F.);
#177=ORIENTED_EDGE('',*,*,#254,.F.);
#178=ORIENTED_EDGE('',*,*,#253,.T.);
#179=ORIENTED_EDGE('',*,*,#255,.F.);
#180=ORIENTED_EDGE('',*,*,#241,.F.);
#181=ORIENTED_EDGE('',*,*,#239,.F.);
#182=ORIENTED_EDGE('',*,*,#255,.T.);
#183=ORIENTED_EDGE('',*,*,#252,.F.);
#184=ORIENTED_EDGE('',*,*,#256,.T.);
#185=ORIENTED_EDGE('',*,*,#257,.T.);
#186=ORIENTED_EDGE('',*,*,#258,.T.);
#187=ORIENTED_EDGE('',*,*,#259,.F.);
#188=ORIENTED_EDGE('',*,*,#242,.F.);
#189=ORIENTED_EDGE('',*,*,#243,.T.);
#190=ORIENTED_EDGE('',*,*,#259,.T.);
#191=ORIENTED_EDGE('',*,*,#260,.F.);
#192=ORIENTED_EDGE('',*,*,#261,.F.);
#193=ORIENTED_EDGE('',*,*,#235,.T.);
#194=ORIENTED_EDGE('',*,*,#244,.T.);
#195=ORIENTED_EDGE('',*,*,#261,.T.);
#196=ORIENTED_EDGE('',*,*,#262,.F.);
#197=ORIENTED_EDGE('',*,*,#263,.F.);
#198=ORIENTED_EDGE('',*,*,#264,.F.);
#199=ORIENTED_EDGE('',*,*,#250,.T.);
#200=ORIENTED_EDGE('',*,*,#265,.T.);
#201=ORIENTED_EDGE('',*,*,#256,.F.);
#202=ORIENTED_EDGE('',*,*,#251,.F.);
#203=ORIENTED_EDGE('',*,*,#264,.T.);
#204=ORIENTED_EDGE('',*,*,#266,.T.);
#205=ORIENTED_EDGE('',*,*,#257,.F.);
#206=ORIENTED_EDGE('',*,*,#265,.F.);
#207=ORIENTED_EDGE('',*,*,#263,.T.);
#208=ORIENTED_EDGE('',*,*,#260,.T.);
#209=ORIENTED_EDGE('',*,*,#258,.F.);
#210=ORIENTED_EDGE('',*,*,#266,.F.);
#211=ORIENTED_EDGE('',*,*,#262,.T.);
#212=VERTEX_POINT('',#378);
#213=VERTEX_POINT('',#379);
#214=VERTEX_POINT('',#381);
#215=VERTEX_POINT('',#383);
#216=VERTEX_POINT('',#387);
#217=VERTEX_POINT('',#389);
#218=VERTEX_POINT('',#396);
#219=VERTEX_POINT('',#398);
#220=VERTEX_POINT('',#400);
#221=VERTEX_POINT('',#436);
#222=VERTEX_POINT('',#437);
#223=VERTEX_POINT('',#471);
#224=VERTEX_POINT('',#473);
#225=VERTEX_POINT('',#477);
#226=VERTEX_POINT('',#479);
#227=VERTEX_POINT('',#481);
#228=VERTEX_POINT('',#489);
#229=VERTEX_POINT('',#491);
#230=VERTEX_POINT('',#493);
#231=VERTEX_POINT('',#497);
#232=VERTEX_POINT('',#501);
#233=VERTEX_POINT('',#503);
#234=EDGE_CURVE('',#212,#213,#267,.T.);
#235=EDGE_CURVE('',#214,#212,#96,.T.);
#236=EDGE_CURVE('',#215,#214,#97,.T.);
#237=EDGE_CURVE('',#215,#213,#98,.T.);
#238=EDGE_CURVE('',#216,#215,#99,.T.);
#239=EDGE_CURVE('',#216,#217,#100,.T.);
#240=EDGE_CURVE('',#213,#217,#43,.T.);
#241=EDGE_CURVE('',#217,#218,#101,.T.);
#242=EDGE_CURVE('',#218,#219,#42,.T.);
#243=EDGE_CURVE('',#220,#219,#102,.T.);
#244=EDGE_CURVE('',#212,#220,#44,.T.);
#245=EDGE_CURVE('',#221,#222,#45,.T.);
#246=EDGE_CURVE('',#222,#221,#46,.T.);
#247=EDGE_CURVE('',#223,#221,#103,.T.);
#248=EDGE_CURVE('',#224,#222,#104,.T.);
#249=EDGE_CURVE('',#223,#224,#268,.T.);
#250=EDGE_CURVE('',#225,#214,#105,.T.);
#251=EDGE_CURVE('',#225,#226,#106,.T.);
#252=EDGE_CURVE('',#226,#227,#107,.T.);
#253=EDGE_CURVE('',#216,#227,#108,.T.);
#254=EDGE_CURVE('',#224,#223,#269,.T.);
#255=EDGE_CURVE('',#218,#227,#109,.T.);
#256=EDGE_CURVE('',#226,#228,#110,.T.);
#257=EDGE_CURVE('',#228,#229,#111,.T.);
#258=EDGE_CURVE('',#229,#230,#112,.T.);
#259=EDGE_CURVE('',#219,#230,#113,.T.);
#260=EDGE_CURVE('',#231,#230,#114,.T.);
#261=EDGE_CURVE('',#220,#231,#115,.T.);
#262=EDGE_CURVE('',#232,#231,#116,.T.);
#263=EDGE_CURVE('',#233,#232,#117,.T.);
#264=EDGE_CURVE('',#225,#233,#118,.T.);
#265=EDGE_CURVE('',#233,#228,#119,.T.);
#266=EDGE_CURVE('',#232,#229,#120,.T.);
#267=CIRCLE('',#291,15.);
#268=CIRCLE('',#296,3.5);
#269=CIRCLE('',#298,3.5);
#270=COLOUR_RGB('Strong Stone',0.576470588235294,0.54508278019379,0.392156862745098);
#271=COLOUR_RGB('spare part',0.301960784313725,0.301960784313725,0.301960784313725);
#272=CURVE_STYLE('',#274,POSITIVE_LENGTH_MEASURE(0.13),#287);
#273=CURVE_STYLE('',#275,POSITIVE_LENGTH_MEASURE(0.13),#270);
#274=DRAUGHTING_PRE_DEFINED_CURVE_FONT('continuous');
#275=DRAUGHTING_PRE_DEFINED_CURVE_FONT('continuous');
#276=PRESENTATION_LAYER_ASSIGNMENT('1','Layer 1',(#374,#289,#290,#33));
#277=STYLED_ITEM('',(#281),#374);
#278=STYLED_ITEM('',(#282),#289);
#279=STYLED_ITEM('',(#283),#290);
#280=STYLED_ITEM('',(#284),#33);
#281=PRESENTATION_STYLE_ASSIGNMENT((#285));
#282=PRESENTATION_STYLE_ASSIGNMENT((#272));
#283=PRESENTATION_STYLE_ASSIGNMENT((#273));
#284=PRESENTATION_STYLE_ASSIGNMENT((#28));
#285=POINT_STYLE('',#286,POSITIVE_LENGTH_MEASURE(3.),#287);
#286=PRE_DEFINED_POINT_MARKER_SYMBOL('plus');
#287=DRAUGHTING_PRE_DEFINED_COLOUR('yellow');
#288=AXIS2_PLACEMENT_3D('',#373,#308,#309);
#289=AXIS2_PLACEMENT_3D('PCS',#375,#310,#311);
#290=AXIS2_PLACEMENT_3D('',#376,#312,#313);
#291=AXIS2_PLACEMENT_3D('',#377,#314,#315);
#292=AXIS2_PLACEMENT_3D('',#385,#319,#320);
#293=AXIS2_PLACEMENT_3D('',#394,#323,#324);
#294=AXIS2_PLACEMENT_3D('',#397,#326,#327);
#295=AXIS2_PLACEMENT_3D('',#469,#329,#330);
#296=AXIS2_PLACEMENT_3D('',#474,#333,#334);
#297=AXIS2_PLACEMENT_3D('',#475,#335,#336);
#298=AXIS2_PLACEMENT_3D('',#483,#341,#342);
#299=AXIS2_PLACEMENT_3D('',#484,#343,#344);
#300=AXIS2_PLACEMENT_3D('',#485,#345,#346);
#301=AXIS2_PLACEMENT_3D('',#487,#348,#349);
#302=AXIS2_PLACEMENT_3D('',#495,#354,#355);
#303=AXIS2_PLACEMENT_3D('',#499,#358,#359);
#304=AXIS2_PLACEMENT_3D('',#505,#363,#364);
#305=AXIS2_PLACEMENT_3D('',#507,#366,#367);
#306=AXIS2_PLACEMENT_3D('',#509,#369,#370);
#307=AXIS2_PLACEMENT_3D('',#510,#371,#372);
#308=DIRECTION('',(0.,0.,1.));
#309=DIRECTION('',(1.,0.,0.));
#310=DIRECTION('',(0.,0.,1.));
#311=DIRECTION('',(1.,0.,0.));
#312=DIRECTION('',(0.,0.,1.));
#313=DIRECTION('',(1.,0.,0.));
#314=DIRECTION('',(-1.,0.,0.));
#315=DIRECTION('',(0.,0.412712648136882,-0.91086127926696));
#316=DIRECTION('',(0.,0.190808995376495,0.981627183447674));
#317=DIRECTION('',(0.,1.,0.));
#318=DIRECTION('',(0.,0.,1.));
#319=DIRECTION('',(1.,0.,0.));
#320=DIRECTION('',(0.,-1.,0.));
#321=DIRECTION('',(-0.707106781186547,0.707106781186547,0.));
#322=DIRECTION('',(0.,0.,1.));
#323=DIRECTION('',(-0.707106781186547,-0.707106781186547,0.));
#324=DIRECTION('',(-0.707106781186547,0.707106781186547,0.));
#325=DIRECTION('',(1.,0.,0.));
#326=DIRECTION('',(0.939692620785898,0.342020143325699,0.));
#327=DIRECTION('',(0.342020143325699,-0.939692620785898,0.));
#328=DIRECTION('',(1.,0.,0.));
#329=DIRECTION('',(1.,0.,0.));
#330=DIRECTION('',(0.,-1.,0.));
#331=DIRECTION('',(0.,0.,1.));
#332=DIRECTION('',(0.,0.,1.));
#333=DIRECTION('',(0.,0.,1.));
#334=DIRECTION('',(-1.,0.,0.));
#335=DIRECTION('',(0.,0.,1.));
#336=DIRECTION('',(1.,0.,0.));
#337=DIRECTION('',(-0.70052067502273,-0.713632106806931,0.));
#338=DIRECTION('',(1.,0.,0.));
#339=DIRECTION('',(0.342020143325699,-0.939692620785897,0.));
#340=DIRECTION('',(1.,0.,0.));
#341=DIRECTION('',(0.,0.,1.));
#342=DIRECTION('',(1.,0.,0.));
#343=DIRECTION('',(0.,0.,-1.));
#344=DIRECTION('',(0.,-1.,0.));
#345=DIRECTION('',(0.,0.,1.));
#346=DIRECTION('',(1.,0.,0.));
#347=DIRECTION('',(0.,0.,-1.));
#348=DIRECTION('',(0.,-1.,0.));
#349=DIRECTION('',(0.,0.,1.));
#350=DIRECTION('',(-0.069281917698647,0.190350504453592,0.979268452128558));
#351=DIRECTION('',(-0.336453501324801,0.924398397586403,-0.179684846289201));
#352=DIRECTION('',(-0.069281917698647,0.190350504453592,0.979268452128558));
#353=DIRECTION('',(-0.342020143325699,0.939692620785897,0.));
#354=DIRECTION('',(-0.939692620785897,-0.342020143325699,0.));
#355=DIRECTION('',(-0.342020143325699,0.939692620785897,0.));
#356=DIRECTION('',(1.,0.,0.));
#357=DIRECTION('',(0.70052067502273,0.713632106806931,0.));
#358=DIRECTION('',(0.,0.,1.));
#359=DIRECTION('',(0.,1.,0.));
#360=DIRECTION('',(0.,0.190808995376495,0.981627183447674));
#361=DIRECTION('',(0.707106781186525,0.694115238012925,-0.134922334542105));
#362=DIRECTION('',(0.,0.190808995376495,0.981627183447674));
#363=DIRECTION('',(0.707106781186525,-0.694115238012925,0.134922334542105));
#364=DIRECTION('',(-0.707106781186569,-0.694115238012882,0.134922334542096));
#365=DIRECTION('',(1.,0.,0.));
#366=DIRECTION('',(0.,0.981627183447674,-0.190808995376495));
#367=DIRECTION('',(0.,-0.190808995376495,-0.981627183447674));
#368=DIRECTION('',(1.,0.,0.));
#369=DIRECTION('',(0.,-0.190808995376495,-0.981627183447674));
#370=DIRECTION('',(0.,-0.981627183447674,0.190808995376495));
#371=DIRECTION('',(0.,0.981627183447674,-0.190808995376495));
#372=DIRECTION('',(0.,-0.190808995376495,-0.981627183447674));
#373=CARTESIAN_POINT('',(0.,0.,0.));
#374=CARTESIAN_POINT('',(0.,0.,0.));
#375=CARTESIAN_POINT('',(0.,0.,0.));
#376=CARTESIAN_POINT('',(0.,0.,0.));
#377=CARTESIAN_POINT('',(-7.,-0.2626410000796,23.38905100088));
#378=CARTESIAN_POINT('',(-7.,5.928048721973,9.726131811871));
#379=CARTESIAN_POINT('',(-7.,-3.5,8.742566552188));
#380=CARTESIAN_POINT('',(-7.,4.037480213668,0.));
#381=CARTESIAN_POINT('',(-7.,4.037480213668,0.));
#382=CARTESIAN_POINT('',(-7.,-3.5,0.));
#383=CARTESIAN_POINT('',(-7.,-3.5,0.));
#384=CARTESIAN_POINT('',(-7.,-3.5,0.));
#385=CARTESIAN_POINT('',(-7.,0.,0.));
#386=CARTESIAN_POINT('',(-6.,-4.5,0.));
#387=CARTESIAN_POINT('',(-6.,-4.5,0.));
#388=CARTESIAN_POINT('',(-6.,-4.5,0.));
#389=CARTESIAN_POINT('',(-6.,-4.5,9.));
#390=CARTESIAN_POINT('',(-7.,-3.5,8.742566552188));
#391=CARTESIAN_POINT('',(-6.665147193246,-3.834852806754,8.816580132129));
#392=CARTESIAN_POINT('',(-6.331800772228,-4.168199227772,8.902289665364));
#393=CARTESIAN_POINT('',(-6.,-4.5,9.));
#394=CARTESIAN_POINT('',(-6.5,-4.,4.371283276094));
#395=CARTESIAN_POINT('',(-6.,-4.5,9.));
#396=CARTESIAN_POINT('',(10.1856576940609,-4.5,9.00000000000221));
#397=CARTESIAN_POINT('',(8.64338514619057,-0.2626410000796,23.38905100088));
#398=CARTESIAN_POINT('',(6.18198511713467,6.49999999999542,10.));
#399=CARTESIAN_POINT('',(-6.490813591724,6.5,10.));
#400=CARTESIAN_POINT('',(-6.490813591724,6.5,10.));
#401=CARTESIAN_POINT('',(-7.,5.928048721973,9.726131811871));
#402=CARTESIAN_POINT('',(-6.828661187726,6.119452094485,9.81285697467));
#403=CARTESIAN_POINT('',(-6.65891245887,6.31011183925,9.904089882006));
#404=CARTESIAN_POINT('',(-6.490813591724,6.5,10.));
#405=CARTESIAN_POINT('',(-3.5,-8.31159092541673E-14,8.39135052030375));
#406=CARTESIAN_POINT('',(-3.50000000000001,0.386913024765453,8.3981261739381));
#407=CARTESIAN_POINT('',(-3.43394229060749,0.77885290676121,8.42077827061221));
#408=CARTESIAN_POINT('',(-3.30804744341197,1.1431632045056,8.45507247744658));
#409=CARTESIAN_POINT('',(-3.18224029991293,1.50721970822675,8.48934279348023));
#410=CARTESIAN_POINT('',(-2.99348297390564,1.85368880228961,8.53594099539974));
#411=CARTESIAN_POINT('',(-2.75724080467191,2.15583467479587,8.58530230637577));
#412=CARTESIAN_POINT('',(-2.51679398583975,2.46335815421126,8.63554215236122));
#413=CARTESIAN_POINT('',(-2.22056525633359,2.73347052442596,8.68972846720091));
#414=CARTESIAN_POINT('',(-1.89171545961467,2.94472623852454,8.73596957079408));
#415=CARTESIAN_POINT('',(-1.55924167940176,3.15831002832376,8.78272025960772));
#416=CARTESIAN_POINT('',(-1.18378982361587,3.3175989652167,8.82228794913955));
#417=CARTESIAN_POINT('',(-0.79695851407234,3.40805767657292,8.84511854692445));
#418=CARTESIAN_POINT('',(-0.418596688262428,3.49653583835755,8.86744927985406));
#419=CARTESIAN_POINT('',(-0.0186355924945633,3.52150907086649,8.87416225007376));
#420=CARTESIAN_POINT('',(0.368272032467198,3.48057117584205,8.86361253568963));
#421=CARTESIAN_POINT('',(0.746110317424209,3.44059288891293,8.85331011275319));
#422=CARTESIAN_POINT('',(1.12176460540717,3.33687238252358,8.82642855652838));
#423=CARTESIAN_POINT('',(1.46527170089498,3.17851834076136,8.78910502868739));
#424=CARTESIAN_POINT('',(1.81239724413963,3.01849622333278,8.75138834088736));
#425=CARTESIAN_POINT('',(2.13609597296035,2.79859519577882,8.70231536728662));
#426=CARTESIAN_POINT('',(2.41205820132269,2.53613391472768,8.65246866384386));
#427=CARTESIAN_POINT('',(2.69591728733556,2.26616211534389,8.60119556112982));
#428=CARTESIAN_POINT('',(2.93707319589722,1.94365357177894,8.5480143150536));
#429=CARTESIAN_POINT('',(3.11591400885388,1.59407650049429,8.50440790394742));
#430=CARTESIAN_POINT('',(3.29572660716929,1.24259989702786,8.46056454428817));
#431=CARTESIAN_POINT('',(3.41741664369286,0.853635688902201,8.42546206085456));
#432=CARTESIAN_POINT('',(3.46959902642441,0.460307066896428,8.40648292686626));
#433=CARTESIAN_POINT('',(3.48981005282113,0.3079649401898,8.39913202110181));
#434=CARTESIAN_POINT('',(3.5,0.153829087133346,8.39404438829627));
#435=CARTESIAN_POINT('',(3.5,-8.31007197215696E-14,8.39135052030374));
#436=CARTESIAN_POINT('',(-3.5,-8.31159092541673E-14,8.39135052030375));
#437=CARTESIAN_POINT('',(3.5,-8.31007197215696E-14,8.39135052030374));
#438=CARTESIAN_POINT('',(3.5,-8.31007197215696E-14,8.39135052030374));
#439=CARTESIAN_POINT('',(3.49999999999999,-0.384998906118925,8.38460838687712));
#440=CARTESIAN_POINT('',(3.43457483525592,-0.775572400785815,8.39340117789481));
#441=CARTESIAN_POINT('',(3.30944538768414,-1.13910983927634,8.4146794823849));
#442=CARTESIAN_POINT('',(3.18438383079035,-1.50245003560165,8.43594624204246));
#443=CARTESIAN_POINT('',(2.99647080288964,-1.84872986147132,8.4700344656204));
#444=CARTESIAN_POINT('',(2.76114866036023,-2.15082730022447,8.50836712896251));
#445=CARTESIAN_POINT('',(2.52237658860888,-2.45735362429469,8.54726176651579));
#446=CARTESIAN_POINT('',(2.22831089487115,-2.72683852222566,8.5912877107724));
#447=CARTESIAN_POINT('',(1.90209706282228,-2.93803110323952,8.62956971609516));
#448=CARTESIAN_POINT('',(1.57142196957811,-3.15211192863129,8.6683752615258));
#449=CARTESIAN_POINT('',(1.19827895527787,-3.31216280497993,8.7020072712171));
#450=CARTESIAN_POINT('',(0.813771826792748,-3.40408216909028,8.72169447757817));
#451=CARTESIAN_POINT('',(0.434628695927345,-3.49471922862481,8.74110704110367));
#452=CARTESIAN_POINT('',(0.033768530289658,-3.52152321041867,8.74728458886592));
#453=CARTESIAN_POINT('',(-0.354438261276563,-3.48200711069682,8.7386011154393));
#454=CARTESIAN_POINT('',(-0.73560551111126,-3.44320757554598,8.73007510364109));
#455=CARTESIAN_POINT('',(-1.11496252682861,-3.3395695162255,8.70712462974119));
#456=CARTESIAN_POINT('',(-1.46197190442344,-3.18003744485446,8.67549269624087));
#457=CARTESIAN_POINT('',(-1.81172897563632,-3.01924216481333,8.64361029440333));
#458=CARTESIAN_POINT('',(-2.13815657960572,-2.79747037846501,8.60234748586538));
#459=CARTESIAN_POINT('',(-2.41607887094327,-2.53230386987452,8.56175757094228));
#460=CARTESIAN_POINT('',(-2.69982006541728,-2.26158552799606,8.52031781852642));
#461=CARTESIAN_POINT('',(-2.94083658847823,-1.93804786384461,8.47876181014331));
#462=CARTESIAN_POINT('',(-3.11917006430619,-1.58769584931627,8.44769130216066));
#463=CARTESIAN_POINT('',(-3.29745055478724,-1.23744792922643,8.4166300256565));
#464=CARTESIAN_POINT('',(-3.41793306590841,-0.850370254115171,8.39547513214009));
#465=CARTESIAN_POINT('',(-3.46969534949979,-0.459580440901804,8.39034389471086));
#466=CARTESIAN_POINT('',(-3.48985301091489,-0.30739610526839,8.38834564927881));
#467=CARTESIAN_POINT('',(-3.5,-0.153502997104695,8.38866236282741));
#468=CARTESIAN_POINT('',(-3.5,-8.31159092541673E-14,8.39135052030375));
#469=CARTESIAN_POINT('',(-7.,-0.2626410000796,23.38905100088));
#470=CARTESIAN_POINT('',(-3.5,0.,0.));
#471=CARTESIAN_POINT('',(-3.5,0.,0.));
#472=CARTESIAN_POINT('',(3.5,0.,0.));
#473=CARTESIAN_POINT('',(3.5,0.,0.));
#474=CARTESIAN_POINT('',(0.,0.,0.));
#475=CARTESIAN_POINT('',(0.,0.,0.));
#476=CARTESIAN_POINT('',(-6.2,4.852453569632,0.));
#477=CARTESIAN_POINT('',(-6.2,4.852453569632,0.));
#478=CARTESIAN_POINT('',(-6.2,4.852453569632,0.));
#479=CARTESIAN_POINT('',(6.781642977359,4.852453569632,0.));
#480=CARTESIAN_POINT('',(6.781642977359,4.852453569632,0.));
#481=CARTESIAN_POINT('',(10.18565769406,-4.5,0.));
#482=CARTESIAN_POINT('',(-6.,-4.5,0.));
#483=CARTESIAN_POINT('',(0.,0.,0.));
#484=CARTESIAN_POINT('',(-7.,-4.5,0.));
#485=CARTESIAN_POINT('',(0.,0.,0.));
#486=CARTESIAN_POINT('',(10.18565769406,-4.5,9.));
#487=CARTESIAN_POINT('',(-7.,-4.5,9.));
#488=CARTESIAN_POINT('',(6.781642977359,4.852453569632,0.));
#489=CARTESIAN_POINT('',(6.488149383668,5.658820591051,4.148398698389));
#490=CARTESIAN_POINT('',(6.488149383668,5.658820591051,4.148398698389));
#491=CARTESIAN_POINT('',(6.416692768484,5.855146027741,4.110236899314));
#492=CARTESIAN_POINT('',(6.416692768484,5.855146027741,4.110236899314));
#493=CARTESIAN_POINT('',(6.,7.,10.));
#494=CARTESIAN_POINT('',(6.181985117133,6.5,10.));
#495=CARTESIAN_POINT('',(6.,7.,0.));
#496=CARTESIAN_POINT('',(-6.,7.,10.));
#497=CARTESIAN_POINT('',(-6.,7.,10.));
#498=CARTESIAN_POINT('',(-6.490813591724,6.5,10.));
#499=CARTESIAN_POINT('',(-7.,7.,10.));
#500=CARTESIAN_POINT('',(-6.,5.855146027741,4.110236899314));
#501=CARTESIAN_POINT('',(-6.,5.855146027741,4.110236899314));
#502=CARTESIAN_POINT('',(-6.2,5.658820591051,4.148398698389));
#503=CARTESIAN_POINT('',(-6.2,5.658820591051,4.148398698389));
#504=CARTESIAN_POINT('',(-6.2,4.852453569632,0.));
#505=CARTESIAN_POINT('',(-7.,6.247545396884,11.36979971387));
#506=CARTESIAN_POINT('',(-6.2,5.658820591051,4.148398698389));
#507=CARTESIAN_POINT('',(-7.,4.852453569632,0.));
#508=CARTESIAN_POINT('',(-6.,5.855146027741,4.110236899314));
#509=CARTESIAN_POINT('',(-7.,5.658820591051,4.148398698389));
#510=CARTESIAN_POINT('',(-7.,5.855146027741,4.110236899314));
#511=MECHANICAL_DESIGN_GEOMETRIC_PRESENTATION_REPRESENTATION('',(#277,#278,
#279,#280),#512);
#512=(
GEOMETRIC_REPRESENTATION_CONTEXT(3)
GLOBAL_UNCERTAINTY_ASSIGNED_CONTEXT((#513))
GLOBAL_UNIT_ASSIGNED_CONTEXT((#519,#515,#514))
REPRESENTATION_CONTEXT('CWSE545TR','TOP_LEVEL_ASSEMBLY_PART')
);
#513=UNCERTAINTY_MEASURE_WITH_UNIT(LENGTH_MEASURE(0.0508),#519,
'DISTANCE_ACCURACY_VALUE','Maximum Tolerance applied to model');
#514=(
NAMED_UNIT(*)
SI_UNIT($,.STERADIAN.)
SOLID_ANGLE_UNIT()
);
#515=(
CONVERSION_BASED_UNIT('DEGREE',#517)
NAMED_UNIT(#516)
PLANE_ANGLE_UNIT()
);
#516=DIMENSIONAL_EXPONENTS(0.,0.,0.,0.,0.,0.,0.);
#517=PLANE_ANGLE_MEASURE_WITH_UNIT(PLANE_ANGLE_MEASURE(0.0174532925),#518);
#518=(
NAMED_UNIT(*)
PLANE_ANGLE_UNIT()
SI_UNIT($,.RADIAN.)
);
#519=(
LENGTH_UNIT()
NAMED_UNIT(*)
SI_UNIT(.MILLI.,.METRE.)
);
ENDSEC;
END-ISO-10303-21;
