ISO-10303-21;
HEADER;
/* Generated by software containing ST-Developer
 * from STEP Tools, Inc. (www.steptools.com) 
 */
/* OPTION: using custom schema-name function */

FILE_DESCRIPTION(
/* description */ (''),
/* implementation_level */ '2;1');

FILE_NAME(
/* name */ 'CWSE545SN.stp',
/* time_stamp */ '2022-02-03T10:33:33+09:00',
/* author */ (''),
/* organization */ (''),
/* preprocessor_version */ 'ST-DEVELOPER v16',
/* originating_system */ 'SIEMENS PLM Software NX 10.0',
/* authorisation */ '');

FILE_SCHEMA (('AUTOMOTIVE_DESIGN { 1 0 10303 214 3 1 1 1 }'));
ENDSEC;

DATA;
#10=CONSTRUCTIVE_GEOMETRY_REPRESENTATION_RELATIONSHIP(
'supplemental geometry','',#26,#11);
#11=CONSTRUCTIVE_GEOMETRY_REPRESENTATION('supplemental geometry',(#329,
#330),#580);
#12=GEOMETRICALLY_BOUNDED_WIREFRAME_SHAPE_REPRESENTATION(
'CWSE545SN-None',(#27),#580);
#13=SHAPE_REPRESENTATION_RELATIONSHIP('None',
'relationship between CWSE545SN-None and CWSE545SN-None',#26,#15);
#14=SHAPE_REPRESENTATION_RELATIONSHIP('None',
'relationship between CWSE545SN-None and CWSE545SN-None',#26,#12);
#15=ADVANCED_BREP_SHAPE_REPRESENTATION('CWSE545SN-None',(#33),#580);
#16=SHAPE_DEFINITION_REPRESENTATION(#17,#26);
#17=PRODUCT_DEFINITION_SHAPE('','',#18);
#18=PRODUCT_DEFINITION('part definition','',#20,#19);
#19=PRODUCT_DEFINITION_CONTEXT('part definition',#25,'design');
#20=PRODUCT_DEFINITION_FORMATION_WITH_SPECIFIED_SOURCE(' ',' ',#22,
 .NOT_KNOWN.);
#21=PRODUCT_RELATED_PRODUCT_CATEGORY('part','',(#22));
#22=PRODUCT('CWSE545SN','CWSE545SN','NOT SPECIFIED',(#23));
#23=PRODUCT_CONTEXT('',#25,'mechanical');
#24=APPLICATION_PROTOCOL_DEFINITION('international standard',
'automotive_design',2010,#25);
#25=APPLICATION_CONTEXT(
'core data for automotive mechanical design processes');
#26=SHAPE_REPRESENTATION('CWSE545SN-None',(#328),#580);
#27=GEOMETRIC_CURVE_SET('None',(#430));
#28=SURFACE_STYLE_USAGE(.BOTH.,#29);
#29=SURFACE_SIDE_STYLE('',(#30));
#30=SURFACE_STYLE_FILL_AREA(#31);
#31=FILL_AREA_STYLE('',(#32));
#32=FILL_AREA_STYLE_COLOUR('',#311);
#33=MANIFOLD_SOLID_BREP('',#34);
#34=CLOSED_SHELL('',(#48,#49,#50,#51,#52,#53,#54,#55,#56,#57,#58,#59,#60,
#61,#62));
#35=CYLINDRICAL_SURFACE('',#337,15.);
#36=CYLINDRICAL_SURFACE('',#339,3.5);
#37=CYLINDRICAL_SURFACE('',#342,3.5);
#38=FACE_BOUND('',#90,.T.);
#39=FACE_BOUND('',#91,.T.);
#40=FACE_BOUND('',#93,.T.);
#41=FACE_BOUND('',#94,.T.);
#42=ELLIPSE('',#335,21.2132034355971,15.);
#43=ELLIPSE('',#336,21.2132034355971,15.);
#44=B_SPLINE_CURVE_WITH_KNOTS('',3,(#446,#447,#448,#449),.UNSPECIFIED.,
 .F.,.F.,(4,4),(0.,1.),.UNSPECIFIED.);
#45=B_SPLINE_CURVE_WITH_KNOTS('',3,(#461,#462,#463,#464),.UNSPECIFIED.,
 .F.,.F.,(4,4),(0.,1.),.UNSPECIFIED.);
#46=B_SPLINE_CURVE_WITH_KNOTS('',3,(#465,#466,#467,#468,#469,#470,#471,
#472,#473,#474,#475,#476,#477,#478,#479,#480,#481,#482,#483,#484,#485,#486,
#487,#488,#489,#490,#491,#492,#493,#494,#495),.UNSPECIFIED.,.F.,.F.,(4,
3,3,3,3,3,3,3,3,3,4),(0.,0.105655502778262,0.21118309639978,0.318620275183224,
0.427326731903174,0.533633824677904,0.637351803511424,0.742135673682432,
0.849993370061776,0.958507627657138,1.),.UNSPECIFIED.);
#47=B_SPLINE_CURVE_WITH_KNOTS('',3,(#498,#499,#500,#501,#502,#503,#504,
#505,#506,#507,#508,#509,#510,#511,#512,#513,#514,#515,#516,#517,#518,#519,
#520,#521,#522,#523,#524,#525,#526,#527,#528),.UNSPECIFIED.,.F.,.F.,(4,
3,3,3,3,3,3,3,3,3,4),(0.,0.105315735870352,0.210529391057872,0.317301804106273,
0.425609158710919,0.532400949354839,0.637181124316151,0.742771456127016,
0.850637850099645,0.958520951210187,1.),.UNSPECIFIED.);
#48=ADVANCED_FACE('',(#75),#63,.F.);
#49=ADVANCED_FACE('',(#76),#64,.T.);
#50=ADVANCED_FACE('',(#38,#39),#35,.F.);
#51=ADVANCED_FACE('',(#77),#36,.F.);
#52=ADVANCED_FACE('',(#40,#41),#65,.T.);
#53=ADVANCED_FACE('',(#78),#37,.F.);
#54=ADVANCED_FACE('',(#79),#66,.T.);
#55=ADVANCED_FACE('',(#80),#67,.T.);
#56=ADVANCED_FACE('',(#81),#68,.F.);
#57=ADVANCED_FACE('',(#82),#69,.T.);
#58=ADVANCED_FACE('',(#83),#70,.F.);
#59=ADVANCED_FACE('',(#84),#71,.T.);
#60=ADVANCED_FACE('',(#85),#72,.T.);
#61=ADVANCED_FACE('',(#86),#73,.T.);
#62=ADVANCED_FACE('',(#87),#74,.T.);
#63=PLANE('',#332);
#64=PLANE('',#333);
#65=PLANE('',#341);
#66=PLANE('',#343);
#67=PLANE('',#344);
#68=PLANE('',#345);
#69=PLANE('',#346);
#70=PLANE('',#347);
#71=PLANE('',#348);
#72=PLANE('',#349);
#73=PLANE('',#350);
#74=PLANE('',#351);
#75=FACE_OUTER_BOUND('',#88,.T.);
#76=FACE_OUTER_BOUND('',#89,.T.);
#77=FACE_OUTER_BOUND('',#92,.T.);
#78=FACE_OUTER_BOUND('',#95,.T.);
#79=FACE_OUTER_BOUND('',#96,.T.);
#80=FACE_OUTER_BOUND('',#97,.T.);
#81=FACE_OUTER_BOUND('',#98,.T.);
#82=FACE_OUTER_BOUND('',#99,.T.);
#83=FACE_OUTER_BOUND('',#100,.T.);
#84=FACE_OUTER_BOUND('',#101,.T.);
#85=FACE_OUTER_BOUND('',#102,.T.);
#86=FACE_OUTER_BOUND('',#103,.T.);
#87=FACE_OUTER_BOUND('',#104,.T.);
#88=EDGE_LOOP('',(#163,#164,#165,#166));
#89=EDGE_LOOP('',(#167,#168,#169,#170));
#90=EDGE_LOOP('',(#171,#172,#173,#174,#175,#176,#177,#178));
#91=EDGE_LOOP('',(#179,#180));
#92=EDGE_LOOP('',(#181,#182,#183,#184));
#93=EDGE_LOOP('',(#185,#186,#187,#188,#189,#190,#191,#192));
#94=EDGE_LOOP('',(#193,#194));
#95=EDGE_LOOP('',(#195,#196,#197,#198));
#96=EDGE_LOOP('',(#199,#200,#201,#202));
#97=EDGE_LOOP('',(#203,#204,#205,#206));
#98=EDGE_LOOP('',(#207,#208,#209,#210,#211,#212,#213));
#99=EDGE_LOOP('',(#214,#215,#216,#217));
#100=EDGE_LOOP('',(#218,#219,#220,#221,#222,#223,#224));
#101=EDGE_LOOP('',(#225,#226,#227,#228));
#102=EDGE_LOOP('',(#229,#230,#231,#232));
#103=EDGE_LOOP('',(#233,#234,#235,#236));
#104=EDGE_LOOP('',(#237,#238,#239,#240));
#105=LINE('',#436,#134);
#106=LINE('',#438,#135);
#107=LINE('',#440,#136);
#108=LINE('',#442,#137);
#109=LINE('',#444,#138);
#110=LINE('',#456,#139);
#111=LINE('',#459,#140);
#112=LINE('',#530,#141);
#113=LINE('',#532,#142);
#114=LINE('',#536,#143);
#115=LINE('',#538,#144);
#116=LINE('',#540,#145);
#117=LINE('',#542,#146);
#118=LINE('',#544,#147);
#119=LINE('',#546,#148);
#120=LINE('',#550,#149);
#121=LINE('',#551,#150);
#122=LINE('',#553,#151);
#123=LINE('',#555,#152);
#124=LINE('',#557,#153);
#125=LINE('',#559,#154);
#126=LINE('',#561,#155);
#127=LINE('',#563,#156);
#128=LINE('',#565,#157);
#129=LINE('',#567,#158);
#130=LINE('',#569,#159);
#131=LINE('',#571,#160);
#132=LINE('',#573,#161);
#133=LINE('',#575,#162);
#134=VECTOR('',#360,1.);
#135=VECTOR('',#361,1.);
#136=VECTOR('',#362,1.);
#137=VECTOR('',#365,1.);
#138=VECTOR('',#366,1.);
#139=VECTOR('',#373,1.);
#140=VECTOR('',#376,1.);
#141=VECTOR('',#379,1.);
#142=VECTOR('',#380,1.);
#143=VECTOR('',#385,1.);
#144=VECTOR('',#386,1.);
#145=VECTOR('',#387,1.);
#146=VECTOR('',#388,1.);
#147=VECTOR('',#389,1.);
#148=VECTOR('',#390,1.);
#149=VECTOR('',#397,1.);
#150=VECTOR('',#398,1.);
#151=VECTOR('',#401,1.);
#152=VECTOR('',#404,1.);
#153=VECTOR('',#405,1.);
#154=VECTOR('',#406,1.);
#155=VECTOR('',#407,1.);
#156=VECTOR('',#410,1.);
#157=VECTOR('',#411,1.);
#158=VECTOR('',#414,1.);
#159=VECTOR('',#415,1.);
#160=VECTOR('',#416,1.);
#161=VECTOR('',#419,1.);
#162=VECTOR('',#422,1.);
#163=ORIENTED_EDGE('',*,*,#267,.F.);
#164=ORIENTED_EDGE('',*,*,#268,.F.);
#165=ORIENTED_EDGE('',*,*,#269,.F.);
#166=ORIENTED_EDGE('',*,*,#270,.T.);
#167=ORIENTED_EDGE('',*,*,#270,.F.);
#168=ORIENTED_EDGE('',*,*,#271,.F.);
#169=ORIENTED_EDGE('',*,*,#272,.T.);
#170=ORIENTED_EDGE('',*,*,#273,.F.);
#171=ORIENTED_EDGE('',*,*,#274,.F.);
#172=ORIENTED_EDGE('',*,*,#275,.T.);
#173=ORIENTED_EDGE('',*,*,#276,.F.);
#174=ORIENTED_EDGE('',*,*,#277,.F.);
#175=ORIENTED_EDGE('',*,*,#267,.T.);
#176=ORIENTED_EDGE('',*,*,#273,.T.);
#177=ORIENTED_EDGE('',*,*,#278,.T.);
#178=ORIENTED_EDGE('',*,*,#279,.T.);
#179=ORIENTED_EDGE('',*,*,#280,.T.);
#180=ORIENTED_EDGE('',*,*,#281,.T.);
#181=ORIENTED_EDGE('',*,*,#282,.T.);
#182=ORIENTED_EDGE('',*,*,#281,.F.);
#183=ORIENTED_EDGE('',*,*,#283,.F.);
#184=ORIENTED_EDGE('',*,*,#284,.F.);
#185=ORIENTED_EDGE('',*,*,#285,.F.);
#186=ORIENTED_EDGE('',*,*,#271,.T.);
#187=ORIENTED_EDGE('',*,*,#269,.T.);
#188=ORIENTED_EDGE('',*,*,#286,.F.);
#189=ORIENTED_EDGE('',*,*,#287,.T.);
#190=ORIENTED_EDGE('',*,*,#288,.T.);
#191=ORIENTED_EDGE('',*,*,#289,.F.);
#192=ORIENTED_EDGE('',*,*,#290,.T.);
#193=ORIENTED_EDGE('',*,*,#291,.T.);
#194=ORIENTED_EDGE('',*,*,#284,.T.);
#195=ORIENTED_EDGE('',*,*,#283,.T.);
#196=ORIENTED_EDGE('',*,*,#280,.F.);
#197=ORIENTED_EDGE('',*,*,#282,.F.);
#198=ORIENTED_EDGE('',*,*,#291,.F.);
#199=ORIENTED_EDGE('',*,*,#292,.T.);
#200=ORIENTED_EDGE('',*,*,#290,.F.);
#201=ORIENTED_EDGE('',*,*,#293,.F.);
#202=ORIENTED_EDGE('',*,*,#279,.F.);
#203=ORIENTED_EDGE('',*,*,#289,.T.);
#204=ORIENTED_EDGE('',*,*,#294,.T.);
#205=ORIENTED_EDGE('',*,*,#274,.T.);
#206=ORIENTED_EDGE('',*,*,#293,.T.);
#207=ORIENTED_EDGE('',*,*,#294,.F.);
#208=ORIENTED_EDGE('',*,*,#288,.F.);
#209=ORIENTED_EDGE('',*,*,#295,.T.);
#210=ORIENTED_EDGE('',*,*,#296,.T.);
#211=ORIENTED_EDGE('',*,*,#297,.T.);
#212=ORIENTED_EDGE('',*,*,#298,.F.);
#213=ORIENTED_EDGE('',*,*,#275,.F.);
#214=ORIENTED_EDGE('',*,*,#276,.T.);
#215=ORIENTED_EDGE('',*,*,#298,.T.);
#216=ORIENTED_EDGE('',*,*,#299,.F.);
#217=ORIENTED_EDGE('',*,*,#300,.F.);
#218=ORIENTED_EDGE('',*,*,#268,.T.);
#219=ORIENTED_EDGE('',*,*,#277,.T.);
#220=ORIENTED_EDGE('',*,*,#300,.T.);
#221=ORIENTED_EDGE('',*,*,#301,.F.);
#222=ORIENTED_EDGE('',*,*,#302,.F.);
#223=ORIENTED_EDGE('',*,*,#303,.F.);
#224=ORIENTED_EDGE('',*,*,#286,.T.);
#225=ORIENTED_EDGE('',*,*,#304,.T.);
#226=ORIENTED_EDGE('',*,*,#295,.F.);
#227=ORIENTED_EDGE('',*,*,#287,.F.);
#228=ORIENTED_EDGE('',*,*,#303,.T.);
#229=ORIENTED_EDGE('',*,*,#305,.T.);
#230=ORIENTED_EDGE('',*,*,#296,.F.);
#231=ORIENTED_EDGE('',*,*,#304,.F.);
#232=ORIENTED_EDGE('',*,*,#302,.T.);
#233=ORIENTED_EDGE('',*,*,#299,.T.);
#234=ORIENTED_EDGE('',*,*,#297,.F.);
#235=ORIENTED_EDGE('',*,*,#305,.F.);
#236=ORIENTED_EDGE('',*,*,#301,.T.);
#237=ORIENTED_EDGE('',*,*,#278,.F.);
#238=ORIENTED_EDGE('',*,*,#272,.F.);
#239=ORIENTED_EDGE('',*,*,#285,.T.);
#240=ORIENTED_EDGE('',*,*,#292,.F.);
#241=VERTEX_POINT('',#434);
#242=VERTEX_POINT('',#435);
#243=VERTEX_POINT('',#437);
#244=VERTEX_POINT('',#439);
#245=VERTEX_POINT('',#443);
#246=VERTEX_POINT('',#445);
#247=VERTEX_POINT('',#452);
#248=VERTEX_POINT('',#453);
#249=VERTEX_POINT('',#455);
#250=VERTEX_POINT('',#457);
#251=VERTEX_POINT('',#460);
#252=VERTEX_POINT('',#496);
#253=VERTEX_POINT('',#497);
#254=VERTEX_POINT('',#531);
#255=VERTEX_POINT('',#533);
#256=VERTEX_POINT('',#537);
#257=VERTEX_POINT('',#539);
#258=VERTEX_POINT('',#541);
#259=VERTEX_POINT('',#543);
#260=VERTEX_POINT('',#545);
#261=VERTEX_POINT('',#556);
#262=VERTEX_POINT('',#558);
#263=VERTEX_POINT('',#560);
#264=VERTEX_POINT('',#564);
#265=VERTEX_POINT('',#568);
#266=VERTEX_POINT('',#570);
#267=EDGE_CURVE('',#241,#242,#306,.T.);
#268=EDGE_CURVE('',#243,#241,#105,.T.);
#269=EDGE_CURVE('',#244,#243,#106,.T.);
#270=EDGE_CURVE('',#244,#242,#107,.T.);
#271=EDGE_CURVE('',#245,#244,#108,.T.);
#272=EDGE_CURVE('',#245,#246,#109,.T.);
#273=EDGE_CURVE('',#242,#246,#44,.T.);
#274=EDGE_CURVE('',#247,#248,#307,.T.);
#275=EDGE_CURVE('',#247,#249,#42,.T.);
#276=EDGE_CURVE('',#250,#249,#110,.T.);
#277=EDGE_CURVE('',#241,#250,#43,.T.);
#278=EDGE_CURVE('',#246,#251,#111,.T.);
#279=EDGE_CURVE('',#251,#248,#45,.T.);
#280=EDGE_CURVE('',#252,#253,#46,.T.);
#281=EDGE_CURVE('',#253,#252,#47,.T.);
#282=EDGE_CURVE('',#254,#252,#112,.T.);
#283=EDGE_CURVE('',#255,#253,#113,.T.);
#284=EDGE_CURVE('',#254,#255,#308,.T.);
#285=EDGE_CURVE('',#245,#256,#114,.T.);
#286=EDGE_CURVE('',#257,#243,#115,.T.);
#287=EDGE_CURVE('',#257,#258,#116,.T.);
#288=EDGE_CURVE('',#258,#259,#117,.T.);
#289=EDGE_CURVE('',#260,#259,#118,.T.);
#290=EDGE_CURVE('',#260,#256,#119,.T.);
#291=EDGE_CURVE('',#255,#254,#309,.T.);
#292=EDGE_CURVE('',#251,#256,#120,.T.);
#293=EDGE_CURVE('',#248,#260,#121,.T.);
#294=EDGE_CURVE('',#259,#247,#122,.T.);
#295=EDGE_CURVE('',#258,#261,#123,.T.);
#296=EDGE_CURVE('',#261,#262,#124,.T.);
#297=EDGE_CURVE('',#262,#263,#125,.T.);
#298=EDGE_CURVE('',#249,#263,#126,.T.);
#299=EDGE_CURVE('',#264,#263,#127,.T.);
#300=EDGE_CURVE('',#250,#264,#128,.T.);
#301=EDGE_CURVE('',#265,#264,#129,.T.);
#302=EDGE_CURVE('',#266,#265,#130,.T.);
#303=EDGE_CURVE('',#257,#266,#131,.T.);
#304=EDGE_CURVE('',#266,#261,#132,.T.);
#305=EDGE_CURVE('',#265,#262,#133,.T.);
#306=CIRCLE('',#331,15.);
#307=CIRCLE('',#334,15.);
#308=CIRCLE('',#338,3.5);
#309=CIRCLE('',#340,3.5);
#310=COLOUR_RGB('Strong Stone',0.576470588235294,0.54508278019379,0.392156862745098);
#311=COLOUR_RGB('spare part',0.301960784313725,0.301960784313725,0.301960784313725);
#312=CURVE_STYLE('',#314,POSITIVE_LENGTH_MEASURE(0.13),#327);
#313=CURVE_STYLE('',#315,POSITIVE_LENGTH_MEASURE(0.13),#310);
#314=DRAUGHTING_PRE_DEFINED_CURVE_FONT('continuous');
#315=DRAUGHTING_PRE_DEFINED_CURVE_FONT('continuous');
#316=PRESENTATION_LAYER_ASSIGNMENT('1','Layer 1',(#430,#329,#330,#33));
#317=STYLED_ITEM('',(#321),#430);
#318=STYLED_ITEM('',(#322),#329);
#319=STYLED_ITEM('',(#323),#330);
#320=STYLED_ITEM('',(#324),#33);
#321=PRESENTATION_STYLE_ASSIGNMENT((#325));
#322=PRESENTATION_STYLE_ASSIGNMENT((#312));
#323=PRESENTATION_STYLE_ASSIGNMENT((#313));
#324=PRESENTATION_STYLE_ASSIGNMENT((#28));
#325=POINT_STYLE('',#326,POSITIVE_LENGTH_MEASURE(3.),#327);
#326=PRE_DEFINED_POINT_MARKER_SYMBOL('plus');
#327=DRAUGHTING_PRE_DEFINED_COLOUR('yellow');
#328=AXIS2_PLACEMENT_3D('',#429,#352,#353);
#329=AXIS2_PLACEMENT_3D('PCS',#431,#354,#355);
#330=AXIS2_PLACEMENT_3D('',#432,#356,#357);
#331=AXIS2_PLACEMENT_3D('',#433,#358,#359);
#332=AXIS2_PLACEMENT_3D('',#441,#363,#364);
#333=AXIS2_PLACEMENT_3D('',#450,#367,#368);
#334=AXIS2_PLACEMENT_3D('',#451,#369,#370);
#335=AXIS2_PLACEMENT_3D('',#454,#371,#372);
#336=AXIS2_PLACEMENT_3D('',#458,#374,#375);
#337=AXIS2_PLACEMENT_3D('',#529,#377,#378);
#338=AXIS2_PLACEMENT_3D('',#534,#381,#382);
#339=AXIS2_PLACEMENT_3D('',#535,#383,#384);
#340=AXIS2_PLACEMENT_3D('',#547,#391,#392);
#341=AXIS2_PLACEMENT_3D('',#548,#393,#394);
#342=AXIS2_PLACEMENT_3D('',#549,#395,#396);
#343=AXIS2_PLACEMENT_3D('',#552,#399,#400);
#344=AXIS2_PLACEMENT_3D('',#554,#402,#403);
#345=AXIS2_PLACEMENT_3D('',#562,#408,#409);
#346=AXIS2_PLACEMENT_3D('',#566,#412,#413);
#347=AXIS2_PLACEMENT_3D('',#572,#417,#418);
#348=AXIS2_PLACEMENT_3D('',#574,#420,#421);
#349=AXIS2_PLACEMENT_3D('',#576,#423,#424);
#350=AXIS2_PLACEMENT_3D('',#577,#425,#426);
#351=AXIS2_PLACEMENT_3D('',#578,#427,#428);
#352=DIRECTION('',(0.,0.,1.));
#353=DIRECTION('',(1.,0.,0.));
#354=DIRECTION('',(0.,0.,1.));
#355=DIRECTION('',(1.,0.,0.));
#356=DIRECTION('',(0.,0.,1.));
#357=DIRECTION('',(1.,0.,0.));
#358=DIRECTION('',(-1.,0.,0.));
#359=DIRECTION('',(0.,0.338979948380306,-0.940793598296717));
#360=DIRECTION('',(0.,0.190808995376495,0.981627183447674));
#361=DIRECTION('',(0.,1.,0.));
#362=DIRECTION('',(0.,0.,1.));
#363=DIRECTION('',(1.,0.,0.));
#364=DIRECTION('',(0.,-1.,0.));
#365=DIRECTION('',(-0.707106781186547,0.707106781186547,0.));
#366=DIRECTION('',(0.,0.,1.));
#367=DIRECTION('',(-0.707106781186547,-0.707106781186547,0.));
#368=DIRECTION('',(-0.707106781186547,0.707106781186547,0.));
#369=DIRECTION('',(-1.,0.,0.));
#370=DIRECTION('',(0.,0.338979948380306,-0.940793598296717));
#371=DIRECTION('',(0.707106781186525,0.694115238012925,-0.134922334542105));
#372=DIRECTION('',(0.70710678118657,-0.694115238012882,0.134922334542096));
#373=DIRECTION('',(1.,0.,0.));
#374=DIRECTION('',(0.707106781186525,-0.694115238012925,0.134922334542105));
#375=DIRECTION('',(0.70710678118657,0.694115238012882,-0.134922334542096));
#376=DIRECTION('',(1.,0.,0.));
#377=DIRECTION('',(1.,0.,0.));
#378=DIRECTION('',(0.,-1.,0.));
#379=DIRECTION('',(0.,0.,1.));
#380=DIRECTION('',(0.,0.,1.));
#381=DIRECTION('',(0.,0.,1.));
#382=DIRECTION('',(-1.,0.,0.));
#383=DIRECTION('',(0.,0.,1.));
#384=DIRECTION('',(1.,0.,0.));
#385=DIRECTION('',(1.,0.,0.));
#386=DIRECTION('',(-0.70052067502273,-0.713632106806931,0.));
#387=DIRECTION('',(1.,0.,0.));
#388=DIRECTION('',(0.70052067502273,-0.713632106806931,0.));
#389=DIRECTION('',(0.,1.,0.));
#390=DIRECTION('',(-0.707106781186547,-0.707106781186547,0.));
#391=DIRECTION('',(0.,0.,1.));
#392=DIRECTION('',(1.,0.,0.));
#393=DIRECTION('',(0.,0.,-1.));
#394=DIRECTION('',(0.,-1.,0.));
#395=DIRECTION('',(0.,0.,1.));
#396=DIRECTION('',(1.,0.,0.));
#397=DIRECTION('',(0.,0.,-1.));
#398=DIRECTION('',(0.,0.,-1.));
#399=DIRECTION('',(0.707106781186547,-0.707106781186547,0.));
#400=DIRECTION('',(0.707106781186547,0.707106781186547,0.));
#401=DIRECTION('',(0.,0.190808995376495,0.981627183447674));
#402=DIRECTION('',(1.,0.,0.));
#403=DIRECTION('',(0.,-1.,0.));
#404=DIRECTION('',(0.,0.190808995376495,0.981627183447674));
#405=DIRECTION('',(-0.707106781186525,0.694115238012925,-0.134922334542105));
#406=DIRECTION('',(0.,0.190808995376495,0.981627183447674));
#407=DIRECTION('',(-0.70052067502273,0.713632106806931,0.));
#408=DIRECTION('',(-0.707106781186525,-0.694115238012925,0.134922334542105));
#409=DIRECTION('',(-0.707106781186569,0.694115238012882,-0.134922334542096));
#410=DIRECTION('',(1.,0.,0.));
#411=DIRECTION('',(0.70052067502273,0.713632106806931,0.));
#412=DIRECTION('',(0.,0.,1.));
#413=DIRECTION('',(0.,1.,0.));
#414=DIRECTION('',(0.,0.190808995376495,0.981627183447674));
#415=DIRECTION('',(0.707106781186525,0.694115238012925,-0.134922334542105));
#416=DIRECTION('',(0.,0.190808995376495,0.981627183447674));
#417=DIRECTION('',(0.707106781186525,-0.694115238012925,0.134922334542105));
#418=DIRECTION('',(-0.707106781186569,-0.694115238012882,0.134922334542096));
#419=DIRECTION('',(1.,0.,0.));
#420=DIRECTION('',(0.,0.981627183447674,-0.190808995376495));
#421=DIRECTION('',(0.,-0.190808995376495,-0.981627183447674));
#422=DIRECTION('',(1.,0.,0.));
#423=DIRECTION('',(0.,-0.190808995376495,-0.981627183447674));
#424=DIRECTION('',(0.,-0.981627183447674,0.190808995376495));
#425=DIRECTION('',(0.,0.981627183447674,-0.190808995376495));
#426=DIRECTION('',(0.,-0.190808995376495,-0.981627183447674));
#427=DIRECTION('',(0.,-1.,0.));
#428=DIRECTION('',(0.,0.,1.));
#429=CARTESIAN_POINT('',(0.,0.,0.));
#430=CARTESIAN_POINT('',(0.,0.,0.));
#431=CARTESIAN_POINT('',(0.,0.,0.));
#432=CARTESIAN_POINT('',(0.,0.,0.));
#433=CARTESIAN_POINT('',(-6.,-0.2626410000796,23.38905100088));
#434=CARTESIAN_POINT('',(-6.,4.82205822562566,9.27714702642948));
#435=CARTESIAN_POINT('',(-6.,-3.5,8.742566552188));
#436=CARTESIAN_POINT('',(-6.,3.018763518712,0.));
#437=CARTESIAN_POINT('',(-6.,3.018763518712,0.));
#438=CARTESIAN_POINT('',(-6.,-3.5,0.));
#439=CARTESIAN_POINT('',(-6.,-3.5,0.));
#440=CARTESIAN_POINT('',(-6.,-3.5,0.));
#441=CARTESIAN_POINT('',(-6.,0.,0.));
#442=CARTESIAN_POINT('',(-5.,-4.5,0.));
#443=CARTESIAN_POINT('',(-5.,-4.5,0.));
#444=CARTESIAN_POINT('',(-5.,-4.5,0.));
#445=CARTESIAN_POINT('',(-5.,-4.5,9.));
#446=CARTESIAN_POINT('',(-6.,-3.5,8.742566552188));
#447=CARTESIAN_POINT('',(-5.665147193246,-3.834852806754,8.816580132129));
#448=CARTESIAN_POINT('',(-5.331800772228,-4.168199227772,8.902289665364));
#449=CARTESIAN_POINT('',(-5.,-4.5,9.));
#450=CARTESIAN_POINT('',(-5.5,-4.,4.371283276094));
#451=CARTESIAN_POINT('',(6.,-0.2626410000796,23.38905100088));
#452=CARTESIAN_POINT('',(6.,4.82205822562523,9.27714702642933));
#453=CARTESIAN_POINT('',(6.,-3.5,8.742566552188));
#454=CARTESIAN_POINT('',(13.6839571998223,-0.2626410000796,23.38905100088));
#455=CARTESIAN_POINT('',(4.490813591728,6.49999999999564,10.));
#456=CARTESIAN_POINT('',(-4.490813591724,6.5,10.));
#457=CARTESIAN_POINT('',(-4.49081359172855,6.49999999999537,10.));
#458=CARTESIAN_POINT('',(-13.6839571998231,-0.2626410000796,23.38905100088));
#459=CARTESIAN_POINT('',(-5.,-4.5,9.));
#460=CARTESIAN_POINT('',(5.,-4.5,9.));
#461=CARTESIAN_POINT('',(5.,-4.5,9.));
#462=CARTESIAN_POINT('',(5.331800772228,-4.168199227772,8.902289665364));
#463=CARTESIAN_POINT('',(5.665147193246,-3.834852806754,8.816580132129));
#464=CARTESIAN_POINT('',(6.,-3.5,8.742566552188));
#465=CARTESIAN_POINT('',(-3.5,-8.31159092541673E-14,8.39135052030375));
#466=CARTESIAN_POINT('',(-3.50000000000001,0.386913024765453,8.3981261739381));
#467=CARTESIAN_POINT('',(-3.43394229060749,0.77885290676121,8.42077827061221));
#468=CARTESIAN_POINT('',(-3.30804744341197,1.1431632045056,8.45507247744658));
#469=CARTESIAN_POINT('',(-3.18224029991293,1.50721970822675,8.48934279348023));
#470=CARTESIAN_POINT('',(-2.99348297390564,1.85368880228961,8.53594099539974));
#471=CARTESIAN_POINT('',(-2.75724080467191,2.15583467479587,8.58530230637577));
#472=CARTESIAN_POINT('',(-2.51679398583975,2.46335815421126,8.63554215236122));
#473=CARTESIAN_POINT('',(-2.22056525633359,2.73347052442596,8.68972846720091));
#474=CARTESIAN_POINT('',(-1.89171545961467,2.94472623852454,8.73596957079408));
#475=CARTESIAN_POINT('',(-1.55924167940176,3.15831002832376,8.78272025960772));
#476=CARTESIAN_POINT('',(-1.18378982361587,3.3175989652167,8.82228794913955));
#477=CARTESIAN_POINT('',(-0.79695851407234,3.40805767657292,8.84511854692445));
#478=CARTESIAN_POINT('',(-0.418596688262428,3.49653583835755,8.86744927985406));
#479=CARTESIAN_POINT('',(-0.0186355924945633,3.52150907086649,8.87416225007376));
#480=CARTESIAN_POINT('',(0.368272032467198,3.48057117584205,8.86361253568963));
#481=CARTESIAN_POINT('',(0.746110317424209,3.44059288891293,8.85331011275319));
#482=CARTESIAN_POINT('',(1.12176460540717,3.33687238252358,8.82642855652838));
#483=CARTESIAN_POINT('',(1.46527170089498,3.17851834076136,8.78910502868739));
#484=CARTESIAN_POINT('',(1.81239724413963,3.01849622333278,8.75138834088736));
#485=CARTESIAN_POINT('',(2.13609597296035,2.79859519577882,8.70231536728662));
#486=CARTESIAN_POINT('',(2.41205820132269,2.53613391472768,8.65246866384386));
#487=CARTESIAN_POINT('',(2.69591728733556,2.26616211534389,8.60119556112982));
#488=CARTESIAN_POINT('',(2.93707319589722,1.94365357177894,8.5480143150536));
#489=CARTESIAN_POINT('',(3.11591400885388,1.59407650049429,8.50440790394742));
#490=CARTESIAN_POINT('',(3.29572660716929,1.24259989702786,8.46056454428817));
#491=CARTESIAN_POINT('',(3.41741664369286,0.853635688902201,8.42546206085456));
#492=CARTESIAN_POINT('',(3.46959902642441,0.460307066896428,8.40648292686626));
#493=CARTESIAN_POINT('',(3.48981005282113,0.3079649401898,8.39913202110181));
#494=CARTESIAN_POINT('',(3.5,0.153829087133346,8.39404438829627));
#495=CARTESIAN_POINT('',(3.5,-8.31007197215696E-14,8.39135052030374));
#496=CARTESIAN_POINT('',(-3.5,-8.31159092541673E-14,8.39135052030375));
#497=CARTESIAN_POINT('',(3.5,-8.31007197215696E-14,8.39135052030374));
#498=CARTESIAN_POINT('',(3.5,-8.31007197215696E-14,8.39135052030374));
#499=CARTESIAN_POINT('',(3.49999999999999,-0.384998906118925,8.38460838687712));
#500=CARTESIAN_POINT('',(3.43457483525592,-0.775572400785815,8.39340117789481));
#501=CARTESIAN_POINT('',(3.30944538768414,-1.13910983927634,8.4146794823849));
#502=CARTESIAN_POINT('',(3.18438383079035,-1.50245003560165,8.43594624204246));
#503=CARTESIAN_POINT('',(2.99647080288964,-1.84872986147132,8.4700344656204));
#504=CARTESIAN_POINT('',(2.76114866036023,-2.15082730022447,8.50836712896251));
#505=CARTESIAN_POINT('',(2.52237658860888,-2.45735362429469,8.54726176651579));
#506=CARTESIAN_POINT('',(2.22831089487115,-2.72683852222566,8.5912877107724));
#507=CARTESIAN_POINT('',(1.90209706282228,-2.93803110323952,8.62956971609516));
#508=CARTESIAN_POINT('',(1.57142196957811,-3.15211192863129,8.6683752615258));
#509=CARTESIAN_POINT('',(1.19827895527787,-3.31216280497993,8.7020072712171));
#510=CARTESIAN_POINT('',(0.813771826792748,-3.40408216909028,8.72169447757817));
#511=CARTESIAN_POINT('',(0.434628695927345,-3.49471922862481,8.74110704110367));
#512=CARTESIAN_POINT('',(0.033768530289658,-3.52152321041867,8.74728458886592));
#513=CARTESIAN_POINT('',(-0.354438261276563,-3.48200711069682,8.7386011154393));
#514=CARTESIAN_POINT('',(-0.73560551111126,-3.44320757554598,8.73007510364109));
#515=CARTESIAN_POINT('',(-1.11496252682861,-3.3395695162255,8.70712462974119));
#516=CARTESIAN_POINT('',(-1.46197190442344,-3.18003744485446,8.67549269624087));
#517=CARTESIAN_POINT('',(-1.81172897563632,-3.01924216481333,8.64361029440333));
#518=CARTESIAN_POINT('',(-2.13815657960572,-2.79747037846501,8.60234748586538));
#519=CARTESIAN_POINT('',(-2.41607887094327,-2.53230386987452,8.56175757094228));
#520=CARTESIAN_POINT('',(-2.69982006541728,-2.26158552799606,8.52031781852642));
#521=CARTESIAN_POINT('',(-2.94083658847823,-1.93804786384461,8.47876181014331));
#522=CARTESIAN_POINT('',(-3.11917006430619,-1.58769584931627,8.44769130216066));
#523=CARTESIAN_POINT('',(-3.29745055478724,-1.23744792922643,8.4166300256565));
#524=CARTESIAN_POINT('',(-3.41793306590841,-0.850370254115171,8.39547513214009));
#525=CARTESIAN_POINT('',(-3.46969534949979,-0.459580440901804,8.39034389471086));
#526=CARTESIAN_POINT('',(-3.48985301091489,-0.30739610526839,8.38834564927881));
#527=CARTESIAN_POINT('',(-3.5,-0.153502997104695,8.38866236282741));
#528=CARTESIAN_POINT('',(-3.5,-8.31159092541673E-14,8.39135052030375));
#529=CARTESIAN_POINT('',(-6.,-0.2626410000796,23.38905100088));
#530=CARTESIAN_POINT('',(-3.5,0.,0.));
#531=CARTESIAN_POINT('',(-3.5,0.,0.));
#532=CARTESIAN_POINT('',(3.5,0.,0.));
#533=CARTESIAN_POINT('',(3.5,0.,0.));
#534=CARTESIAN_POINT('',(0.,0.,0.));
#535=CARTESIAN_POINT('',(0.,0.,0.));
#536=CARTESIAN_POINT('',(-5.,-4.5,0.));
#537=CARTESIAN_POINT('',(5.,-4.5,0.));
#538=CARTESIAN_POINT('',(-4.2,4.852453569632,0.));
#539=CARTESIAN_POINT('',(-4.2,4.852453569632,0.));
#540=CARTESIAN_POINT('',(-4.2,4.852453569632,0.));
#541=CARTESIAN_POINT('',(4.2,4.852453569632,0.));
#542=CARTESIAN_POINT('',(4.2,4.852453569632,0.));
#543=CARTESIAN_POINT('',(6.,3.018763518712,0.));
#544=CARTESIAN_POINT('',(6.,-3.5,0.));
#545=CARTESIAN_POINT('',(6.,-3.5,0.));
#546=CARTESIAN_POINT('',(6.,-3.5,0.));
#547=CARTESIAN_POINT('',(0.,0.,0.));
#548=CARTESIAN_POINT('',(-6.,-4.5,0.));
#549=CARTESIAN_POINT('',(0.,0.,0.));
#550=CARTESIAN_POINT('',(5.,-4.5,9.));
#551=CARTESIAN_POINT('',(6.,-3.5,8.742566552188));
#552=CARTESIAN_POINT('',(5.5,-4.,4.371283276094));
#553=CARTESIAN_POINT('',(6.,3.018763518712,0.));
#554=CARTESIAN_POINT('',(6.,0.,0.));
#555=CARTESIAN_POINT('',(4.2,4.852453569632,0.));
#556=CARTESIAN_POINT('',(4.2,5.658820591051,4.148398698389));
#557=CARTESIAN_POINT('',(4.2,5.658820591051,4.148398698389));
#558=CARTESIAN_POINT('',(4.,5.855146027741,4.110236899314));
#559=CARTESIAN_POINT('',(4.,5.855146027741,4.110236899314));
#560=CARTESIAN_POINT('',(4.,7.,10.));
#561=CARTESIAN_POINT('',(4.490813591724,6.5,10.));
#562=CARTESIAN_POINT('',(4.,7.229172580332,11.1789907185));
#563=CARTESIAN_POINT('',(-4.,7.,10.));
#564=CARTESIAN_POINT('',(-4.,7.,10.));
#565=CARTESIAN_POINT('',(-4.490813591724,6.5,10.));
#566=CARTESIAN_POINT('',(-6.,7.,10.));
#567=CARTESIAN_POINT('',(-4.,5.855146027741,4.110236899314));
#568=CARTESIAN_POINT('',(-4.,5.855146027741,4.110236899314));
#569=CARTESIAN_POINT('',(-4.2,5.658820591051,4.148398698389));
#570=CARTESIAN_POINT('',(-4.2,5.658820591051,4.148398698389));
#571=CARTESIAN_POINT('',(-4.2,4.852453569632,0.));
#572=CARTESIAN_POINT('',(-6.,5.265918213437,11.56060870925));
#573=CARTESIAN_POINT('',(-4.2,5.658820591051,4.148398698389));
#574=CARTESIAN_POINT('',(-6.,4.852453569632,0.));
#575=CARTESIAN_POINT('',(-4.,5.855146027741,4.110236899314));
#576=CARTESIAN_POINT('',(-6.,5.658820591051,4.148398698389));
#577=CARTESIAN_POINT('',(-6.,5.855146027741,4.110236899314));
#578=CARTESIAN_POINT('',(-6.,-4.5,9.));
#579=MECHANICAL_DESIGN_GEOMETRIC_PRESENTATION_REPRESENTATION('',(#317,#318,
#319,#320),#580);
#580=(
GEOMETRIC_REPRESENTATION_CONTEXT(3)
GLOBAL_UNCERTAINTY_ASSIGNED_CONTEXT((#581))
GLOBAL_UNIT_ASSIGNED_CONTEXT((#587,#583,#582))
REPRESENTATION_CONTEXT('CWSE545SN','TOP_LEVEL_ASSEMBLY_PART')
);
#581=UNCERTAINTY_MEASURE_WITH_UNIT(LENGTH_MEASURE(0.0508),#587,
'DISTANCE_ACCURACY_VALUE','Maximum Tolerance applied to model');
#582=(
NAMED_UNIT(*)
SI_UNIT($,.STERADIAN.)
SOLID_ANGLE_UNIT()
);
#583=(
CONVERSION_BASED_UNIT('DEGREE',#585)
NAMED_UNIT(#584)
PLANE_ANGLE_UNIT()
);
#584=DIMENSIONAL_EXPONENTS(0.,0.,0.,0.,0.,0.,0.);
#585=PLANE_ANGLE_MEASURE_WITH_UNIT(PLANE_ANGLE_MEASURE(0.0174532925),#586);
#586=(
NAMED_UNIT(*)
PLANE_ANGLE_UNIT()
SI_UNIT($,.RADIAN.)
);
#587=(
LENGTH_UNIT()
NAMED_UNIT(*)
SI_UNIT(.MILLI.,.METRE.)
);
ENDSEC;
END-ISO-10303-21;
