ISO-10303-21;
HEADER;
/* Generated by software containing ST-Developer
 * from STEP Tools, Inc. (www.steptools.com) 
 */
/* OPTION: using custom schema-name function */

FILE_DESCRIPTION(
/* description */ (''),
/* implementation_level */ '2;1');

FILE_NAME(
/* name */ 'CWSE445TR.stp',
/* time_stamp */ '2022-02-03T10:33:33+09:00',
/* author */ (''),
/* organization */ (''),
/* preprocessor_version */ 'ST-DEVELOPER v16',
/* originating_system */ 'SIEMENS PLM Software NX 10.0',
/* authorisation */ '');

FILE_SCHEMA (('AUTOMOTIVE_DESIGN { 1 0 10303 214 3 1 1 1 }'));
ENDSEC;

DATA;
#10=CONSTRUCTIVE_GEOMETRY_REPRESENTATION_RELATIONSHIP(
'supplemental geometry','',#26,#11);
#11=CONSTRUCTIVE_GEOMETRY_REPRESENTATION('supplemental geometry',(#310,
#311),#545);
#12=GEOMETRICALLY_BOUNDED_WIREFRAME_SHAPE_REPRESENTATION(
'CWSE445TR-None',(#27),#545);
#13=SHAPE_REPRESENTATION_RELATIONSHIP('None',
'relationship between CWSE445TR-None and CWSE445TR-None',#26,#15);
#14=SHAPE_REPRESENTATION_RELATIONSHIP('None',
'relationship between CWSE445TR-None and CWSE445TR-None',#26,#12);
#15=ADVANCED_BREP_SHAPE_REPRESENTATION('CWSE445TR-None',(#33),#545);
#16=SHAPE_DEFINITION_REPRESENTATION(#17,#26);
#17=PRODUCT_DEFINITION_SHAPE('','',#18);
#18=PRODUCT_DEFINITION('part definition','',#20,#19);
#19=PRODUCT_DEFINITION_CONTEXT('part definition',#25,'design');
#20=PRODUCT_DEFINITION_FORMATION_WITH_SPECIFIED_SOURCE(' ',' ',#22,
 .NOT_KNOWN.);
#21=PRODUCT_RELATED_PRODUCT_CATEGORY('part','',(#22));
#22=PRODUCT('CWSE445TR','CWSE445TR','NOT SPECIFIED',(#23));
#23=PRODUCT_CONTEXT('',#25,'mechanical');
#24=APPLICATION_PROTOCOL_DEFINITION('international standard',
'automotive_design',2010,#25);
#25=APPLICATION_CONTEXT(
'core data for automotive mechanical design processes');
#26=SHAPE_REPRESENTATION('CWSE445TR-None',(#309),#545);
#27=GEOMETRIC_CURVE_SET('None',(#401));
#28=SURFACE_STYLE_USAGE(.BOTH.,#29);
#29=SURFACE_SIDE_STYLE('',(#30));
#30=SURFACE_STYLE_FILL_AREA(#31);
#31=FILL_AREA_STYLE('',(#32));
#32=FILL_AREA_STYLE_COLOUR('',#292);
#33=MANIFOLD_SOLID_BREP('',#34);
#34=CLOSED_SHELL('',(#47,#48,#49,#50,#51,#52,#53,#54,#55,#56,#57,#58,#59,
#60));
#35=CYLINDRICAL_SURFACE('',#316,15.);
#36=CYLINDRICAL_SURFACE('',#318,3.5);
#37=CYLINDRICAL_SURFACE('',#321,3.5);
#38=FACE_BOUND('',#86,.T.);
#39=FACE_BOUND('',#87,.T.);
#40=FACE_BOUND('',#89,.T.);
#41=FACE_BOUND('',#90,.T.);
#42=ELLIPSE('',#315,15.9626665871389,15.);
#43=B_SPLINE_CURVE_WITH_KNOTS('',3,(#419,#420,#421,#422),.UNSPECIFIED.,
 .F.,.F.,(4,4),(0.,1.),.UNSPECIFIED.);
#44=B_SPLINE_CURVE_WITH_KNOTS('',3,(#430,#431,#432,#433),.UNSPECIFIED.,
 .F.,.F.,(4,4),(0.,1.),.UNSPECIFIED.);
#45=B_SPLINE_CURVE_WITH_KNOTS('',3,(#434,#435,#436,#437,#438,#439,#440,
#441,#442,#443,#444,#445,#446,#447,#448,#449,#450,#451,#452,#453,#454,#455,
#456,#457,#458,#459,#460,#461,#462,#463,#464),.UNSPECIFIED.,.F.,.F.,(4,
3,3,3,3,3,3,3,3,3,4),(0.,0.105655502778263,0.21118309639978,0.318620275183224,
0.427326731903174,0.533633824677904,0.637351803511424,0.742135673682432,
0.849993370061776,0.958507627657138,1.),.UNSPECIFIED.);
#46=B_SPLINE_CURVE_WITH_KNOTS('',3,(#467,#468,#469,#470,#471,#472,#473,
#474,#475,#476,#477,#478,#479,#480,#481,#482,#483,#484,#485,#486,#487,#488,
#489,#490,#491,#492,#493,#494,#495,#496,#497),.UNSPECIFIED.,.F.,.F.,(4,
3,3,3,3,3,3,3,3,3,4),(0.,0.105315735870352,0.210529391057872,0.317301804106273,
0.425609158710919,0.532400949354839,0.637181124316151,0.742771456127016,
0.850637850099645,0.958520951210187,1.),.UNSPECIFIED.);
#47=ADVANCED_FACE('',(#72),#61,.F.);
#48=ADVANCED_FACE('',(#73),#62,.T.);
#49=ADVANCED_FACE('',(#38,#39),#35,.F.);
#50=ADVANCED_FACE('',(#74),#36,.F.);
#51=ADVANCED_FACE('',(#40,#41),#63,.T.);
#52=ADVANCED_FACE('',(#75),#37,.F.);
#53=ADVANCED_FACE('',(#76),#64,.T.);
#54=ADVANCED_FACE('',(#77),#65,.F.);
#55=ADVANCED_FACE('',(#78),#66,.T.);
#56=ADVANCED_FACE('',(#79),#67,.T.);
#57=ADVANCED_FACE('',(#80),#68,.F.);
#58=ADVANCED_FACE('',(#81),#69,.T.);
#59=ADVANCED_FACE('',(#82),#70,.T.);
#60=ADVANCED_FACE('',(#83),#71,.T.);
#61=PLANE('',#313);
#62=PLANE('',#314);
#63=PLANE('',#320);
#64=PLANE('',#322);
#65=PLANE('',#323);
#66=PLANE('',#324);
#67=PLANE('',#325);
#68=PLANE('',#326);
#69=PLANE('',#327);
#70=PLANE('',#328);
#71=PLANE('',#329);
#72=FACE_OUTER_BOUND('',#84,.T.);
#73=FACE_OUTER_BOUND('',#85,.T.);
#74=FACE_OUTER_BOUND('',#88,.T.);
#75=FACE_OUTER_BOUND('',#91,.T.);
#76=FACE_OUTER_BOUND('',#92,.T.);
#77=FACE_OUTER_BOUND('',#93,.T.);
#78=FACE_OUTER_BOUND('',#94,.T.);
#79=FACE_OUTER_BOUND('',#95,.T.);
#80=FACE_OUTER_BOUND('',#96,.T.);
#81=FACE_OUTER_BOUND('',#97,.T.);
#82=FACE_OUTER_BOUND('',#98,.T.);
#83=FACE_OUTER_BOUND('',#99,.T.);
#84=EDGE_LOOP('',(#156,#157,#158,#159));
#85=EDGE_LOOP('',(#160,#161,#162,#163,#164));
#86=EDGE_LOOP('',(#165,#166,#167,#168,#169,#170));
#87=EDGE_LOOP('',(#171,#172));
#88=EDGE_LOOP('',(#173,#174,#175,#176));
#89=EDGE_LOOP('',(#177,#178,#179,#180,#181,#182));
#90=EDGE_LOOP('',(#183,#184));
#91=EDGE_LOOP('',(#185,#186,#187,#188));
#92=EDGE_LOOP('',(#189,#190,#191,#192));
#93=EDGE_LOOP('',(#193,#194,#195,#196,#197,#198,#199,#200));
#94=EDGE_LOOP('',(#201,#202,#203,#204));
#95=EDGE_LOOP('',(#205,#206,#207,#208));
#96=EDGE_LOOP('',(#209,#210,#211,#212,#213,#214,#215));
#97=EDGE_LOOP('',(#216,#217,#218,#219));
#98=EDGE_LOOP('',(#220,#221,#222,#223));
#99=EDGE_LOOP('',(#224,#225,#226,#227));
#100=LINE('',#407,#128);
#101=LINE('',#409,#129);
#102=LINE('',#411,#130);
#103=LINE('',#413,#131);
#104=LINE('',#415,#132);
#105=LINE('',#417,#133);
#106=LINE('',#424,#134);
#107=LINE('',#428,#135);
#108=LINE('',#499,#136);
#109=LINE('',#501,#137);
#110=LINE('',#505,#138);
#111=LINE('',#507,#139);
#112=LINE('',#509,#140);
#113=LINE('',#511,#141);
#114=LINE('',#515,#142);
#115=LINE('',#517,#143);
#116=LINE('',#519,#144);
#117=LINE('',#521,#145);
#118=LINE('',#523,#146);
#119=LINE('',#525,#147);
#120=LINE('',#526,#148);
#121=LINE('',#529,#149);
#122=LINE('',#531,#150);
#123=LINE('',#533,#151);
#124=LINE('',#535,#152);
#125=LINE('',#537,#153);
#126=LINE('',#539,#154);
#127=LINE('',#541,#155);
#128=VECTOR('',#338,1.);
#129=VECTOR('',#339,1.);
#130=VECTOR('',#340,1.);
#131=VECTOR('',#343,1.);
#132=VECTOR('',#344,1.);
#133=VECTOR('',#345,1.);
#134=VECTOR('',#348,1.);
#135=VECTOR('',#351,1.);
#136=VECTOR('',#354,1.);
#137=VECTOR('',#355,1.);
#138=VECTOR('',#360,1.);
#139=VECTOR('',#361,1.);
#140=VECTOR('',#362,1.);
#141=VECTOR('',#363,1.);
#142=VECTOR('',#370,1.);
#143=VECTOR('',#371,1.);
#144=VECTOR('',#374,1.);
#145=VECTOR('',#375,1.);
#146=VECTOR('',#376,1.);
#147=VECTOR('',#377,1.);
#148=VECTOR('',#378,1.);
#149=VECTOR('',#383,1.);
#150=VECTOR('',#384,1.);
#151=VECTOR('',#387,1.);
#152=VECTOR('',#388,1.);
#153=VECTOR('',#389,1.);
#154=VECTOR('',#392,1.);
#155=VECTOR('',#395,1.);
#156=ORIENTED_EDGE('',*,*,#252,.F.);
#157=ORIENTED_EDGE('',*,*,#253,.F.);
#158=ORIENTED_EDGE('',*,*,#254,.F.);
#159=ORIENTED_EDGE('',*,*,#255,.T.);
#160=ORIENTED_EDGE('',*,*,#255,.F.);
#161=ORIENTED_EDGE('',*,*,#256,.F.);
#162=ORIENTED_EDGE('',*,*,#257,.F.);
#163=ORIENTED_EDGE('',*,*,#258,.T.);
#164=ORIENTED_EDGE('',*,*,#259,.F.);
#165=ORIENTED_EDGE('',*,*,#260,.T.);
#166=ORIENTED_EDGE('',*,*,#261,.T.);
#167=ORIENTED_EDGE('',*,*,#262,.F.);
#168=ORIENTED_EDGE('',*,*,#263,.F.);
#169=ORIENTED_EDGE('',*,*,#252,.T.);
#170=ORIENTED_EDGE('',*,*,#259,.T.);
#171=ORIENTED_EDGE('',*,*,#264,.T.);
#172=ORIENTED_EDGE('',*,*,#265,.T.);
#173=ORIENTED_EDGE('',*,*,#266,.T.);
#174=ORIENTED_EDGE('',*,*,#265,.F.);
#175=ORIENTED_EDGE('',*,*,#267,.F.);
#176=ORIENTED_EDGE('',*,*,#268,.F.);
#177=ORIENTED_EDGE('',*,*,#256,.T.);
#178=ORIENTED_EDGE('',*,*,#254,.T.);
#179=ORIENTED_EDGE('',*,*,#269,.F.);
#180=ORIENTED_EDGE('',*,*,#270,.T.);
#181=ORIENTED_EDGE('',*,*,#271,.T.);
#182=ORIENTED_EDGE('',*,*,#272,.T.);
#183=ORIENTED_EDGE('',*,*,#273,.T.);
#184=ORIENTED_EDGE('',*,*,#268,.T.);
#185=ORIENTED_EDGE('',*,*,#267,.T.);
#186=ORIENTED_EDGE('',*,*,#264,.F.);
#187=ORIENTED_EDGE('',*,*,#266,.F.);
#188=ORIENTED_EDGE('',*,*,#273,.F.);
#189=ORIENTED_EDGE('',*,*,#274,.T.);
#190=ORIENTED_EDGE('',*,*,#257,.T.);
#191=ORIENTED_EDGE('',*,*,#272,.F.);
#192=ORIENTED_EDGE('',*,*,#275,.F.);
#193=ORIENTED_EDGE('',*,*,#271,.F.);
#194=ORIENTED_EDGE('',*,*,#276,.T.);
#195=ORIENTED_EDGE('',*,*,#277,.T.);
#196=ORIENTED_EDGE('',*,*,#278,.T.);
#197=ORIENTED_EDGE('',*,*,#279,.F.);
#198=ORIENTED_EDGE('',*,*,#261,.F.);
#199=ORIENTED_EDGE('',*,*,#280,.T.);
#200=ORIENTED_EDGE('',*,*,#275,.T.);
#201=ORIENTED_EDGE('',*,*,#280,.F.);
#202=ORIENTED_EDGE('',*,*,#260,.F.);
#203=ORIENTED_EDGE('',*,*,#258,.F.);
#204=ORIENTED_EDGE('',*,*,#274,.F.);
#205=ORIENTED_EDGE('',*,*,#262,.T.);
#206=ORIENTED_EDGE('',*,*,#279,.T.);
#207=ORIENTED_EDGE('',*,*,#281,.F.);
#208=ORIENTED_EDGE('',*,*,#282,.F.);
#209=ORIENTED_EDGE('',*,*,#253,.T.);
#210=ORIENTED_EDGE('',*,*,#263,.T.);
#211=ORIENTED_EDGE('',*,*,#282,.T.);
#212=ORIENTED_EDGE('',*,*,#283,.F.);
#213=ORIENTED_EDGE('',*,*,#284,.F.);
#214=ORIENTED_EDGE('',*,*,#285,.F.);
#215=ORIENTED_EDGE('',*,*,#269,.T.);
#216=ORIENTED_EDGE('',*,*,#286,.T.);
#217=ORIENTED_EDGE('',*,*,#276,.F.);
#218=ORIENTED_EDGE('',*,*,#270,.F.);
#219=ORIENTED_EDGE('',*,*,#285,.T.);
#220=ORIENTED_EDGE('',*,*,#287,.T.);
#221=ORIENTED_EDGE('',*,*,#277,.F.);
#222=ORIENTED_EDGE('',*,*,#286,.F.);
#223=ORIENTED_EDGE('',*,*,#284,.T.);
#224=ORIENTED_EDGE('',*,*,#281,.T.);
#225=ORIENTED_EDGE('',*,*,#278,.F.);
#226=ORIENTED_EDGE('',*,*,#287,.F.);
#227=ORIENTED_EDGE('',*,*,#283,.T.);
#228=VERTEX_POINT('',#405);
#229=VERTEX_POINT('',#406);
#230=VERTEX_POINT('',#408);
#231=VERTEX_POINT('',#410);
#232=VERTEX_POINT('',#414);
#233=VERTEX_POINT('',#416);
#234=VERTEX_POINT('',#418);
#235=VERTEX_POINT('',#425);
#236=VERTEX_POINT('',#427);
#237=VERTEX_POINT('',#429);
#238=VERTEX_POINT('',#465);
#239=VERTEX_POINT('',#466);
#240=VERTEX_POINT('',#500);
#241=VERTEX_POINT('',#502);
#242=VERTEX_POINT('',#506);
#243=VERTEX_POINT('',#508);
#244=VERTEX_POINT('',#510);
#245=VERTEX_POINT('',#516);
#246=VERTEX_POINT('',#520);
#247=VERTEX_POINT('',#522);
#248=VERTEX_POINT('',#524);
#249=VERTEX_POINT('',#530);
#250=VERTEX_POINT('',#534);
#251=VERTEX_POINT('',#536);
#252=EDGE_CURVE('',#228,#229,#288,.T.);
#253=EDGE_CURVE('',#230,#228,#100,.T.);
#254=EDGE_CURVE('',#231,#230,#101,.T.);
#255=EDGE_CURVE('',#231,#229,#102,.T.);
#256=EDGE_CURVE('',#232,#231,#103,.T.);
#257=EDGE_CURVE('',#233,#232,#104,.T.);
#258=EDGE_CURVE('',#233,#234,#105,.T.);
#259=EDGE_CURVE('',#229,#234,#43,.T.);
#260=EDGE_CURVE('',#234,#235,#106,.T.);
#261=EDGE_CURVE('',#235,#236,#42,.T.);
#262=EDGE_CURVE('',#237,#236,#107,.T.);
#263=EDGE_CURVE('',#228,#237,#44,.T.);
#264=EDGE_CURVE('',#238,#239,#45,.T.);
#265=EDGE_CURVE('',#239,#238,#46,.T.);
#266=EDGE_CURVE('',#240,#238,#108,.T.);
#267=EDGE_CURVE('',#241,#239,#109,.T.);
#268=EDGE_CURVE('',#240,#241,#289,.T.);
#269=EDGE_CURVE('',#242,#230,#110,.T.);
#270=EDGE_CURVE('',#242,#243,#111,.T.);
#271=EDGE_CURVE('',#243,#244,#112,.T.);
#272=EDGE_CURVE('',#244,#232,#113,.T.);
#273=EDGE_CURVE('',#241,#240,#290,.T.);
#274=EDGE_CURVE('',#245,#233,#114,.T.);
#275=EDGE_CURVE('',#245,#244,#115,.T.);
#276=EDGE_CURVE('',#243,#246,#116,.T.);
#277=EDGE_CURVE('',#246,#247,#117,.T.);
#278=EDGE_CURVE('',#247,#248,#118,.T.);
#279=EDGE_CURVE('',#236,#248,#119,.T.);
#280=EDGE_CURVE('',#235,#245,#120,.T.);
#281=EDGE_CURVE('',#249,#248,#121,.T.);
#282=EDGE_CURVE('',#237,#249,#122,.T.);
#283=EDGE_CURVE('',#250,#249,#123,.T.);
#284=EDGE_CURVE('',#251,#250,#124,.T.);
#285=EDGE_CURVE('',#242,#251,#125,.T.);
#286=EDGE_CURVE('',#251,#246,#126,.T.);
#287=EDGE_CURVE('',#250,#247,#127,.T.);
#288=CIRCLE('',#312,15.);
#289=CIRCLE('',#317,3.5);
#290=CIRCLE('',#319,3.5);
#291=COLOUR_RGB('Strong Stone',0.576470588235294,0.54508278019379,0.392156862745098);
#292=COLOUR_RGB('spare part',0.301960784313725,0.301960784313725,0.301960784313725);
#293=CURVE_STYLE('',#295,POSITIVE_LENGTH_MEASURE(0.13),#308);
#294=CURVE_STYLE('',#296,POSITIVE_LENGTH_MEASURE(0.13),#291);
#295=DRAUGHTING_PRE_DEFINED_CURVE_FONT('continuous');
#296=DRAUGHTING_PRE_DEFINED_CURVE_FONT('continuous');
#297=PRESENTATION_LAYER_ASSIGNMENT('1','Layer 1',(#401,#310,#311,#33));
#298=STYLED_ITEM('',(#302),#401);
#299=STYLED_ITEM('',(#303),#310);
#300=STYLED_ITEM('',(#304),#311);
#301=STYLED_ITEM('',(#305),#33);
#302=PRESENTATION_STYLE_ASSIGNMENT((#306));
#303=PRESENTATION_STYLE_ASSIGNMENT((#293));
#304=PRESENTATION_STYLE_ASSIGNMENT((#294));
#305=PRESENTATION_STYLE_ASSIGNMENT((#28));
#306=POINT_STYLE('',#307,POSITIVE_LENGTH_MEASURE(3.),#308);
#307=PRE_DEFINED_POINT_MARKER_SYMBOL('plus');
#308=DRAUGHTING_PRE_DEFINED_COLOUR('yellow');
#309=AXIS2_PLACEMENT_3D('',#400,#330,#331);
#310=AXIS2_PLACEMENT_3D('PCS',#402,#332,#333);
#311=AXIS2_PLACEMENT_3D('',#403,#334,#335);
#312=AXIS2_PLACEMENT_3D('',#404,#336,#337);
#313=AXIS2_PLACEMENT_3D('',#412,#341,#342);
#314=AXIS2_PLACEMENT_3D('',#423,#346,#347);
#315=AXIS2_PLACEMENT_3D('',#426,#349,#350);
#316=AXIS2_PLACEMENT_3D('',#498,#352,#353);
#317=AXIS2_PLACEMENT_3D('',#503,#356,#357);
#318=AXIS2_PLACEMENT_3D('',#504,#358,#359);
#319=AXIS2_PLACEMENT_3D('',#512,#364,#365);
#320=AXIS2_PLACEMENT_3D('',#513,#366,#367);
#321=AXIS2_PLACEMENT_3D('',#514,#368,#369);
#322=AXIS2_PLACEMENT_3D('',#518,#372,#373);
#323=AXIS2_PLACEMENT_3D('',#527,#379,#380);
#324=AXIS2_PLACEMENT_3D('',#528,#381,#382);
#325=AXIS2_PLACEMENT_3D('',#532,#385,#386);
#326=AXIS2_PLACEMENT_3D('',#538,#390,#391);
#327=AXIS2_PLACEMENT_3D('',#540,#393,#394);
#328=AXIS2_PLACEMENT_3D('',#542,#396,#397);
#329=AXIS2_PLACEMENT_3D('',#543,#398,#399);
#330=DIRECTION('',(0.,0.,1.));
#331=DIRECTION('',(1.,0.,0.));
#332=DIRECTION('',(0.,0.,1.));
#333=DIRECTION('',(1.,0.,0.));
#334=DIRECTION('',(0.,0.,1.));
#335=DIRECTION('',(1.,0.,0.));
#336=DIRECTION('',(-1.,0.,0.));
#337=DIRECTION('',(0.,0.412712648136882,-0.91086127926696));
#338=DIRECTION('',(0.,0.190808995376495,0.981627183447674));
#339=DIRECTION('',(0.,1.,0.));
#340=DIRECTION('',(0.,0.,1.));
#341=DIRECTION('',(1.,0.,0.));
#342=DIRECTION('',(0.,-1.,0.));
#343=DIRECTION('',(-0.707106781186547,0.707106781186547,0.));
#344=DIRECTION('',(-0.577350269189626,0.577350269189626,-0.577350269189626));
#345=DIRECTION('',(0.,0.,1.));
#346=DIRECTION('',(-0.707106781186547,-0.707106781186547,0.));
#347=DIRECTION('',(-0.707106781186547,0.707106781186547,0.));
#348=DIRECTION('',(1.,0.,0.));
#349=DIRECTION('',(0.939692620785898,0.342020143325699,0.));
#350=DIRECTION('',(0.342020143325699,-0.939692620785898,0.));
#351=DIRECTION('',(1.,0.,0.));
#352=DIRECTION('',(1.,0.,0.));
#353=DIRECTION('',(0.,-1.,0.));
#354=DIRECTION('',(0.,0.,1.));
#355=DIRECTION('',(0.,0.,1.));
#356=DIRECTION('',(0.,0.,1.));
#357=DIRECTION('',(-1.,0.,0.));
#358=DIRECTION('',(0.,0.,1.));
#359=DIRECTION('',(1.,0.,0.));
#360=DIRECTION('',(-0.70052067502273,-0.713632106806931,0.));
#361=DIRECTION('',(1.,0.,0.));
#362=DIRECTION('',(0.342020143325699,-0.939692620785897,0.));
#363=DIRECTION('',(-1.,0.,0.));
#364=DIRECTION('',(0.,0.,1.));
#365=DIRECTION('',(1.,0.,0.));
#366=DIRECTION('',(0.,0.,-1.));
#367=DIRECTION('',(0.,-1.,0.));
#368=DIRECTION('',(0.,0.,1.));
#369=DIRECTION('',(1.,0.,0.));
#370=DIRECTION('',(-1.,0.,0.));
#371=DIRECTION('',(-0.249243569364009,0.684791078771726,-0.684791078771726));
#372=DIRECTION('',(0.,-0.707106781186547,-0.707106781186547));
#373=DIRECTION('',(0.,0.707106781186547,-0.707106781186547));
#374=DIRECTION('',(-0.069281917698647,0.190350504453592,0.979268452128558));
#375=DIRECTION('',(-0.336453501324795,0.924398397586386,-0.179684846289297));
#376=DIRECTION('',(-0.069281917698647,0.190350504453592,0.979268452128558));
#377=DIRECTION('',(-0.342020143325699,0.939692620785897,0.));
#378=DIRECTION('',(0.,0.,-1.));
#379=DIRECTION('',(-0.939692620785897,-0.342020143325699,0.));
#380=DIRECTION('',(-0.342020143325699,0.939692620785897,0.));
#381=DIRECTION('',(0.,-1.,0.));
#382=DIRECTION('',(0.,0.,1.));
#383=DIRECTION('',(1.,0.,0.));
#384=DIRECTION('',(0.70052067502273,0.713632106806931,0.));
#385=DIRECTION('',(0.,0.,1.));
#386=DIRECTION('',(0.,1.,0.));
#387=DIRECTION('',(0.,0.190808995376495,0.981627183447674));
#388=DIRECTION('',(0.707106781186525,0.694115238012925,-0.134922334542105));
#389=DIRECTION('',(0.,0.190808995376495,0.981627183447674));
#390=DIRECTION('',(0.707106781186525,-0.694115238012925,0.134922334542105));
#391=DIRECTION('',(-0.707106781186569,-0.694115238012882,0.134922334542096));
#392=DIRECTION('',(1.,0.,0.));
#393=DIRECTION('',(0.,0.981627183447674,-0.190808995376495));
#394=DIRECTION('',(0.,-0.190808995376495,-0.981627183447674));
#395=DIRECTION('',(1.,0.,0.));
#396=DIRECTION('',(0.,-0.190808995376495,-0.981627183447674));
#397=DIRECTION('',(0.,-0.981627183447674,0.190808995376495));
#398=DIRECTION('',(0.,0.981627183447674,-0.190808995376495));
#399=DIRECTION('',(0.,-0.190808995376495,-0.981627183447674));
#400=CARTESIAN_POINT('',(0.,0.,0.));
#401=CARTESIAN_POINT('',(0.,0.,0.));
#402=CARTESIAN_POINT('',(0.,0.,0.));
#403=CARTESIAN_POINT('',(0.,0.,0.));
#404=CARTESIAN_POINT('',(-6.5,-0.2626410000796,22.38905100088));
#405=CARTESIAN_POINT('',(-6.5,5.928048721973,8.726131811871));
#406=CARTESIAN_POINT('',(-6.5,-3.5,7.742566552188));
#407=CARTESIAN_POINT('',(-6.5,4.231860522805,0.));
#408=CARTESIAN_POINT('',(-6.5,4.231860522805,0.));
#409=CARTESIAN_POINT('',(-6.5,-3.5,0.));
#410=CARTESIAN_POINT('',(-6.5,-3.5,0.));
#411=CARTESIAN_POINT('',(-6.5,-3.5,0.));
#412=CARTESIAN_POINT('',(-6.5,0.,0.));
#413=CARTESIAN_POINT('',(-6.,-4.,0.));
#414=CARTESIAN_POINT('',(-6.,-4.,0.));
#415=CARTESIAN_POINT('',(-5.5,-4.5,0.5));
#416=CARTESIAN_POINT('',(-5.5,-4.5,0.5));
#417=CARTESIAN_POINT('',(-5.5,-4.5,0.5));
#418=CARTESIAN_POINT('',(-5.5,-4.5,8.));
#419=CARTESIAN_POINT('',(-6.5,-3.5,7.742566552188));
#420=CARTESIAN_POINT('',(-6.165147193246,-3.834852806754,7.816580132129));
#421=CARTESIAN_POINT('',(-5.831800772228,-4.168199227772,7.902289665364));
#422=CARTESIAN_POINT('',(-5.5,-4.5,8.));
#423=CARTESIAN_POINT('',(-6.,-4.,3.871283276094));
#424=CARTESIAN_POINT('',(-5.5,-4.5,8.));
#425=CARTESIAN_POINT('',(8.68565769406138,-4.5,8.00000000000226));
#426=CARTESIAN_POINT('',(7.14338514619056,-0.2626410000796,22.38905100088));
#427=CARTESIAN_POINT('',(4.68198511713467,6.49999999999542,9.));
#428=CARTESIAN_POINT('',(-5.990813591724,6.5,9.));
#429=CARTESIAN_POINT('',(-5.990813591724,6.5,9.));
#430=CARTESIAN_POINT('',(-6.5,5.928048721973,8.726131811871));
#431=CARTESIAN_POINT('',(-6.328661187726,6.119452094485,8.81285697467));
#432=CARTESIAN_POINT('',(-6.15891245887,6.31011183925,8.904089882006));
#433=CARTESIAN_POINT('',(-5.990813591724,6.5,9.));
#434=CARTESIAN_POINT('',(-3.5,-8.30703413223313E-14,7.39135052030374));
#435=CARTESIAN_POINT('',(-3.50000000000001,0.386913024765453,7.3981261739381));
#436=CARTESIAN_POINT('',(-3.43394229060749,0.77885290676121,7.42077827061221));
#437=CARTESIAN_POINT('',(-3.30804744341197,1.1431632045056,7.45507247744658));
#438=CARTESIAN_POINT('',(-3.18224029991293,1.50721970822675,7.48934279348023));
#439=CARTESIAN_POINT('',(-2.99348297390564,1.85368880228961,7.53594099539974));
#440=CARTESIAN_POINT('',(-2.75724080467191,2.15583467479587,7.58530230637577));
#441=CARTESIAN_POINT('',(-2.51679398583975,2.46335815421126,7.63554215236122));
#442=CARTESIAN_POINT('',(-2.22056525633359,2.73347052442596,7.68972846720091));
#443=CARTESIAN_POINT('',(-1.89171545961467,2.94472623852454,7.73596957079408));
#444=CARTESIAN_POINT('',(-1.55924167940176,3.15831002832376,7.78272025960772));
#445=CARTESIAN_POINT('',(-1.18378982361587,3.3175989652167,7.82228794913955));
#446=CARTESIAN_POINT('',(-0.796958514072338,3.40805767657292,7.84511854692445));
#447=CARTESIAN_POINT('',(-0.418596688262427,3.49653583835755,7.86744927985405));
#448=CARTESIAN_POINT('',(-0.0186355924945621,3.52150907086649,7.87416225007376));
#449=CARTESIAN_POINT('',(0.368272032467199,3.48057117584205,7.86361253568963));
#450=CARTESIAN_POINT('',(0.746110317424211,3.44059288891292,7.85331011275319));
#451=CARTESIAN_POINT('',(1.12176460540717,3.33687238252358,7.82642855652838));
#452=CARTESIAN_POINT('',(1.46527170089498,3.17851834076136,7.78910502868739));
#453=CARTESIAN_POINT('',(1.81239724413964,3.01849622333278,7.75138834088737));
#454=CARTESIAN_POINT('',(2.13609597296035,2.79859519577882,7.70231536728662));
#455=CARTESIAN_POINT('',(2.41205820132269,2.53613391472768,7.65246866384386));
#456=CARTESIAN_POINT('',(2.69591728733556,2.26616211534389,7.60119556112982));
#457=CARTESIAN_POINT('',(2.93707319589722,1.94365357177894,7.5480143150536));
#458=CARTESIAN_POINT('',(3.11591400885388,1.59407650049429,7.50440790394742));
#459=CARTESIAN_POINT('',(3.29572660716929,1.24259989702786,7.46056454428817));
#460=CARTESIAN_POINT('',(3.41741664369286,0.853635688902201,7.42546206085456));
#461=CARTESIAN_POINT('',(3.46959902642441,0.460307066896428,7.40648292686626));
#462=CARTESIAN_POINT('',(3.48981005282113,0.3079649401898,7.39913202110181));
#463=CARTESIAN_POINT('',(3.5,0.153829087133346,7.39404438829627));
#464=CARTESIAN_POINT('',(3.5,-8.30779357488177E-14,7.39135052030374));
#465=CARTESIAN_POINT('',(-3.5,-8.30703413223313E-14,7.39135052030374));
#466=CARTESIAN_POINT('',(3.5,-8.30779357488177E-14,7.39135052030374));
#467=CARTESIAN_POINT('',(3.5,-8.30779357488177E-14,7.39135052030374));
#468=CARTESIAN_POINT('',(3.49999999999999,-0.384998906118925,7.38460838687712));
#469=CARTESIAN_POINT('',(3.43457483525592,-0.775572400785815,7.39340117789481));
#470=CARTESIAN_POINT('',(3.30944538768414,-1.13910983927635,7.4146794823849));
#471=CARTESIAN_POINT('',(3.18438383079035,-1.50245003560165,7.43594624204246));
#472=CARTESIAN_POINT('',(2.99647080288964,-1.84872986147132,7.4700344656204));
#473=CARTESIAN_POINT('',(2.76114866036023,-2.15082730022447,7.50836712896251));
#474=CARTESIAN_POINT('',(2.52237658860888,-2.45735362429469,7.54726176651579));
#475=CARTESIAN_POINT('',(2.22831089487115,-2.72683852222566,7.5912877107724));
#476=CARTESIAN_POINT('',(1.90209706282228,-2.93803110323952,7.62956971609516));
#477=CARTESIAN_POINT('',(1.57142196957811,-3.1521119286313,7.6683752615258));
#478=CARTESIAN_POINT('',(1.19827895527787,-3.31216280497993,7.7020072712171));
#479=CARTESIAN_POINT('',(0.813771826792747,-3.40408216909028,7.72169447757817));
#480=CARTESIAN_POINT('',(0.434628695927344,-3.49471922862481,7.74110704110367));
#481=CARTESIAN_POINT('',(0.033768530289657,-3.52152321041867,7.74728458886592));
#482=CARTESIAN_POINT('',(-0.354438261276564,-3.48200711069682,7.7386011154393));
#483=CARTESIAN_POINT('',(-0.735605511111261,-3.44320757554598,7.73007510364109));
#484=CARTESIAN_POINT('',(-1.11496252682861,-3.3395695162255,7.70712462974119));
#485=CARTESIAN_POINT('',(-1.46197190442344,-3.18003744485446,7.67549269624087));
#486=CARTESIAN_POINT('',(-1.81172897563632,-3.01924216481333,7.64361029440333));
#487=CARTESIAN_POINT('',(-2.13815657960572,-2.79747037846501,7.60234748586537));
#488=CARTESIAN_POINT('',(-2.41607887094327,-2.53230386987452,7.56175757094228));
#489=CARTESIAN_POINT('',(-2.69982006541728,-2.26158552799606,7.52031781852641));
#490=CARTESIAN_POINT('',(-2.94083658847824,-1.93804786384461,7.4787618101433));
#491=CARTESIAN_POINT('',(-3.11917006430619,-1.58769584931626,7.44769130216066));
#492=CARTESIAN_POINT('',(-3.29745055478724,-1.23744792922642,7.4166300256565));
#493=CARTESIAN_POINT('',(-3.41793306590841,-0.850370254115169,7.39547513214009));
#494=CARTESIAN_POINT('',(-3.4696953494998,-0.459580440901802,7.39034389471086));
#495=CARTESIAN_POINT('',(-3.48985301091489,-0.307396105268389,7.38834564927881));
#496=CARTESIAN_POINT('',(-3.5,-0.153502997104694,7.38866236282741));
#497=CARTESIAN_POINT('',(-3.5,-8.30703413223313E-14,7.39135052030374));
#498=CARTESIAN_POINT('',(-6.5,-0.2626410000796,22.38905100088));
#499=CARTESIAN_POINT('',(-3.5,0.,0.));
#500=CARTESIAN_POINT('',(-3.5,0.,0.));
#501=CARTESIAN_POINT('',(3.5,0.,0.));
#502=CARTESIAN_POINT('',(3.5,0.,0.));
#503=CARTESIAN_POINT('',(0.,0.,0.));
#504=CARTESIAN_POINT('',(0.,0.,0.));
#505=CARTESIAN_POINT('',(-5.7,5.046833878769,0.));
#506=CARTESIAN_POINT('',(-5.7,5.046833878769,0.));
#507=CARTESIAN_POINT('',(-5.7,5.046833878769,0.));
#508=CARTESIAN_POINT('',(5.210894330705,5.046833878769,0.));
#509=CARTESIAN_POINT('',(5.210894330705,5.046833878769,0.));
#510=CARTESIAN_POINT('',(8.503672576928,-4.,0.));
#511=CARTESIAN_POINT('',(8.503672576928,-4.,0.));
#512=CARTESIAN_POINT('',(0.,0.,0.));
#513=CARTESIAN_POINT('',(-6.5,-4.5,0.));
#514=CARTESIAN_POINT('',(0.,0.,0.));
#515=CARTESIAN_POINT('',(8.685657694061,-4.5,0.5));
#516=CARTESIAN_POINT('',(8.685657694061,-4.5,0.5));
#517=CARTESIAN_POINT('',(8.685657694061,-4.5,0.5));
#518=CARTESIAN_POINT('',(1.001836288464,-4.25,0.25));
#519=CARTESIAN_POINT('',(5.210894330705,5.046833878769,0.));
#520=CARTESIAN_POINT('',(4.918700588921,5.849629586428,4.130025881837));
#521=CARTESIAN_POINT('',(4.918700588921,5.849629586428,4.130025881837));
#522=CARTESIAN_POINT('',(4.847243973737,6.045955023117,4.091864082762));
#523=CARTESIAN_POINT('',(4.847243973737,6.045955023117,4.091864082762));
#524=CARTESIAN_POINT('',(4.5,7.,9.));
#525=CARTESIAN_POINT('',(4.681985117133,6.5,9.));
#526=CARTESIAN_POINT('',(8.685657694061,-4.5,8.));
#527=CARTESIAN_POINT('',(4.5,7.,0.));
#528=CARTESIAN_POINT('',(-6.5,-4.5,8.));
#529=CARTESIAN_POINT('',(-5.5,7.,9.));
#530=CARTESIAN_POINT('',(-5.5,7.,9.));
#531=CARTESIAN_POINT('',(-5.990813591724,6.5,9.));
#532=CARTESIAN_POINT('',(-6.5,7.,9.));
#533=CARTESIAN_POINT('',(-5.5,6.045955023117,4.091864082762));
#534=CARTESIAN_POINT('',(-5.5,6.045955023117,4.091864082762));
#535=CARTESIAN_POINT('',(-5.7,5.849629586428,4.130025881837));
#536=CARTESIAN_POINT('',(-5.7,5.849629586428,4.130025881837));
#537=CARTESIAN_POINT('',(-5.7,5.046833878769,0.));
#538=CARTESIAN_POINT('',(-6.5,6.228815067214,10.27344052115));
#539=CARTESIAN_POINT('',(-5.7,5.849629586428,4.130025881837));
#540=CARTESIAN_POINT('',(-6.5,5.046833878769,0.));
#541=CARTESIAN_POINT('',(-5.5,6.045955023117,4.091864082762));
#542=CARTESIAN_POINT('',(-6.5,5.849629586428,4.130025881837));
#543=CARTESIAN_POINT('',(-6.5,6.045955023117,4.091864082762));
#544=MECHANICAL_DESIGN_GEOMETRIC_PRESENTATION_REPRESENTATION('',(#298,#299,
#300,#301),#545);
#545=(
GEOMETRIC_REPRESENTATION_CONTEXT(3)
GLOBAL_UNCERTAINTY_ASSIGNED_CONTEXT((#546))
GLOBAL_UNIT_ASSIGNED_CONTEXT((#552,#548,#547))
REPRESENTATION_CONTEXT('CWSE445TR','TOP_LEVEL_ASSEMBLY_PART')
);
#546=UNCERTAINTY_MEASURE_WITH_UNIT(LENGTH_MEASURE(0.0508),#552,
'DISTANCE_ACCURACY_VALUE','Maximum Tolerance applied to model');
#547=(
NAMED_UNIT(*)
SI_UNIT($,.STERADIAN.)
SOLID_ANGLE_UNIT()
);
#548=(
CONVERSION_BASED_UNIT('DEGREE',#550)
NAMED_UNIT(#549)
PLANE_ANGLE_UNIT()
);
#549=DIMENSIONAL_EXPONENTS(0.,0.,0.,0.,0.,0.,0.);
#550=PLANE_ANGLE_MEASURE_WITH_UNIT(PLANE_ANGLE_MEASURE(0.0174532925),#551);
#551=(
NAMED_UNIT(*)
PLANE_ANGLE_UNIT()
SI_UNIT($,.RADIAN.)
);
#552=(
LENGTH_UNIT()
NAMED_UNIT(*)
SI_UNIT(.MILLI.,.METRE.)
);
ENDSEC;
END-ISO-10303-21;
