ISO-10303-21;
HEADER;
/* Generated by software containing ST-Developer
 * from STEP Tools, Inc. (www.steptools.com) 
 */
/* OPTION: using custom schema-name function */

FILE_DESCRIPTION(
/* description */ (''),
/* implementation_level */ '2;1');

FILE_NAME(
/* name */ 'CWSE445SN.stp',
/* time_stamp */ '2022-02-03T10:33:33+09:00',
/* author */ (''),
/* organization */ (''),
/* preprocessor_version */ 'ST-DEVELOPER v16',
/* originating_system */ 'SIEMENS PLM Software NX 10.0',
/* authorisation */ '');

FILE_SCHEMA (('AUTOMOTIVE_DESIGN { 1 0 10303 214 3 1 1 1 }'));
ENDSEC;

DATA;
#10=CONSTRUCTIVE_GEOMETRY_REPRESENTATION_RELATIONSHIP(
'supplemental geometry','',#26,#11);
#11=CONSTRUCTIVE_GEOMETRY_REPRESENTATION('supplemental geometry',(#350,
#351),#613);
#12=GEOMETRICALLY_BOUNDED_WIREFRAME_SHAPE_REPRESENTATION(
'CWSE445SN-None',(#27),#613);
#13=SHAPE_REPRESENTATION_RELATIONSHIP('None',
'relationship between CWSE445SN-None and CWSE445SN-None',#26,#15);
#14=SHAPE_REPRESENTATION_RELATIONSHIP('None',
'relationship between CWSE445SN-None and CWSE445SN-None',#26,#12);
#15=ADVANCED_BREP_SHAPE_REPRESENTATION('CWSE445SN-None',(#33),#613);
#16=SHAPE_DEFINITION_REPRESENTATION(#17,#26);
#17=PRODUCT_DEFINITION_SHAPE('','',#18);
#18=PRODUCT_DEFINITION('part definition','',#20,#19);
#19=PRODUCT_DEFINITION_CONTEXT('part definition',#25,'design');
#20=PRODUCT_DEFINITION_FORMATION_WITH_SPECIFIED_SOURCE(' ',' ',#22,
 .NOT_KNOWN.);
#21=PRODUCT_RELATED_PRODUCT_CATEGORY('part','',(#22));
#22=PRODUCT('CWSE445SN','CWSE445SN','NOT SPECIFIED',(#23));
#23=PRODUCT_CONTEXT('',#25,'mechanical');
#24=APPLICATION_PROTOCOL_DEFINITION('international standard',
'automotive_design',2010,#25);
#25=APPLICATION_CONTEXT(
'core data for automotive mechanical design processes');
#26=SHAPE_REPRESENTATION('CWSE445SN-None',(#349),#613);
#27=GEOMETRIC_CURVE_SET('None',(#451));
#28=SURFACE_STYLE_USAGE(.BOTH.,#29);
#29=SURFACE_SIDE_STYLE('',(#30));
#30=SURFACE_STYLE_FILL_AREA(#31);
#31=FILL_AREA_STYLE('',(#32));
#32=FILL_AREA_STYLE_COLOUR('',#332);
#33=MANIFOLD_SOLID_BREP('',#34);
#34=CLOSED_SHELL('',(#48,#49,#50,#51,#52,#53,#54,#55,#56,#57,#58,#59,#60,
#61,#62,#63));
#35=CYLINDRICAL_SURFACE('',#356,15.);
#36=CYLINDRICAL_SURFACE('',#358,3.5);
#37=CYLINDRICAL_SURFACE('',#361,3.5);
#38=FACE_BOUND('',#93,.T.);
#39=FACE_BOUND('',#94,.T.);
#40=FACE_BOUND('',#96,.T.);
#41=FACE_BOUND('',#97,.T.);
#42=B_SPLINE_CURVE_WITH_KNOTS('',3,(#469,#470,#471,#472),.UNSPECIFIED.,
 .F.,.F.,(4,4),(0.,1.),.UNSPECIFIED.);
#43=B_SPLINE_CURVE_WITH_KNOTS('',3,(#477,#478,#479,#480),.UNSPECIFIED.,
 .F.,.F.,(4,4),(0.,1.),.UNSPECIFIED.);
#44=B_SPLINE_CURVE_WITH_KNOTS('',3,(#484,#485,#486,#487),.UNSPECIFIED.,
 .F.,.F.,(4,4),(0.,1.),.UNSPECIFIED.);
#45=B_SPLINE_CURVE_WITH_KNOTS('',3,(#490,#491,#492,#493),.UNSPECIFIED.,
 .F.,.F.,(4,4),(0.,1.),.UNSPECIFIED.);
#46=B_SPLINE_CURVE_WITH_KNOTS('',3,(#494,#495,#496,#497,#498,#499,#500,
#501,#502,#503,#504,#505,#506,#507,#508,#509,#510,#511,#512,#513,#514,#515,
#516,#517,#518,#519,#520,#521,#522,#523,#524),.UNSPECIFIED.,.F.,.F.,(4,
3,3,3,3,3,3,3,3,3,4),(0.,0.105655502778263,0.21118309639978,0.318620275183224,
0.427326731903174,0.533633824677904,0.637351803511424,0.742135673682432,
0.849993370061776,0.958507627657138,1.),.UNSPECIFIED.);
#47=B_SPLINE_CURVE_WITH_KNOTS('',3,(#527,#528,#529,#530,#531,#532,#533,
#534,#535,#536,#537,#538,#539,#540,#541,#542,#543,#544,#545,#546,#547,#548,
#549,#550,#551,#552,#553,#554,#555,#556,#557),.UNSPECIFIED.,.F.,.F.,(4,
3,3,3,3,3,3,3,3,3,4),(0.,0.105315735870352,0.210529391057872,0.317301804106273,
0.425609158710919,0.532400949354839,0.637181124316151,0.742771456127016,
0.850637850099645,0.958520951210187,1.),.UNSPECIFIED.);
#48=ADVANCED_FACE('',(#77),#64,.F.);
#49=ADVANCED_FACE('',(#78),#65,.T.);
#50=ADVANCED_FACE('',(#38,#39),#35,.F.);
#51=ADVANCED_FACE('',(#79),#36,.F.);
#52=ADVANCED_FACE('',(#40,#41),#66,.T.);
#53=ADVANCED_FACE('',(#80),#37,.F.);
#54=ADVANCED_FACE('',(#81),#67,.T.);
#55=ADVANCED_FACE('',(#82),#68,.T.);
#56=ADVANCED_FACE('',(#83),#69,.F.);
#57=ADVANCED_FACE('',(#84),#70,.T.);
#58=ADVANCED_FACE('',(#85),#71,.F.);
#59=ADVANCED_FACE('',(#86),#72,.T.);
#60=ADVANCED_FACE('',(#87),#73,.T.);
#61=ADVANCED_FACE('',(#88),#74,.T.);
#62=ADVANCED_FACE('',(#89),#75,.T.);
#63=ADVANCED_FACE('',(#90),#76,.T.);
#64=PLANE('',#353);
#65=PLANE('',#354);
#66=PLANE('',#360);
#67=PLANE('',#362);
#68=PLANE('',#363);
#69=PLANE('',#364);
#70=PLANE('',#365);
#71=PLANE('',#366);
#72=PLANE('',#367);
#73=PLANE('',#368);
#74=PLANE('',#369);
#75=PLANE('',#370);
#76=PLANE('',#371);
#77=FACE_OUTER_BOUND('',#91,.T.);
#78=FACE_OUTER_BOUND('',#92,.T.);
#79=FACE_OUTER_BOUND('',#95,.T.);
#80=FACE_OUTER_BOUND('',#98,.T.);
#81=FACE_OUTER_BOUND('',#99,.T.);
#82=FACE_OUTER_BOUND('',#100,.T.);
#83=FACE_OUTER_BOUND('',#101,.T.);
#84=FACE_OUTER_BOUND('',#102,.T.);
#85=FACE_OUTER_BOUND('',#103,.T.);
#86=FACE_OUTER_BOUND('',#104,.T.);
#87=FACE_OUTER_BOUND('',#105,.T.);
#88=FACE_OUTER_BOUND('',#106,.T.);
#89=FACE_OUTER_BOUND('',#107,.T.);
#90=FACE_OUTER_BOUND('',#108,.T.);
#91=EDGE_LOOP('',(#173,#174,#175,#176));
#92=EDGE_LOOP('',(#177,#178,#179,#180,#181));
#93=EDGE_LOOP('',(#182,#183,#184,#185,#186,#187,#188,#189));
#94=EDGE_LOOP('',(#190,#191));
#95=EDGE_LOOP('',(#192,#193,#194,#195));
#96=EDGE_LOOP('',(#196,#197,#198,#199,#200,#201,#202,#203));
#97=EDGE_LOOP('',(#204,#205));
#98=EDGE_LOOP('',(#206,#207,#208,#209));
#99=EDGE_LOOP('',(#210,#211,#212,#213,#214));
#100=EDGE_LOOP('',(#215,#216,#217,#218));
#101=EDGE_LOOP('',(#219,#220,#221,#222,#223,#224,#225));
#102=EDGE_LOOP('',(#226,#227,#228,#229));
#103=EDGE_LOOP('',(#230,#231,#232,#233,#234,#235,#236));
#104=EDGE_LOOP('',(#237,#238,#239,#240));
#105=EDGE_LOOP('',(#241,#242,#243,#244));
#106=EDGE_LOOP('',(#245,#246,#247,#248));
#107=EDGE_LOOP('',(#249,#250,#251,#252));
#108=EDGE_LOOP('',(#253,#254,#255,#256));
#109=LINE('',#457,#141);
#110=LINE('',#459,#142);
#111=LINE('',#461,#143);
#112=LINE('',#463,#144);
#113=LINE('',#465,#145);
#114=LINE('',#467,#146);
#115=LINE('',#482,#147);
#116=LINE('',#488,#148);
#117=LINE('',#559,#149);
#118=LINE('',#561,#150);
#119=LINE('',#565,#151);
#120=LINE('',#567,#152);
#121=LINE('',#569,#153);
#122=LINE('',#571,#154);
#123=LINE('',#573,#155);
#124=LINE('',#575,#156);
#125=LINE('',#579,#157);
#126=LINE('',#581,#158);
#127=LINE('',#582,#159);
#128=LINE('',#584,#160);
#129=LINE('',#586,#161);
#130=LINE('',#588,#162);
#131=LINE('',#590,#163);
#132=LINE('',#592,#164);
#133=LINE('',#594,#165);
#134=LINE('',#596,#166);
#135=LINE('',#598,#167);
#136=LINE('',#600,#168);
#137=LINE('',#602,#169);
#138=LINE('',#604,#170);
#139=LINE('',#606,#171);
#140=LINE('',#609,#172);
#141=VECTOR('',#380,1.);
#142=VECTOR('',#381,1.);
#143=VECTOR('',#382,1.);
#144=VECTOR('',#385,1.);
#145=VECTOR('',#386,1.);
#146=VECTOR('',#387,1.);
#147=VECTOR('',#392,1.);
#148=VECTOR('',#393,1.);
#149=VECTOR('',#396,1.);
#150=VECTOR('',#397,1.);
#151=VECTOR('',#402,1.);
#152=VECTOR('',#403,1.);
#153=VECTOR('',#404,1.);
#154=VECTOR('',#405,1.);
#155=VECTOR('',#406,1.);
#156=VECTOR('',#407,1.);
#157=VECTOR('',#414,1.);
#158=VECTOR('',#415,1.);
#159=VECTOR('',#416,1.);
#160=VECTOR('',#419,1.);
#161=VECTOR('',#422,1.);
#162=VECTOR('',#423,1.);
#163=VECTOR('',#424,1.);
#164=VECTOR('',#425,1.);
#165=VECTOR('',#428,1.);
#166=VECTOR('',#429,1.);
#167=VECTOR('',#432,1.);
#168=VECTOR('',#433,1.);
#169=VECTOR('',#434,1.);
#170=VECTOR('',#437,1.);
#171=VECTOR('',#440,1.);
#172=VECTOR('',#445,1.);
#173=ORIENTED_EDGE('',*,*,#285,.F.);
#174=ORIENTED_EDGE('',*,*,#286,.F.);
#175=ORIENTED_EDGE('',*,*,#287,.F.);
#176=ORIENTED_EDGE('',*,*,#288,.T.);
#177=ORIENTED_EDGE('',*,*,#288,.F.);
#178=ORIENTED_EDGE('',*,*,#289,.F.);
#179=ORIENTED_EDGE('',*,*,#290,.F.);
#180=ORIENTED_EDGE('',*,*,#291,.T.);
#181=ORIENTED_EDGE('',*,*,#292,.F.);
#182=ORIENTED_EDGE('',*,*,#293,.F.);
#183=ORIENTED_EDGE('',*,*,#294,.T.);
#184=ORIENTED_EDGE('',*,*,#295,.F.);
#185=ORIENTED_EDGE('',*,*,#296,.F.);
#186=ORIENTED_EDGE('',*,*,#285,.T.);
#187=ORIENTED_EDGE('',*,*,#292,.T.);
#188=ORIENTED_EDGE('',*,*,#297,.T.);
#189=ORIENTED_EDGE('',*,*,#298,.T.);
#190=ORIENTED_EDGE('',*,*,#299,.T.);
#191=ORIENTED_EDGE('',*,*,#300,.T.);
#192=ORIENTED_EDGE('',*,*,#301,.T.);
#193=ORIENTED_EDGE('',*,*,#300,.F.);
#194=ORIENTED_EDGE('',*,*,#302,.F.);
#195=ORIENTED_EDGE('',*,*,#303,.F.);
#196=ORIENTED_EDGE('',*,*,#304,.T.);
#197=ORIENTED_EDGE('',*,*,#289,.T.);
#198=ORIENTED_EDGE('',*,*,#287,.T.);
#199=ORIENTED_EDGE('',*,*,#305,.F.);
#200=ORIENTED_EDGE('',*,*,#306,.T.);
#201=ORIENTED_EDGE('',*,*,#307,.T.);
#202=ORIENTED_EDGE('',*,*,#308,.F.);
#203=ORIENTED_EDGE('',*,*,#309,.T.);
#204=ORIENTED_EDGE('',*,*,#310,.T.);
#205=ORIENTED_EDGE('',*,*,#303,.T.);
#206=ORIENTED_EDGE('',*,*,#302,.T.);
#207=ORIENTED_EDGE('',*,*,#299,.F.);
#208=ORIENTED_EDGE('',*,*,#301,.F.);
#209=ORIENTED_EDGE('',*,*,#310,.F.);
#210=ORIENTED_EDGE('',*,*,#311,.T.);
#211=ORIENTED_EDGE('',*,*,#312,.F.);
#212=ORIENTED_EDGE('',*,*,#309,.F.);
#213=ORIENTED_EDGE('',*,*,#313,.F.);
#214=ORIENTED_EDGE('',*,*,#298,.F.);
#215=ORIENTED_EDGE('',*,*,#308,.T.);
#216=ORIENTED_EDGE('',*,*,#314,.T.);
#217=ORIENTED_EDGE('',*,*,#293,.T.);
#218=ORIENTED_EDGE('',*,*,#313,.T.);
#219=ORIENTED_EDGE('',*,*,#314,.F.);
#220=ORIENTED_EDGE('',*,*,#307,.F.);
#221=ORIENTED_EDGE('',*,*,#315,.T.);
#222=ORIENTED_EDGE('',*,*,#316,.T.);
#223=ORIENTED_EDGE('',*,*,#317,.T.);
#224=ORIENTED_EDGE('',*,*,#318,.F.);
#225=ORIENTED_EDGE('',*,*,#294,.F.);
#226=ORIENTED_EDGE('',*,*,#295,.T.);
#227=ORIENTED_EDGE('',*,*,#318,.T.);
#228=ORIENTED_EDGE('',*,*,#319,.F.);
#229=ORIENTED_EDGE('',*,*,#320,.F.);
#230=ORIENTED_EDGE('',*,*,#286,.T.);
#231=ORIENTED_EDGE('',*,*,#296,.T.);
#232=ORIENTED_EDGE('',*,*,#320,.T.);
#233=ORIENTED_EDGE('',*,*,#321,.F.);
#234=ORIENTED_EDGE('',*,*,#322,.F.);
#235=ORIENTED_EDGE('',*,*,#323,.F.);
#236=ORIENTED_EDGE('',*,*,#305,.T.);
#237=ORIENTED_EDGE('',*,*,#324,.T.);
#238=ORIENTED_EDGE('',*,*,#315,.F.);
#239=ORIENTED_EDGE('',*,*,#306,.F.);
#240=ORIENTED_EDGE('',*,*,#323,.T.);
#241=ORIENTED_EDGE('',*,*,#325,.T.);
#242=ORIENTED_EDGE('',*,*,#316,.F.);
#243=ORIENTED_EDGE('',*,*,#324,.F.);
#244=ORIENTED_EDGE('',*,*,#322,.T.);
#245=ORIENTED_EDGE('',*,*,#319,.T.);
#246=ORIENTED_EDGE('',*,*,#317,.F.);
#247=ORIENTED_EDGE('',*,*,#325,.F.);
#248=ORIENTED_EDGE('',*,*,#321,.T.);
#249=ORIENTED_EDGE('',*,*,#312,.T.);
#250=ORIENTED_EDGE('',*,*,#326,.T.);
#251=ORIENTED_EDGE('',*,*,#290,.T.);
#252=ORIENTED_EDGE('',*,*,#304,.F.);
#253=ORIENTED_EDGE('',*,*,#297,.F.);
#254=ORIENTED_EDGE('',*,*,#291,.F.);
#255=ORIENTED_EDGE('',*,*,#326,.F.);
#256=ORIENTED_EDGE('',*,*,#311,.F.);
#257=VERTEX_POINT('',#455);
#258=VERTEX_POINT('',#456);
#259=VERTEX_POINT('',#458);
#260=VERTEX_POINT('',#460);
#261=VERTEX_POINT('',#464);
#262=VERTEX_POINT('',#466);
#263=VERTEX_POINT('',#468);
#264=VERTEX_POINT('',#475);
#265=VERTEX_POINT('',#476);
#266=VERTEX_POINT('',#481);
#267=VERTEX_POINT('',#483);
#268=VERTEX_POINT('',#489);
#269=VERTEX_POINT('',#525);
#270=VERTEX_POINT('',#526);
#271=VERTEX_POINT('',#560);
#272=VERTEX_POINT('',#562);
#273=VERTEX_POINT('',#566);
#274=VERTEX_POINT('',#568);
#275=VERTEX_POINT('',#570);
#276=VERTEX_POINT('',#572);
#277=VERTEX_POINT('',#574);
#278=VERTEX_POINT('',#580);
#279=VERTEX_POINT('',#587);
#280=VERTEX_POINT('',#589);
#281=VERTEX_POINT('',#591);
#282=VERTEX_POINT('',#595);
#283=VERTEX_POINT('',#599);
#284=VERTEX_POINT('',#601);
#285=EDGE_CURVE('',#257,#258,#327,.T.);
#286=EDGE_CURVE('',#259,#257,#109,.T.);
#287=EDGE_CURVE('',#260,#259,#110,.T.);
#288=EDGE_CURVE('',#260,#258,#111,.T.);
#289=EDGE_CURVE('',#261,#260,#112,.T.);
#290=EDGE_CURVE('',#262,#261,#113,.T.);
#291=EDGE_CURVE('',#262,#263,#114,.T.);
#292=EDGE_CURVE('',#258,#263,#42,.T.);
#293=EDGE_CURVE('',#264,#265,#328,.T.);
#294=EDGE_CURVE('',#264,#266,#43,.T.);
#295=EDGE_CURVE('',#267,#266,#115,.T.);
#296=EDGE_CURVE('',#257,#267,#44,.T.);
#297=EDGE_CURVE('',#263,#268,#116,.T.);
#298=EDGE_CURVE('',#268,#265,#45,.T.);
#299=EDGE_CURVE('',#269,#270,#46,.T.);
#300=EDGE_CURVE('',#270,#269,#47,.T.);
#301=EDGE_CURVE('',#271,#269,#117,.T.);
#302=EDGE_CURVE('',#272,#270,#118,.T.);
#303=EDGE_CURVE('',#271,#272,#329,.T.);
#304=EDGE_CURVE('',#273,#261,#119,.T.);
#305=EDGE_CURVE('',#274,#259,#120,.T.);
#306=EDGE_CURVE('',#274,#275,#121,.T.);
#307=EDGE_CURVE('',#275,#276,#122,.T.);
#308=EDGE_CURVE('',#277,#276,#123,.T.);
#309=EDGE_CURVE('',#277,#273,#124,.T.);
#310=EDGE_CURVE('',#272,#271,#330,.T.);
#311=EDGE_CURVE('',#268,#278,#125,.T.);
#312=EDGE_CURVE('',#273,#278,#126,.T.);
#313=EDGE_CURVE('',#265,#277,#127,.T.);
#314=EDGE_CURVE('',#276,#264,#128,.T.);
#315=EDGE_CURVE('',#275,#279,#129,.T.);
#316=EDGE_CURVE('',#279,#280,#130,.T.);
#317=EDGE_CURVE('',#280,#281,#131,.T.);
#318=EDGE_CURVE('',#266,#281,#132,.T.);
#319=EDGE_CURVE('',#282,#281,#133,.T.);
#320=EDGE_CURVE('',#267,#282,#134,.T.);
#321=EDGE_CURVE('',#283,#282,#135,.T.);
#322=EDGE_CURVE('',#284,#283,#136,.T.);
#323=EDGE_CURVE('',#274,#284,#137,.T.);
#324=EDGE_CURVE('',#284,#279,#138,.T.);
#325=EDGE_CURVE('',#283,#280,#139,.T.);
#326=EDGE_CURVE('',#278,#262,#140,.T.);
#327=CIRCLE('',#352,15.);
#328=CIRCLE('',#355,15.);
#329=CIRCLE('',#357,3.5);
#330=CIRCLE('',#359,3.5);
#331=COLOUR_RGB('Strong Stone',0.576470588235294,0.54508278019379,0.392156862745098);
#332=COLOUR_RGB('spare part',0.301960784313725,0.301960784313725,0.301960784313725);
#333=CURVE_STYLE('',#335,POSITIVE_LENGTH_MEASURE(0.13),#348);
#334=CURVE_STYLE('',#336,POSITIVE_LENGTH_MEASURE(0.13),#331);
#335=DRAUGHTING_PRE_DEFINED_CURVE_FONT('continuous');
#336=DRAUGHTING_PRE_DEFINED_CURVE_FONT('continuous');
#337=PRESENTATION_LAYER_ASSIGNMENT('1','Layer 1',(#451,#350,#351,#33));
#338=STYLED_ITEM('',(#342),#451);
#339=STYLED_ITEM('',(#343),#350);
#340=STYLED_ITEM('',(#344),#351);
#341=STYLED_ITEM('',(#345),#33);
#342=PRESENTATION_STYLE_ASSIGNMENT((#346));
#343=PRESENTATION_STYLE_ASSIGNMENT((#333));
#344=PRESENTATION_STYLE_ASSIGNMENT((#334));
#345=PRESENTATION_STYLE_ASSIGNMENT((#28));
#346=POINT_STYLE('',#347,POSITIVE_LENGTH_MEASURE(3.),#348);
#347=PRE_DEFINED_POINT_MARKER_SYMBOL('plus');
#348=DRAUGHTING_PRE_DEFINED_COLOUR('yellow');
#349=AXIS2_PLACEMENT_3D('',#450,#372,#373);
#350=AXIS2_PLACEMENT_3D('PCS',#452,#374,#375);
#351=AXIS2_PLACEMENT_3D('',#453,#376,#377);
#352=AXIS2_PLACEMENT_3D('',#454,#378,#379);
#353=AXIS2_PLACEMENT_3D('',#462,#383,#384);
#354=AXIS2_PLACEMENT_3D('',#473,#388,#389);
#355=AXIS2_PLACEMENT_3D('',#474,#390,#391);
#356=AXIS2_PLACEMENT_3D('',#558,#394,#395);
#357=AXIS2_PLACEMENT_3D('',#563,#398,#399);
#358=AXIS2_PLACEMENT_3D('',#564,#400,#401);
#359=AXIS2_PLACEMENT_3D('',#576,#408,#409);
#360=AXIS2_PLACEMENT_3D('',#577,#410,#411);
#361=AXIS2_PLACEMENT_3D('',#578,#412,#413);
#362=AXIS2_PLACEMENT_3D('',#583,#417,#418);
#363=AXIS2_PLACEMENT_3D('',#585,#420,#421);
#364=AXIS2_PLACEMENT_3D('',#593,#426,#427);
#365=AXIS2_PLACEMENT_3D('',#597,#430,#431);
#366=AXIS2_PLACEMENT_3D('',#603,#435,#436);
#367=AXIS2_PLACEMENT_3D('',#605,#438,#439);
#368=AXIS2_PLACEMENT_3D('',#607,#441,#442);
#369=AXIS2_PLACEMENT_3D('',#608,#443,#444);
#370=AXIS2_PLACEMENT_3D('',#610,#446,#447);
#371=AXIS2_PLACEMENT_3D('',#611,#448,#449);
#372=DIRECTION('',(0.,0.,1.));
#373=DIRECTION('',(1.,0.,0.));
#374=DIRECTION('',(0.,0.,1.));
#375=DIRECTION('',(1.,0.,0.));
#376=DIRECTION('',(0.,0.,1.));
#377=DIRECTION('',(1.,0.,0.));
#378=DIRECTION('',(-1.,0.,0.));
#379=DIRECTION('',(0.,0.375665972728602,-0.926755133211504));
#380=DIRECTION('',(0.,0.190808995376591,0.981627183447655));
#381=DIRECTION('',(0.,1.,0.));
#382=DIRECTION('',(0.,0.,1.));
#383=DIRECTION('',(1.,0.,0.));
#384=DIRECTION('',(0.,-1.,0.));
#385=DIRECTION('',(-0.707106781186547,0.707106781186547,0.));
#386=DIRECTION('',(-0.577350269189626,0.577350269189626,-0.577350269189626));
#387=DIRECTION('',(0.,0.,1.));
#388=DIRECTION('',(-0.707106781186547,-0.707106781186547,0.));
#389=DIRECTION('',(-0.707106781186547,0.707106781186547,0.));
#390=DIRECTION('',(-1.,0.,0.));
#391=DIRECTION('',(0.,0.375665972728602,-0.926755133211504));
#392=DIRECTION('',(1.,0.,0.));
#393=DIRECTION('',(1.,0.,0.));
#394=DIRECTION('',(1.,0.,0.));
#395=DIRECTION('',(0.,-1.,0.));
#396=DIRECTION('',(0.,0.,1.));
#397=DIRECTION('',(0.,0.,1.));
#398=DIRECTION('',(0.,0.,1.));
#399=DIRECTION('',(-1.,0.,0.));
#400=DIRECTION('',(0.,0.,1.));
#401=DIRECTION('',(1.,0.,0.));
#402=DIRECTION('',(-1.,0.,0.));
#403=DIRECTION('',(-0.70052067502273,-0.713632106806931,0.));
#404=DIRECTION('',(1.,0.,0.));
#405=DIRECTION('',(0.70052067502273,-0.713632106806931,0.));
#406=DIRECTION('',(0.,1.,0.));
#407=DIRECTION('',(-0.707106781186547,-0.707106781186547,0.));
#408=DIRECTION('',(0.,0.,1.));
#409=DIRECTION('',(1.,0.,0.));
#410=DIRECTION('',(0.,0.,-1.));
#411=DIRECTION('',(0.,-1.,0.));
#412=DIRECTION('',(0.,0.,1.));
#413=DIRECTION('',(1.,0.,0.));
#414=DIRECTION('',(0.,0.,-1.));
#415=DIRECTION('',(-0.577350269189626,-0.577350269189626,0.577350269189626));
#416=DIRECTION('',(0.,0.,-1.));
#417=DIRECTION('',(0.707106781186547,-0.707106781186547,0.));
#418=DIRECTION('',(0.707106781186547,0.707106781186547,0.));
#419=DIRECTION('',(0.,0.190808995376591,0.981627183447655));
#420=DIRECTION('',(1.,0.,0.));
#421=DIRECTION('',(0.,-1.,0.));
#422=DIRECTION('',(0.,0.190808995376495,0.981627183447674));
#423=DIRECTION('',(-0.707106781186516,0.694115238012916,-0.134922334542203));
#424=DIRECTION('',(0.,0.190808995376495,0.981627183447674));
#425=DIRECTION('',(-0.70052067502273,0.713632106806931,0.));
#426=DIRECTION('',(-0.707106781186516,-0.694115238012916,0.134922334542203));
#427=DIRECTION('',(-0.707106781186579,0.694115238012854,-0.134922334542191));
#428=DIRECTION('',(1.,0.,0.));
#429=DIRECTION('',(0.70052067502273,0.713632106806931,0.));
#430=DIRECTION('',(0.,0.,1.));
#431=DIRECTION('',(0.,1.,0.));
#432=DIRECTION('',(0.,0.190808995376495,0.981627183447674));
#433=DIRECTION('',(0.707106781186516,0.694115238012916,-0.134922334542203));
#434=DIRECTION('',(0.,0.190808995376495,0.981627183447674));
#435=DIRECTION('',(0.707106781186516,-0.694115238012916,0.134922334542203));
#436=DIRECTION('',(-0.707106781186579,-0.694115238012854,0.134922334542191));
#437=DIRECTION('',(1.,0.,0.));
#438=DIRECTION('',(0.,0.981627183447674,-0.190808995376495));
#439=DIRECTION('',(0.,-0.190808995376495,-0.981627183447674));
#440=DIRECTION('',(1.,0.,0.));
#441=DIRECTION('',(0.,-0.190808995376591,-0.981627183447655));
#442=DIRECTION('',(0.,-0.981627183447655,0.190808995376591));
#443=DIRECTION('',(0.,0.981627183447674,-0.190808995376495));
#444=DIRECTION('',(0.,-0.190808995376495,-0.981627183447674));
#445=DIRECTION('',(-1.,0.,0.));
#446=DIRECTION('',(0.,-0.707106781186547,-0.707106781186547));
#447=DIRECTION('',(0.,0.707106781186547,-0.707106781186547));
#448=DIRECTION('',(0.,-1.,0.));
#449=DIRECTION('',(0.,0.,1.));
#450=CARTESIAN_POINT('',(0.,0.,0.));
#451=CARTESIAN_POINT('',(0.,0.,0.));
#452=CARTESIAN_POINT('',(0.,0.,0.));
#453=CARTESIAN_POINT('',(0.,0.,0.));
#454=CARTESIAN_POINT('',(-5.2,-0.2626410000796,22.38905100088));
#455=CARTESIAN_POINT('',(-5.2,5.372348590849,8.487724002703));
#456=CARTESIAN_POINT('',(-5.2,-3.5,7.742566552188));
#457=CARTESIAN_POINT('',(-5.2,3.722502175328,0.));
#458=CARTESIAN_POINT('',(-5.2,3.722502175328,0.));
#459=CARTESIAN_POINT('',(-5.2,-3.5,0.));
#460=CARTESIAN_POINT('',(-5.2,-3.5,0.));
#461=CARTESIAN_POINT('',(-5.2,-3.5,0.));
#462=CARTESIAN_POINT('',(-5.2,0.,0.));
#463=CARTESIAN_POINT('',(-4.7,-4.,0.));
#464=CARTESIAN_POINT('',(-4.7,-4.,0.));
#465=CARTESIAN_POINT('',(-4.2,-4.5,0.5));
#466=CARTESIAN_POINT('',(-4.2,-4.5,0.5));
#467=CARTESIAN_POINT('',(-4.2,-4.5,0.5));
#468=CARTESIAN_POINT('',(-4.2,-4.5,8.));
#469=CARTESIAN_POINT('',(-5.2,-3.5,7.742566552188));
#470=CARTESIAN_POINT('',(-4.865147193246,-3.834852806754,7.816580132129));
#471=CARTESIAN_POINT('',(-4.531800772228,-4.168199227772,7.902289665364));
#472=CARTESIAN_POINT('',(-4.2,-4.5,8.));
#473=CARTESIAN_POINT('',(-4.7,-4.,3.871283276094));
#474=CARTESIAN_POINT('',(5.2,-0.2626410000796,22.38905100088));
#475=CARTESIAN_POINT('',(5.2,5.372348590849,8.487724002703));
#476=CARTESIAN_POINT('',(5.2,-3.5,7.742566552188));
#477=CARTESIAN_POINT('',(5.2,5.372348590849,8.487724002703));
#478=CARTESIAN_POINT('',(4.857724862696,5.750853638064,8.641153384045));
#479=CARTESIAN_POINT('',(4.521189986979,6.126799590531,8.811501174344));
#480=CARTESIAN_POINT('',(4.190813591724,6.5,9.));
#481=CARTESIAN_POINT('',(4.190813591724,6.5,9.));
#482=CARTESIAN_POINT('',(-4.190813591724,6.5,9.));
#483=CARTESIAN_POINT('',(-4.190813591724,6.5,9.));
#484=CARTESIAN_POINT('',(-5.2,5.372348590849,8.487724002703));
#485=CARTESIAN_POINT('',(-4.857724862696,5.750853638064,8.641153384045));
#486=CARTESIAN_POINT('',(-4.521189986979,6.126799590531,8.811501174344));
#487=CARTESIAN_POINT('',(-4.190813591724,6.5,9.));
#488=CARTESIAN_POINT('',(-4.2,-4.5,8.));
#489=CARTESIAN_POINT('',(4.2,-4.5,8.));
#490=CARTESIAN_POINT('',(4.2,-4.5,8.));
#491=CARTESIAN_POINT('',(4.531800772228,-4.168199227772,7.902289665364));
#492=CARTESIAN_POINT('',(4.865147193246,-3.834852806754,7.816580132129));
#493=CARTESIAN_POINT('',(5.2,-3.5,7.742566552188));
#494=CARTESIAN_POINT('',(-3.5,-8.30703413223313E-14,7.39135052030374));
#495=CARTESIAN_POINT('',(-3.50000000000001,0.386913024765453,7.3981261739381));
#496=CARTESIAN_POINT('',(-3.43394229060749,0.77885290676121,7.42077827061221));
#497=CARTESIAN_POINT('',(-3.30804744341197,1.1431632045056,7.45507247744658));
#498=CARTESIAN_POINT('',(-3.18224029991293,1.50721970822675,7.48934279348023));
#499=CARTESIAN_POINT('',(-2.99348297390564,1.85368880228961,7.53594099539974));
#500=CARTESIAN_POINT('',(-2.75724080467191,2.15583467479587,7.58530230637577));
#501=CARTESIAN_POINT('',(-2.51679398583975,2.46335815421126,7.63554215236122));
#502=CARTESIAN_POINT('',(-2.22056525633359,2.73347052442596,7.68972846720091));
#503=CARTESIAN_POINT('',(-1.89171545961467,2.94472623852454,7.73596957079408));
#504=CARTESIAN_POINT('',(-1.55924167940176,3.15831002832376,7.78272025960772));
#505=CARTESIAN_POINT('',(-1.18378982361587,3.3175989652167,7.82228794913955));
#506=CARTESIAN_POINT('',(-0.796958514072338,3.40805767657292,7.84511854692445));
#507=CARTESIAN_POINT('',(-0.418596688262427,3.49653583835755,7.86744927985405));
#508=CARTESIAN_POINT('',(-0.0186355924945621,3.52150907086649,7.87416225007376));
#509=CARTESIAN_POINT('',(0.368272032467199,3.48057117584205,7.86361253568963));
#510=CARTESIAN_POINT('',(0.746110317424211,3.44059288891292,7.85331011275319));
#511=CARTESIAN_POINT('',(1.12176460540717,3.33687238252358,7.82642855652838));
#512=CARTESIAN_POINT('',(1.46527170089498,3.17851834076136,7.78910502868739));
#513=CARTESIAN_POINT('',(1.81239724413964,3.01849622333278,7.75138834088737));
#514=CARTESIAN_POINT('',(2.13609597296035,2.79859519577882,7.70231536728662));
#515=CARTESIAN_POINT('',(2.41205820132269,2.53613391472768,7.65246866384386));
#516=CARTESIAN_POINT('',(2.69591728733556,2.26616211534389,7.60119556112982));
#517=CARTESIAN_POINT('',(2.93707319589722,1.94365357177894,7.5480143150536));
#518=CARTESIAN_POINT('',(3.11591400885388,1.59407650049429,7.50440790394742));
#519=CARTESIAN_POINT('',(3.29572660716929,1.24259989702786,7.46056454428817));
#520=CARTESIAN_POINT('',(3.41741664369286,0.853635688902201,7.42546206085456));
#521=CARTESIAN_POINT('',(3.46959902642441,0.460307066896428,7.40648292686626));
#522=CARTESIAN_POINT('',(3.48981005282113,0.3079649401898,7.39913202110181));
#523=CARTESIAN_POINT('',(3.5,0.153829087133346,7.39404438829627));
#524=CARTESIAN_POINT('',(3.5,-8.30779357488177E-14,7.39135052030374));
#525=CARTESIAN_POINT('',(-3.5,-8.30703413223313E-14,7.39135052030374));
#526=CARTESIAN_POINT('',(3.5,-8.30779357488177E-14,7.39135052030374));
#527=CARTESIAN_POINT('',(3.5,-8.30779357488177E-14,7.39135052030374));
#528=CARTESIAN_POINT('',(3.49999999999999,-0.384998906118925,7.38460838687712));
#529=CARTESIAN_POINT('',(3.43457483525592,-0.775572400785815,7.39340117789481));
#530=CARTESIAN_POINT('',(3.30944538768414,-1.13910983927635,7.4146794823849));
#531=CARTESIAN_POINT('',(3.18438383079035,-1.50245003560165,7.43594624204246));
#532=CARTESIAN_POINT('',(2.99647080288964,-1.84872986147132,7.4700344656204));
#533=CARTESIAN_POINT('',(2.76114866036023,-2.15082730022447,7.50836712896251));
#534=CARTESIAN_POINT('',(2.52237658860888,-2.45735362429469,7.54726176651579));
#535=CARTESIAN_POINT('',(2.22831089487115,-2.72683852222566,7.5912877107724));
#536=CARTESIAN_POINT('',(1.90209706282228,-2.93803110323952,7.62956971609516));
#537=CARTESIAN_POINT('',(1.57142196957811,-3.1521119286313,7.6683752615258));
#538=CARTESIAN_POINT('',(1.19827895527787,-3.31216280497993,7.7020072712171));
#539=CARTESIAN_POINT('',(0.813771826792747,-3.40408216909028,7.72169447757817));
#540=CARTESIAN_POINT('',(0.434628695927344,-3.49471922862481,7.74110704110367));
#541=CARTESIAN_POINT('',(0.033768530289657,-3.52152321041867,7.74728458886592));
#542=CARTESIAN_POINT('',(-0.354438261276564,-3.48200711069682,7.7386011154393));
#543=CARTESIAN_POINT('',(-0.735605511111261,-3.44320757554598,7.73007510364109));
#544=CARTESIAN_POINT('',(-1.11496252682861,-3.3395695162255,7.70712462974119));
#545=CARTESIAN_POINT('',(-1.46197190442344,-3.18003744485446,7.67549269624087));
#546=CARTESIAN_POINT('',(-1.81172897563632,-3.01924216481333,7.64361029440333));
#547=CARTESIAN_POINT('',(-2.13815657960572,-2.79747037846501,7.60234748586537));
#548=CARTESIAN_POINT('',(-2.41607887094327,-2.53230386987452,7.56175757094228));
#549=CARTESIAN_POINT('',(-2.69982006541728,-2.26158552799606,7.52031781852641));
#550=CARTESIAN_POINT('',(-2.94083658847824,-1.93804786384461,7.4787618101433));
#551=CARTESIAN_POINT('',(-3.11917006430619,-1.58769584931626,7.44769130216066));
#552=CARTESIAN_POINT('',(-3.29745055478724,-1.23744792922642,7.4166300256565));
#553=CARTESIAN_POINT('',(-3.41793306590841,-0.850370254115169,7.39547513214009));
#554=CARTESIAN_POINT('',(-3.4696953494998,-0.459580440901802,7.39034389471086));
#555=CARTESIAN_POINT('',(-3.48985301091489,-0.307396105268389,7.38834564927881));
#556=CARTESIAN_POINT('',(-3.5,-0.153502997104694,7.38866236282741));
#557=CARTESIAN_POINT('',(-3.5,-8.30703413223313E-14,7.39135052030374));
#558=CARTESIAN_POINT('',(-5.2,-0.2626410000796,22.38905100088));
#559=CARTESIAN_POINT('',(-3.5,0.,0.));
#560=CARTESIAN_POINT('',(-3.5,0.,0.));
#561=CARTESIAN_POINT('',(3.5,0.,0.));
#562=CARTESIAN_POINT('',(3.5,0.,0.));
#563=CARTESIAN_POINT('',(0.,0.,0.));
#564=CARTESIAN_POINT('',(0.,0.,0.));
#565=CARTESIAN_POINT('',(4.7,-4.,0.));
#566=CARTESIAN_POINT('',(4.7,-4.,0.));
#567=CARTESIAN_POINT('',(-3.85,5.097769713517,0.));
#568=CARTESIAN_POINT('',(-3.85,5.097769713517,0.));
#569=CARTESIAN_POINT('',(-3.85,5.097769713517,0.));
#570=CARTESIAN_POINT('',(3.85,5.097769713517,0.));
#571=CARTESIAN_POINT('',(3.85,5.097769713517,0.));
#572=CARTESIAN_POINT('',(5.2,3.722502175328,0.));
#573=CARTESIAN_POINT('',(5.2,-3.5,0.));
#574=CARTESIAN_POINT('',(5.2,-3.5,0.));
#575=CARTESIAN_POINT('',(5.2,-3.5,0.));
#576=CARTESIAN_POINT('',(0.,0.,0.));
#577=CARTESIAN_POINT('',(-5.2,-4.5,0.));
#578=CARTESIAN_POINT('',(0.,0.,0.));
#579=CARTESIAN_POINT('',(4.2,-4.5,8.));
#580=CARTESIAN_POINT('',(4.2,-4.5,0.5));
#581=CARTESIAN_POINT('',(4.7,-4.,0.));
#582=CARTESIAN_POINT('',(5.2,-3.5,7.742566552188));
#583=CARTESIAN_POINT('',(4.7,-4.,3.871283276094));
#584=CARTESIAN_POINT('',(5.2,3.722502175328,0.));
#585=CARTESIAN_POINT('',(5.2,0.,0.));
#586=CARTESIAN_POINT('',(3.85,5.097769713517,0.));
#587=CARTESIAN_POINT('',(3.85,5.8987109456,4.120485432068));
#588=CARTESIAN_POINT('',(3.85,5.8987109456,4.120485432068));
#589=CARTESIAN_POINT('',(3.7,6.045955023117,4.091864082762));
#590=CARTESIAN_POINT('',(3.7,6.045955023117,4.091864082762));
#591=CARTESIAN_POINT('',(3.7,7.,9.));
#592=CARTESIAN_POINT('',(4.190813591724,6.5,9.));
#593=CARTESIAN_POINT('',(3.7,7.210442250661,10.08263152577));
#594=CARTESIAN_POINT('',(-3.7,7.,9.));
#595=CARTESIAN_POINT('',(-3.7,7.,9.));
#596=CARTESIAN_POINT('',(-4.190813591724,6.5,9.));
#597=CARTESIAN_POINT('',(-5.2,7.,9.));
#598=CARTESIAN_POINT('',(-3.7,6.045955023117,4.091864082762));
#599=CARTESIAN_POINT('',(-3.7,6.045955023117,4.091864082762));
#600=CARTESIAN_POINT('',(-3.85,5.8987109456,4.120485432068));
#601=CARTESIAN_POINT('',(-3.85,5.8987109456,4.120485432068));
#602=CARTESIAN_POINT('',(-3.85,5.097769713517,0.));
#603=CARTESIAN_POINT('',(-5.2,5.73800147549,10.36884501883));
#604=CARTESIAN_POINT('',(-3.85,5.8987109456,4.120485432068));
#605=CARTESIAN_POINT('',(-5.2,5.097769713517,0.));
#606=CARTESIAN_POINT('',(-3.7,6.045955023117,4.091864082762));
#607=CARTESIAN_POINT('',(-5.2,5.8987109456,4.120485432068));
#608=CARTESIAN_POINT('',(-5.2,6.045955023117,4.091864082762));
#609=CARTESIAN_POINT('',(4.2,-4.5,0.5));
#610=CARTESIAN_POINT('',(0.,-4.25,0.25));
#611=CARTESIAN_POINT('',(-5.2,-4.5,8.));
#612=MECHANICAL_DESIGN_GEOMETRIC_PRESENTATION_REPRESENTATION('',(#338,#339,
#340,#341),#613);
#613=(
GEOMETRIC_REPRESENTATION_CONTEXT(3)
GLOBAL_UNCERTAINTY_ASSIGNED_CONTEXT((#614))
GLOBAL_UNIT_ASSIGNED_CONTEXT((#620,#616,#615))
REPRESENTATION_CONTEXT('CWSE445SN','TOP_LEVEL_ASSEMBLY_PART')
);
#614=UNCERTAINTY_MEASURE_WITH_UNIT(LENGTH_MEASURE(0.0508),#620,
'DISTANCE_ACCURACY_VALUE','Maximum Tolerance applied to model');
#615=(
NAMED_UNIT(*)
SI_UNIT($,.STERADIAN.)
SOLID_ANGLE_UNIT()
);
#616=(
CONVERSION_BASED_UNIT('DEGREE',#618)
NAMED_UNIT(#617)
PLANE_ANGLE_UNIT()
);
#617=DIMENSIONAL_EXPONENTS(0.,0.,0.,0.,0.,0.,0.);
#618=PLANE_ANGLE_MEASURE_WITH_UNIT(PLANE_ANGLE_MEASURE(0.0174532925),#619);
#619=(
NAMED_UNIT(*)
PLANE_ANGLE_UNIT()
SI_UNIT($,.RADIAN.)
);
#620=(
LENGTH_UNIT()
NAMED_UNIT(*)
SI_UNIT(.MILLI.,.METRE.)
);
ENDSEC;
END-ISO-10303-21;
