ISO-10303-21;
HEADER;
FILE_DESCRIPTION((''),'2;1');
FILE_NAME('RCMT1204M0','2022-01-13T12:02:03',('tlyw01'),('PTC Japan'),
'CREO PARAMETRIC BY PTC INC, 2018500','CREO PARAMETRIC BY PTC INC, 2018500','');
FILE_SCHEMA(('AUTOMOTIVE_DESIGN { 1 0 10303 214 1 1 1 1 }'));
ENDSEC;
DATA;
#19=CARTESIAN_POINT('',(0.E0,0.E0,-4.76E0));
#20=DIRECTION('',(0.E0,0.E0,1.E0));
#21=DIRECTION('',(0.E0,-1.E0,0.E0));
#22=AXIS2_PLACEMENT_3D('',#19,#20,#21);
#24=DRAUGHTING_PRE_DEFINED_CURVE_FONT('continuous');
#25=CURVE_STYLE('',#24,POSITIVE_LENGTH_MEASURE(2.E-2),#9);
#26=PRESENTATION_STYLE_ASSIGNMENT((#25));
#27=STYLED_ITEM('',(#26),#23);
#28=CARTESIAN_POINT('',(0.E0,0.E0,-4.76E0));
#29=DIRECTION('',(0.E0,0.E0,1.E0));
#30=DIRECTION('',(0.E0,1.E0,0.E0));
#31=AXIS2_PLACEMENT_3D('',#28,#29,#30);
#33=CURVE_STYLE('',#24,POSITIVE_LENGTH_MEASURE(2.E-2),#9);
#34=PRESENTATION_STYLE_ASSIGNMENT((#33));
#35=STYLED_ITEM('',(#34),#32);
#36=CARTESIAN_POINT('',(0.E0,0.E0,-4.76E0));
#37=DIRECTION('',(0.E0,0.E0,1.E0));
#38=DIRECTION('',(1.E0,0.E0,0.E0));
#39=AXIS2_PLACEMENT_3D('',#36,#37,#38);
#41=CURVE_STYLE('',#24,POSITIVE_LENGTH_MEASURE(2.E-2),#9);
#42=PRESENTATION_STYLE_ASSIGNMENT((#41));
#43=STYLED_ITEM('',(#42),#40);
#44=CARTESIAN_POINT('',(0.E0,0.E0,-4.76E0));
#45=DIRECTION('',(0.E0,0.E0,1.E0));
#46=DIRECTION('',(-1.E0,0.E0,0.E0));
#47=AXIS2_PLACEMENT_3D('',#44,#45,#46);
#49=CURVE_STYLE('',#24,POSITIVE_LENGTH_MEASURE(2.E-2),#9);
#50=PRESENTATION_STYLE_ASSIGNMENT((#49));
#51=STYLED_ITEM('',(#50),#48);
#52=DIRECTION('',(0.E0,-1.218693434052E-1,9.925461516413E-1));
#53=VECTOR('',#52,4.795746769184E0);
#54=CARTESIAN_POINT('',(0.E0,-5.415545490102E0,-4.76E0));
#55=LINE('',#54,#53);
#56=CURVE_STYLE('',#24,POSITIVE_LENGTH_MEASURE(2.E-2),#9);
#57=PRESENTATION_STYLE_ASSIGNMENT((#56));
#58=STYLED_ITEM('',(#57),#55);
#59=CARTESIAN_POINT('',(0.E0,0.E0,-2.131628207280E-14));
#60=DIRECTION('',(0.E0,0.E0,-1.E0));
#61=DIRECTION('',(0.E0,1.E0,0.E0));
#62=AXIS2_PLACEMENT_3D('',#59,#60,#61);
#64=CURVE_STYLE('',#24,POSITIVE_LENGTH_MEASURE(2.E-2),#9);
#65=PRESENTATION_STYLE_ASSIGNMENT((#64));
#66=STYLED_ITEM('',(#65),#63);
#67=CARTESIAN_POINT('',(0.E0,0.E0,-2.131628207280E-14));
#68=DIRECTION('',(0.E0,0.E0,-1.E0));
#69=DIRECTION('',(0.E0,-1.E0,0.E0));
#70=AXIS2_PLACEMENT_3D('',#67,#68,#69);
#72=CURVE_STYLE('',#24,POSITIVE_LENGTH_MEASURE(2.E-2),#9);
#73=PRESENTATION_STYLE_ASSIGNMENT((#72));
#74=STYLED_ITEM('',(#73),#71);
#75=CARTESIAN_POINT('',(0.E0,0.E0,1.620925615953E-13));
#76=DIRECTION('',(0.E0,0.E0,1.E0));
#77=DIRECTION('',(0.E0,1.E0,0.E0));
#78=AXIS2_PLACEMENT_3D('',#75,#76,#77);
#80=CURVE_STYLE('',#24,POSITIVE_LENGTH_MEASURE(2.E-2),#9);
#81=PRESENTATION_STYLE_ASSIGNMENT((#80));
#82=STYLED_ITEM('',(#81),#79);
#83=CARTESIAN_POINT('',(0.E0,0.E0,1.620925615953E-13));
#84=DIRECTION('',(0.E0,0.E0,1.E0));
#85=DIRECTION('',(0.E0,-1.E0,0.E0));
#86=AXIS2_PLACEMENT_3D('',#83,#84,#85);
#88=CURVE_STYLE('',#24,POSITIVE_LENGTH_MEASURE(2.E-2),#9);
#89=PRESENTATION_STYLE_ASSIGNMENT((#88));
#90=STYLED_ITEM('',(#89),#87);
#91=DIRECTION('',(0.E0,1.218693434052E-1,9.925461516413E-1));
#92=VECTOR('',#91,4.795746769184E0);
#93=CARTESIAN_POINT('',(0.E0,5.415545490102E0,-4.76E0));
#94=LINE('',#93,#92);
#95=CURVE_STYLE('',#24,POSITIVE_LENGTH_MEASURE(2.E-2),#9);
#96=PRESENTATION_STYLE_ASSIGNMENT((#95));
#97=STYLED_ITEM('',(#96),#94);
#98=DIRECTION('',(0.E0,-7.004333382700E-1,7.137178284447E-1));
#99=VECTOR('',#98,1.162994791243E-1);
#100=CARTESIAN_POINT('',(0.E0,3.836898502157E0,1.068774698372E-13));
#101=LINE('',#100,#99);
#102=CURVE_STYLE('',#24,POSITIVE_LENGTH_MEASURE(2.E-2),#9);
#103=PRESENTATION_STYLE_ASSIGNMENT((#102));
#104=STYLED_ITEM('',(#103),#101);
#105=CARTESIAN_POINT('',(0.E0,3.606074260972E0,-4.999999999995E-2));
#106=DIRECTION('',(1.E0,0.E0,0.E0));
#107=DIRECTION('',(0.E0,7.468210439149E-1,6.650250584496E-1));
#108=AXIS2_PLACEMENT_3D('',#105,#106,#107);
#110=CURVE_STYLE('',#24,POSITIVE_LENGTH_MEASURE(2.E-2),#9);
#111=PRESENTATION_STYLE_ASSIGNMENT((#110));
#112=STYLED_ITEM('',(#111),#109);
#113=CARTESIAN_POINT('',(0.E0,-3.606074260972E0,-4.999999999995E-2));
#114=DIRECTION('',(1.E0,0.E0,0.E0));
#115=DIRECTION('',(0.E0,0.E0,1.E0));
#116=AXIS2_PLACEMENT_3D('',#113,#114,#115);
#118=CURVE_STYLE('',#24,POSITIVE_LENGTH_MEASURE(2.E-2),#9);
#119=PRESENTATION_STYLE_ASSIGNMENT((#118));
#120=STYLED_ITEM('',(#119),#117);
#121=CARTESIAN_POINT('',(0.E0,0.E0,8.300501168997E-2));
#122=DIRECTION('',(0.E0,0.E0,-1.E0));
#123=DIRECTION('',(0.E0,-1.E0,0.E0));
#124=AXIS2_PLACEMENT_3D('',#121,#122,#123);
#126=CURVE_STYLE('',#24,POSITIVE_LENGTH_MEASURE(2.E-2),#9);
#127=PRESENTATION_STYLE_ASSIGNMENT((#126));
#128=STYLED_ITEM('',(#127),#125);
#129=CARTESIAN_POINT('',(0.E0,0.E0,8.300501168997E-2));
#130=DIRECTION('',(0.E0,0.E0,-1.E0));
#131=DIRECTION('',(0.E0,1.E0,0.E0));
#132=AXIS2_PLACEMENT_3D('',#129,#130,#131);
#134=CURVE_STYLE('',#24,POSITIVE_LENGTH_MEASURE(2.E-2),#9);
#135=PRESENTATION_STYLE_ASSIGNMENT((#134));
#136=STYLED_ITEM('',(#135),#133);
#137=CARTESIAN_POINT('',(0.E0,0.E0,1.5E-1));
#138=DIRECTION('',(0.E0,0.E0,-1.E0));
#139=DIRECTION('',(0.E0,-1.E0,0.E0));
#140=AXIS2_PLACEMENT_3D('',#137,#138,#139);
#142=CURVE_STYLE('',#24,POSITIVE_LENGTH_MEASURE(2.E-2),#9);
#143=PRESENTATION_STYLE_ASSIGNMENT((#142));
#144=STYLED_ITEM('',(#143),#141);
#145=CARTESIAN_POINT('',(0.E0,0.E0,1.5E-1));
#146=DIRECTION('',(0.E0,0.E0,-1.E0));
#147=DIRECTION('',(0.E0,1.E0,0.E0));
#148=AXIS2_PLACEMENT_3D('',#145,#146,#147);
#150=CURVE_STYLE('',#24,POSITIVE_LENGTH_MEASURE(2.E-2),#9);
#151=PRESENTATION_STYLE_ASSIGNMENT((#150));
#152=STYLED_ITEM('',(#151),#149);
#153=CARTESIAN_POINT('',(0.E0,0.E0,1.5E-1));
#154=DIRECTION('',(0.E0,0.E0,1.E0));
#155=DIRECTION('',(1.E0,0.E0,0.E0));
#156=AXIS2_PLACEMENT_3D('',#153,#154,#155);
#158=CURVE_STYLE('',#24,POSITIVE_LENGTH_MEASURE(2.E-2),#9);
#159=PRESENTATION_STYLE_ASSIGNMENT((#158));
#160=STYLED_ITEM('',(#159),#157);
#161=CARTESIAN_POINT('',(0.E0,0.E0,1.5E-1));
#162=DIRECTION('',(0.E0,0.E0,1.E0));
#163=DIRECTION('',(-1.E0,0.E0,0.E0));
#164=AXIS2_PLACEMENT_3D('',#161,#162,#163);
#166=CURVE_STYLE('',#24,POSITIVE_LENGTH_MEASURE(2.E-2),#9);
#167=PRESENTATION_STYLE_ASSIGNMENT((#166));
#168=STYLED_ITEM('',(#167),#165);
#169=DIRECTION('',(0.E0,0.E0,-1.E0));
#170=VECTOR('',#169,1.3E0);
#171=CARTESIAN_POINT('',(-3.E0,0.E0,1.5E-1));
#172=LINE('',#171,#170);
#173=CURVE_STYLE('',#24,POSITIVE_LENGTH_MEASURE(2.E-2),#9);
#174=PRESENTATION_STYLE_ASSIGNMENT((#173));
#175=STYLED_ITEM('',(#174),#172);
#176=DIRECTION('',(0.E0,0.E0,-1.E0));
#177=VECTOR('',#176,1.3E0);
#178=CARTESIAN_POINT('',(3.E0,0.E0,1.5E-1));
#179=LINE('',#178,#177);
#180=CURVE_STYLE('',#24,POSITIVE_LENGTH_MEASURE(2.E-2),#9);
#181=PRESENTATION_STYLE_ASSIGNMENT((#180));
#182=STYLED_ITEM('',(#181),#179);
#183=CARTESIAN_POINT('',(5.2E0,0.E0,-3.189607805437E0));
#184=DIRECTION('',(0.E0,-1.E0,0.E0));
#185=DIRECTION('',(-7.333333333333E-1,0.E0,6.798692684790E-1));
#186=AXIS2_PLACEMENT_3D('',#183,#184,#185);
#188=CURVE_STYLE('',#24,POSITIVE_LENGTH_MEASURE(2.E-2),#9);
#189=PRESENTATION_STYLE_ASSIGNMENT((#188));
#190=STYLED_ITEM('',(#189),#187);
#191=CARTESIAN_POINT('',(0.E0,0.E0,-1.15E0));
#192=DIRECTION('',(0.E0,0.E0,-1.E0));
#193=DIRECTION('',(1.E0,0.E0,0.E0));
#194=AXIS2_PLACEMENT_3D('',#191,#192,#193);
#196=CURVE_STYLE('',#24,POSITIVE_LENGTH_MEASURE(2.E-2),#9);
#197=PRESENTATION_STYLE_ASSIGNMENT((#196));
#198=STYLED_ITEM('',(#197),#195);
#199=CARTESIAN_POINT('',(-5.2E0,0.E0,-3.189607805437E0));
#200=DIRECTION('',(0.E0,1.E0,0.E0));
#201=DIRECTION('',(7.333333333333E-1,0.E0,6.798692684790E-1));
#202=AXIS2_PLACEMENT_3D('',#199,#200,#201);
#204=CURVE_STYLE('',#24,POSITIVE_LENGTH_MEASURE(2.E-2),#9);
#205=PRESENTATION_STYLE_ASSIGNMENT((#204));
#206=STYLED_ITEM('',(#205),#203);
#207=CARTESIAN_POINT('',(0.E0,0.E0,-1.15E0));
#208=DIRECTION('',(0.E0,0.E0,1.E0));
#209=DIRECTION('',(1.E0,0.E0,0.E0));
#210=AXIS2_PLACEMENT_3D('',#207,#208,#209);
#212=CURVE_STYLE('',#24,POSITIVE_LENGTH_MEASURE(2.E-2),#9);
#213=PRESENTATION_STYLE_ASSIGNMENT((#212));
#214=STYLED_ITEM('',(#213),#211);
#215=CARTESIAN_POINT('',(0.E0,0.E0,-3.189607805437E0));
#216=DIRECTION('',(0.E0,0.E0,1.E0));
#217=DIRECTION('',(1.E0,0.E0,0.E0));
#218=AXIS2_PLACEMENT_3D('',#215,#216,#217);
#220=CURVE_STYLE('',#24,POSITIVE_LENGTH_MEASURE(2.E-2),#9);
#221=PRESENTATION_STYLE_ASSIGNMENT((#220));
#222=STYLED_ITEM('',(#221),#219);
#223=DIRECTION('',(0.E0,0.E0,-1.E0));
#224=VECTOR('',#223,1.570392194563E0);
#225=CARTESIAN_POINT('',(2.2E0,0.E0,-3.189607805437E0));
#226=LINE('',#225,#224);
#227=CURVE_STYLE('',#24,POSITIVE_LENGTH_MEASURE(2.E-2),#9);
#228=PRESENTATION_STYLE_ASSIGNMENT((#227));
#229=STYLED_ITEM('',(#228),#226);
#230=CARTESIAN_POINT('',(0.E0,0.E0,-3.189607805437E0));
#231=DIRECTION('',(0.E0,0.E0,-1.E0));
#232=DIRECTION('',(1.E0,0.E0,0.E0));
#233=AXIS2_PLACEMENT_3D('',#230,#231,#232);
#235=CURVE_STYLE('',#24,POSITIVE_LENGTH_MEASURE(2.E-2),#9);
#236=PRESENTATION_STYLE_ASSIGNMENT((#235));
#237=STYLED_ITEM('',(#236),#234);
#238=DIRECTION('',(0.E0,0.E0,-1.E0));
#239=VECTOR('',#238,1.570392194563E0);
#240=CARTESIAN_POINT('',(-2.2E0,0.E0,-3.189607805437E0));
#241=LINE('',#240,#239);
#242=CURVE_STYLE('',#24,POSITIVE_LENGTH_MEASURE(2.E-2),#9);
#243=PRESENTATION_STYLE_ASSIGNMENT((#242));
#244=STYLED_ITEM('',(#243),#241);
#245=DIRECTION('',(0.E0,7.004333382700E-1,7.137178284447E-1));
#246=VECTOR('',#245,1.162994791243E-1);
#247=CARTESIAN_POINT('',(0.E0,-3.836898502157E0,1.068774698372E-13));
#248=LINE('',#247,#246);
#249=CURVE_STYLE('',#24,POSITIVE_LENGTH_MEASURE(2.E-2),#9);
#250=PRESENTATION_STYLE_ASSIGNMENT((#249));
#251=STYLED_ITEM('',(#250),#248);
#252=CARTESIAN_POINT('',(0.E0,-5.415545490102E0,-4.76E0));
#253=CARTESIAN_POINT('',(0.E0,5.415545490102E0,-4.76E0));
#254=VERTEX_POINT('',#252);
#255=VERTEX_POINT('',#253);
#256=CARTESIAN_POINT('',(0.E0,6.E0,-2.131628207280E-14));
#257=CARTESIAN_POINT('',(0.E0,-6.E0,-2.131628207280E-14));
#258=VERTEX_POINT('',#256);
#259=VERTEX_POINT('',#257);
#260=CARTESIAN_POINT('',(0.E0,3.836898502157E0,1.620925615953E-13));
#261=CARTESIAN_POINT('',(0.E0,-3.836898502157E0,1.620925615953E-13));
#262=VERTEX_POINT('',#260);
#263=VERTEX_POINT('',#261);
#264=CARTESIAN_POINT('',(0.E0,-3.755438469755E0,8.300501168997E-2));
#265=CARTESIAN_POINT('',(0.E0,3.755438469755E0,8.300501168997E-2));
#266=VERTEX_POINT('',#264);
#267=VERTEX_POINT('',#265);
#268=CARTESIAN_POINT('',(0.E0,3.606074260972E0,1.5E-1));
#269=VERTEX_POINT('',#268);
#270=CARTESIAN_POINT('',(0.E0,-3.606074260972E0,1.5E-1));
#271=VERTEX_POINT('',#270);
#272=CARTESIAN_POINT('',(3.E0,0.E0,-1.15E0));
#273=CARTESIAN_POINT('',(2.2E0,0.E0,-3.189607805437E0));
#274=VERTEX_POINT('',#272);
#275=VERTEX_POINT('',#273);
#276=CARTESIAN_POINT('',(-3.E0,0.E0,-1.15E0));
#277=CARTESIAN_POINT('',(-2.2E0,0.E0,-3.189607805437E0));
#278=VERTEX_POINT('',#276);
#279=VERTEX_POINT('',#277);
#280=CARTESIAN_POINT('',(2.2E0,0.E0,-4.76E0));
#281=CARTESIAN_POINT('',(-2.2E0,0.E0,-4.76E0));
#282=VERTEX_POINT('',#280);
#283=VERTEX_POINT('',#281);
#284=CARTESIAN_POINT('',(3.E0,0.E0,1.5E-1));
#285=CARTESIAN_POINT('',(-3.E0,0.E0,1.5E-1));
#286=VERTEX_POINT('',#284);
#287=VERTEX_POINT('',#285);
#288=CARTESIAN_POINT('',(0.E0,0.E0,-4.76E0));
#289=DIRECTION('',(0.E0,0.E0,1.E0));
#290=DIRECTION('',(0.E0,-1.E0,0.E0));
#291=AXIS2_PLACEMENT_3D('',#288,#289,#290);
#292=PLANE('',#291);
#294=ORIENTED_EDGE('',*,*,#293,.T.);
#296=ORIENTED_EDGE('',*,*,#295,.T.);
#297=EDGE_LOOP('',(#294,#296));
#298=FACE_OUTER_BOUND('',#297,.F.);
#300=ORIENTED_EDGE('',*,*,#299,.F.);
#302=ORIENTED_EDGE('',*,*,#301,.F.);
#303=EDGE_LOOP('',(#300,#302));
#304=FACE_BOUND('',#303,.F.);
#306=CARTESIAN_POINT('',(0.E0,0.E0,-2.38E0));
#307=DIRECTION('',(0.E0,0.E0,1.E0));
#308=DIRECTION('',(0.E0,-1.E0,0.E0));
#309=AXIS2_PLACEMENT_3D('',#306,#307,#308);
#310=CONICAL_SURFACE('',#309,5.707772745051E0,7.E0);
#312=ORIENTED_EDGE('',*,*,#311,.F.);
#314=ORIENTED_EDGE('',*,*,#313,.F.);
#315=ORIENTED_EDGE('',*,*,#293,.F.);
#317=ORIENTED_EDGE('',*,*,#316,.T.);
#318=EDGE_LOOP('',(#312,#314,#315,#317));
#319=FACE_OUTER_BOUND('',#318,.F.);
#321=CARTESIAN_POINT('',(0.E0,0.E0,0.E0));
#322=DIRECTION('',(0.E0,0.E0,1.E0));
#323=DIRECTION('',(0.E0,-1.E0,0.E0));
#324=AXIS2_PLACEMENT_3D('',#321,#322,#323);
#325=PLANE('',#324);
#326=ORIENTED_EDGE('',*,*,#311,.T.);
#328=ORIENTED_EDGE('',*,*,#327,.T.);
#329=EDGE_LOOP('',(#326,#328));
#330=FACE_OUTER_BOUND('',#329,.F.);
#332=ORIENTED_EDGE('',*,*,#331,.T.);
#334=ORIENTED_EDGE('',*,*,#333,.T.);
#335=EDGE_LOOP('',(#332,#334));
#336=FACE_BOUND('',#335,.F.);
#338=CARTESIAN_POINT('',(0.E0,0.E0,-2.38E0));
#339=DIRECTION('',(0.E0,0.E0,1.E0));
#340=DIRECTION('',(0.E0,-1.E0,0.E0));
#341=AXIS2_PLACEMENT_3D('',#338,#339,#340);
#342=CONICAL_SURFACE('',#341,5.707772745051E0,7.E0);
#343=ORIENTED_EDGE('',*,*,#327,.F.);
#344=ORIENTED_EDGE('',*,*,#316,.F.);
#345=ORIENTED_EDGE('',*,*,#295,.F.);
#346=ORIENTED_EDGE('',*,*,#313,.T.);
#347=EDGE_LOOP('',(#343,#344,#345,#346));
#348=FACE_OUTER_BOUND('',#347,.F.);
#350=CARTESIAN_POINT('',(0.E0,0.E0,4.150250584504E-2));
#351=DIRECTION('',(0.E0,0.E0,-1.E0));
#352=DIRECTION('',(0.E0,1.E0,0.E0));
#353=AXIS2_PLACEMENT_3D('',#350,#351,#352);
#354=CONICAL_SURFACE('',#353,3.796168485956E0,4.446178113802E1);
#356=ORIENTED_EDGE('',*,*,#355,.F.);
#358=ORIENTED_EDGE('',*,*,#357,.F.);
#359=ORIENTED_EDGE('',*,*,#331,.F.);
#361=ORIENTED_EDGE('',*,*,#360,.T.);
#362=EDGE_LOOP('',(#356,#358,#359,#361));
#363=FACE_OUTER_BOUND('',#362,.F.);
#365=CARTESIAN_POINT('',(0.E0,0.E0,-4.999999999995E-2));
#366=DIRECTION('',(0.E0,0.E0,1.E0));
#367=DIRECTION('',(0.E0,-1.E0,0.E0));
#368=AXIS2_PLACEMENT_3D('',#365,#366,#367);
#369=TOROIDAL_SURFACE('',#368,3.606074260972E0,2.E-1);
#371=ORIENTED_EDGE('',*,*,#370,.T.);
#373=ORIENTED_EDGE('',*,*,#372,.F.);
#375=ORIENTED_EDGE('',*,*,#374,.T.);
#376=ORIENTED_EDGE('',*,*,#355,.T.);
#377=EDGE_LOOP('',(#371,#373,#375,#376));
#378=FACE_OUTER_BOUND('',#377,.F.);
#380=CARTESIAN_POINT('',(0.E0,0.E0,-4.999999999995E-2));
#381=DIRECTION('',(0.E0,0.E0,1.E0));
#382=DIRECTION('',(0.E0,-1.E0,0.E0));
#383=AXIS2_PLACEMENT_3D('',#380,#381,#382);
#384=TOROIDAL_SURFACE('',#383,3.606074260972E0,2.E-1);
#385=ORIENTED_EDGE('',*,*,#374,.F.);
#387=ORIENTED_EDGE('',*,*,#386,.F.);
#388=ORIENTED_EDGE('',*,*,#370,.F.);
#390=ORIENTED_EDGE('',*,*,#389,.T.);
#391=EDGE_LOOP('',(#385,#387,#388,#390));
#392=FACE_OUTER_BOUND('',#391,.F.);
#394=CARTESIAN_POINT('',(0.E0,0.E0,1.5E-1));
#395=DIRECTION('',(0.E0,0.E0,-1.E0));
#396=DIRECTION('',(0.E0,1.E0,0.E0));
#397=AXIS2_PLACEMENT_3D('',#394,#395,#396);
#398=PLANE('',#397);
#399=ORIENTED_EDGE('',*,*,#372,.T.);
#400=ORIENTED_EDGE('',*,*,#386,.T.);
#401=EDGE_LOOP('',(#399,#400));
#402=FACE_OUTER_BOUND('',#401,.F.);
#404=ORIENTED_EDGE('',*,*,#403,.T.);
#406=ORIENTED_EDGE('',*,*,#405,.T.);
#407=EDGE_LOOP('',(#404,#406));
#408=FACE_BOUND('',#407,.F.);
#410=CARTESIAN_POINT('',(0.E0,0.E0,-5.0055E0));
#411=DIRECTION('',(0.E0,0.E0,1.E0));
#412=DIRECTION('',(-1.E0,0.E0,0.E0));
#413=AXIS2_PLACEMENT_3D('',#410,#411,#412);
#414=CYLINDRICAL_SURFACE('',#413,3.E0);
#415=ORIENTED_EDGE('',*,*,#403,.F.);
#417=ORIENTED_EDGE('',*,*,#416,.T.);
#419=ORIENTED_EDGE('',*,*,#418,.T.);
#421=ORIENTED_EDGE('',*,*,#420,.F.);
#422=EDGE_LOOP('',(#415,#417,#419,#421));
#423=FACE_OUTER_BOUND('',#422,.F.);
#425=CARTESIAN_POINT('',(0.E0,0.E0,-5.0055E0));
#426=DIRECTION('',(0.E0,0.E0,1.E0));
#427=DIRECTION('',(-1.E0,0.E0,0.E0));
#428=AXIS2_PLACEMENT_3D('',#425,#426,#427);
#429=CYLINDRICAL_SURFACE('',#428,3.E0);
#430=ORIENTED_EDGE('',*,*,#405,.F.);
#431=ORIENTED_EDGE('',*,*,#420,.T.);
#433=ORIENTED_EDGE('',*,*,#432,.F.);
#434=ORIENTED_EDGE('',*,*,#416,.F.);
#435=EDGE_LOOP('',(#430,#431,#433,#434));
#436=FACE_OUTER_BOUND('',#435,.F.);
#438=CARTESIAN_POINT('',(0.E0,0.E0,-3.189607805437E0));
#439=DIRECTION('',(0.E0,0.E0,1.E0));
#440=DIRECTION('',(-1.E0,0.E0,0.E0));
#441=AXIS2_PLACEMENT_3D('',#438,#439,#440);
#442=TOROIDAL_SURFACE('',#441,5.2E0,3.E0);
#444=ORIENTED_EDGE('',*,*,#443,.F.);
#445=ORIENTED_EDGE('',*,*,#432,.T.);
#447=ORIENTED_EDGE('',*,*,#446,.T.);
#449=ORIENTED_EDGE('',*,*,#448,.F.);
#450=EDGE_LOOP('',(#444,#445,#447,#449));
#451=FACE_OUTER_BOUND('',#450,.F.);
#453=CARTESIAN_POINT('',(0.E0,0.E0,-3.189607805437E0));
#454=DIRECTION('',(0.E0,0.E0,1.E0));
#455=DIRECTION('',(-1.E0,0.E0,0.E0));
#456=AXIS2_PLACEMENT_3D('',#453,#454,#455);
#457=TOROIDAL_SURFACE('',#456,5.2E0,3.E0);
#458=ORIENTED_EDGE('',*,*,#443,.T.);
#460=ORIENTED_EDGE('',*,*,#459,.T.);
#461=ORIENTED_EDGE('',*,*,#446,.F.);
#462=ORIENTED_EDGE('',*,*,#418,.F.);
#463=EDGE_LOOP('',(#458,#460,#461,#462));
#464=FACE_OUTER_BOUND('',#463,.F.);
#466=CARTESIAN_POINT('',(0.E0,0.E0,-5.0055E0));
#467=DIRECTION('',(0.E0,0.E0,1.E0));
#468=DIRECTION('',(-1.E0,0.E0,0.E0));
#469=AXIS2_PLACEMENT_3D('',#466,#467,#468);
#470=CYLINDRICAL_SURFACE('',#469,2.2E0);
#471=ORIENTED_EDGE('',*,*,#299,.T.);
#473=ORIENTED_EDGE('',*,*,#472,.F.);
#474=ORIENTED_EDGE('',*,*,#459,.F.);
#476=ORIENTED_EDGE('',*,*,#475,.T.);
#477=EDGE_LOOP('',(#471,#473,#474,#476));
#478=FACE_OUTER_BOUND('',#477,.F.);
#480=CARTESIAN_POINT('',(0.E0,0.E0,-5.0055E0));
#481=DIRECTION('',(0.E0,0.E0,1.E0));
#482=DIRECTION('',(-1.E0,0.E0,0.E0));
#483=AXIS2_PLACEMENT_3D('',#480,#481,#482);
#484=CYLINDRICAL_SURFACE('',#483,2.2E0);
#485=ORIENTED_EDGE('',*,*,#301,.T.);
#486=ORIENTED_EDGE('',*,*,#475,.F.);
#487=ORIENTED_EDGE('',*,*,#448,.T.);
#488=ORIENTED_EDGE('',*,*,#472,.T.);
#489=EDGE_LOOP('',(#485,#486,#487,#488));
#490=FACE_OUTER_BOUND('',#489,.F.);
#492=CARTESIAN_POINT('',(0.E0,0.E0,4.150250584504E-2));
#493=DIRECTION('',(0.E0,0.E0,-1.E0));
#494=DIRECTION('',(0.E0,1.E0,0.E0));
#495=AXIS2_PLACEMENT_3D('',#492,#493,#494);
#496=CONICAL_SURFACE('',#495,3.796168485956E0,4.446178113802E1);
#497=ORIENTED_EDGE('',*,*,#389,.F.);
#498=ORIENTED_EDGE('',*,*,#360,.F.);
#499=ORIENTED_EDGE('',*,*,#333,.F.);
#500=ORIENTED_EDGE('',*,*,#357,.T.);
#501=EDGE_LOOP('',(#497,#498,#499,#500));
#502=FACE_OUTER_BOUND('',#501,.F.);
#504=CLOSED_SHELL('',(#305,#320,#337,#349,#364,#379,#393,#409,#424,#437,#452,
#465,#479,#491,#503));
#505=MANIFOLD_SOLID_BREP('',#504);
#506=FILL_AREA_STYLE_COLOUR('',#9);
#507=FILL_AREA_STYLE('',(#506));
#508=SURFACE_STYLE_FILL_AREA(#507);
#509=SURFACE_SIDE_STYLE('',(#508));
#510=SURFACE_STYLE_USAGE(.BOTH.,#509);
#511=PRESENTATION_STYLE_ASSIGNMENT((#510));
#18=STYLED_ITEM('',(#511),#505);
#512=CARTESIAN_POINT('',(0.E0,0.E0,0.E0));
#513=DIRECTION('',(0.E0,0.E0,1.E0));
#514=DIRECTION('',(1.E0,0.E0,0.E0));
#515=AXIS2_PLACEMENT_3D('MCS',#512,#513,#514);
#516=CURVE_STYLE('',#24,POSITIVE_LENGTH_MEASURE(2.E-2),#16);
#517=PRESENTATION_STYLE_ASSIGNMENT((#516));
#518=STYLED_ITEM('',(#517),#515);
#519=CARTESIAN_POINT('',(-6.E0,-6.E0,0.E0));
#520=DIRECTION('',(0.E0,0.E0,1.E0));
#521=DIRECTION('',(1.E0,0.E0,0.E0));
#522=AXIS2_PLACEMENT_3D('PCS',#519,#520,#521);
#523=CURVE_STYLE('',#24,POSITIVE_LENGTH_MEASURE(2.E-2),#16);
#524=PRESENTATION_STYLE_ASSIGNMENT((#523));
#525=STYLED_ITEM('',(#524),#522);
#526=CARTESIAN_POINT('',(0.E0,0.E0,0.E0));
#527=DIRECTION('',(0.E0,0.E0,1.E0));
#528=DIRECTION('',(0.E0,-1.E0,0.E0));
#529=AXIS2_PLACEMENT_3D('',#526,#527,#528);
#532=CURVE_STYLE('',#24,POSITIVE_LENGTH_MEASURE(2.E-2),#1);
#533=PRESENTATION_STYLE_ASSIGNMENT((#532));
#534=STYLED_ITEM('',(#533),#531);
#536=CARTESIAN_POINT('',(0.E0,0.E0,0.E0));
#537=DIRECTION('',(0.E0,0.E0,1.E0));
#538=DIRECTION('',(0.E0,1.E0,0.E0));
#539=AXIS2_PLACEMENT_3D('',#536,#537,#538);
#542=CURVE_STYLE('',#24,POSITIVE_LENGTH_MEASURE(2.E-2),#1);
#543=PRESENTATION_STYLE_ASSIGNMENT((#542));
#544=STYLED_ITEM('',(#543),#541);
#548=PRESENTATION_LAYER_ASSIGNMENT('ALL_CSYS','',(#515,#522));
#549=PRESENTATION_LAYER_ASSIGNMENT('ALL_CURVES','',(#546));
#550=PRESENTATION_LAYER_ASSIGNMENT('ALL_FEATURES','',(#515,#515,#522,#522,#546,
#546));
#551=PRESENTATION_LAYER_ASSIGNMENT('INTF_BLUE','',(#531,#541));
#554=PLANE_ANGLE_MEASURE_WITH_UNIT(PLANE_ANGLE_MEASURE(1.745329251994E-2),#553);
#555=(CONVERSION_BASED_UNIT('DEGREE',#554)NAMED_UNIT(*)PLANE_ANGLE_UNIT());
#557=UNCERTAINTY_MEASURE_WITH_UNIT(LENGTH_MEASURE(1.E-3),#552,
'distance_accuracy_value',
'Maximum model space distance between geometric entities at asserted connectivities');
#547=GEOMETRIC_CURVE_SET('',(#546));
#562=CARTESIAN_POINT('',(0.E0,0.E0,0.E0));
#563=DIRECTION('',(0.E0,0.E0,1.E0));
#564=DIRECTION('',(1.E0,0.E0,0.E0));
#567=SHAPE_REPRESENTATION_RELATIONSHIP('','',#566,#559);
#568=SHAPE_REPRESENTATION_RELATIONSHIP('','',#566,#560);
#569=CONSTRUCTIVE_GEOMETRY_REPRESENTATION_RELATIONSHIP('','',#566,#561);
#570=MECHANICAL_DESIGN_GEOMETRIC_PRESENTATION_REPRESENTATION('',(#27,#35,#43,
#51,#58,#66,#74,#82,#90,#97,#104,#112,#120,#128,#136,#144,#152,#160,#168,#175,
#182,#190,#198,#206,#214,#222,#229,#237,#244,#251,#18,#518,#525,#534,#544),
#558);
#571=APPLICATION_CONTEXT('automotive_design');
#572=APPLICATION_PROTOCOL_DEFINITION('international standard',
'automotive_design',2001,#571);
#573=PRODUCT_DEFINITION_CONTEXT('part definition',#571,'design');
#574=PRODUCT_CONTEXT('',#571,'mechanical');
#575=PRODUCT('RCMT1204M0','RCMT1204M0','NOT SPECIFIED',(#574));
#576=PRODUCT_DEFINITION_FORMATION('5','LAST_VERSION',#575);
#584=DERIVED_UNIT_ELEMENT(#583,2.E0);
#585=DERIVED_UNIT((#584));
#586=MEASURE_REPRESENTATION_ITEM('surface area measure',AREA_MEASURE(
4.160694817192E2),#585);
#591=DERIVED_UNIT_ELEMENT(#590,3.E0);
#592=DERIVED_UNIT((#591));
#593=MEASURE_REPRESENTATION_ITEM('volume measure',VOLUME_MEASURE(
3.947986757791E2),#592);
#597=CARTESIAN_POINT('centre point',(-5.422518416839E-13,0.E0,
-2.348353982201E0));
#602=DERIVED_UNIT_ELEMENT(#601,2.E0);
#603=DERIVED_UNIT((#602));
#604=MEASURE_REPRESENTATION_ITEM('surface area measure',AREA_MEASURE(
4.160694817192E2),#603);
#609=DERIVED_UNIT_ELEMENT(#608,3.E0);
#610=DERIVED_UNIT((#609));
#611=MEASURE_REPRESENTATION_ITEM('volume measure',VOLUME_MEASURE(
3.947986757791E2),#610);
#615=CARTESIAN_POINT('centre point',(-5.422518416839E-13,0.E0,
-2.348353982201E0));
#620=PRODUCT_RELATED_PRODUCT_CATEGORY('part','',(#575));
#1=DRAUGHTING_PRE_DEFINED_COLOUR('blue');
#2=DRAUGHTING_PRE_DEFINED_COLOUR('green');
#3=COLOUR_RGB('',3.01961E-1,3.01961E-1,3.01961E-1);
#4=COLOUR_RGB('',3.92157E-1,3.92157E-1,3.92157E-1);
#5=COLOUR_RGB('',5.01961E-1,5.01961E-1,5.01961E-1);
#6=COLOUR_RGB('',5.764705882353E-1,5.450980392157E-1,3.921568627451E-1);
#7=COLOUR_RGB('',7.05882E-1,7.05882E-1,7.05882E-1);
#8=COLOUR_RGB('',7.84314E-1,5.29412E-1,7.84314E-1);
#9=COLOUR_RGB('',8.E-1,8.E-1,8.E-1);
#10=COLOUR_RGB('',8.23529E-1,8.23529E-1,8.23529E-1);
#11=COLOUR_RGB('',8.784E-1,9.49E-1,1.E0);
#12=COLOUR_RGB('',9.80392E-1,9.80392E-1,9.80392E-1);
#13=COLOUR_RGB('',1.E0,6.66667E-1,0.E0);
#14=COLOUR_RGB('',1.E0,7.63913E-1,1.92109E-1);
#15=COLOUR_RGB('',1.E0,8.39216E-1,8.90196E-1);
#16=DRAUGHTING_PRE_DEFINED_COLOUR('yellow');
#17=COLOUR_RGB('',1.E0,1.E0,9.41176E-1);
#23=CIRCLE('',#22,5.415545490102E0);
#32=CIRCLE('',#31,5.415545490102E0);
#40=CIRCLE('',#39,2.2E0);
#48=CIRCLE('',#47,2.2E0);
#63=CIRCLE('',#62,6.E0);
#71=CIRCLE('',#70,6.E0);
#79=CIRCLE('',#78,3.836898502157E0);
#87=CIRCLE('',#86,3.836898502157E0);
#109=CIRCLE('',#108,2.E-1);
#117=CIRCLE('',#116,2.E-1);
#125=CIRCLE('',#124,3.755438469755E0);
#133=CIRCLE('',#132,3.755438469755E0);
#141=CIRCLE('',#140,3.606074260972E0);
#149=CIRCLE('',#148,3.606074260972E0);
#157=CIRCLE('',#156,3.E0);
#165=CIRCLE('',#164,3.E0);
#187=CIRCLE('',#186,3.E0);
#195=CIRCLE('',#194,3.E0);
#203=CIRCLE('',#202,3.E0);
#211=CIRCLE('',#210,3.E0);
#219=CIRCLE('',#218,2.2E0);
#234=CIRCLE('',#233,2.2E0);
#293=EDGE_CURVE('',#254,#255,#23,.T.);
#295=EDGE_CURVE('',#255,#254,#32,.T.);
#299=EDGE_CURVE('',#282,#283,#40,.T.);
#301=EDGE_CURVE('',#283,#282,#48,.T.);
#305=ADVANCED_FACE('',(#298,#304),#292,.F.);
#311=EDGE_CURVE('',#258,#259,#63,.T.);
#313=EDGE_CURVE('',#255,#258,#94,.T.);
#316=EDGE_CURVE('',#254,#259,#55,.T.);
#320=ADVANCED_FACE('',(#319),#310,.T.);
#327=EDGE_CURVE('',#259,#258,#71,.T.);
#331=EDGE_CURVE('',#262,#263,#79,.T.);
#333=EDGE_CURVE('',#263,#262,#87,.T.);
#337=ADVANCED_FACE('',(#330,#336),#325,.T.);
#349=ADVANCED_FACE('',(#348),#342,.T.);
#355=EDGE_CURVE('',#266,#267,#125,.T.);
#357=EDGE_CURVE('',#263,#266,#248,.T.);
#360=EDGE_CURVE('',#262,#267,#101,.T.);
#364=ADVANCED_FACE('',(#363),#354,.T.);
#370=EDGE_CURVE('',#267,#269,#109,.T.);
#372=EDGE_CURVE('',#271,#269,#141,.T.);
#374=EDGE_CURVE('',#271,#266,#117,.T.);
#379=ADVANCED_FACE('',(#378),#369,.T.);
#386=EDGE_CURVE('',#269,#271,#149,.T.);
#389=EDGE_CURVE('',#267,#266,#133,.T.);
#393=ADVANCED_FACE('',(#392),#384,.T.);
#403=EDGE_CURVE('',#286,#287,#157,.T.);
#405=EDGE_CURVE('',#287,#286,#165,.T.);
#409=ADVANCED_FACE('',(#402,#408),#398,.F.);
#416=EDGE_CURVE('',#286,#274,#179,.T.);
#418=EDGE_CURVE('',#274,#278,#211,.T.);
#420=EDGE_CURVE('',#287,#278,#172,.T.);
#424=ADVANCED_FACE('',(#423),#414,.F.);
#432=EDGE_CURVE('',#274,#278,#195,.T.);
#437=ADVANCED_FACE('',(#436),#429,.F.);
#443=EDGE_CURVE('',#274,#275,#187,.T.);
#446=EDGE_CURVE('',#278,#279,#203,.T.);
#448=EDGE_CURVE('',#275,#279,#234,.T.);
#452=ADVANCED_FACE('',(#451),#442,.T.);
#459=EDGE_CURVE('',#275,#279,#219,.T.);
#465=ADVANCED_FACE('',(#464),#457,.T.);
#472=EDGE_CURVE('',#279,#283,#241,.T.);
#475=EDGE_CURVE('',#275,#282,#226,.T.);
#479=ADVANCED_FACE('',(#478),#470,.F.);
#491=ADVANCED_FACE('',(#490),#484,.F.);
#503=ADVANCED_FACE('',(#502),#496,.T.);
#530=CIRCLE('',#529,6.E0);
#531=TRIMMED_CURVE('',#530,(PARAMETER_VALUE(0.E0)),(PARAMETER_VALUE(1.8E2)),.T.,
.UNSPECIFIED.);
#535=COMPOSITE_CURVE_SEGMENT(.CONTINUOUS.,.T.,#531);
#540=CIRCLE('',#539,6.E0);
#541=TRIMMED_CURVE('',#540,(PARAMETER_VALUE(0.E0)),(PARAMETER_VALUE(1.8E2)),.T.,
.UNSPECIFIED.);
#545=COMPOSITE_CURVE_SEGMENT(.CONTINUOUS.,.T.,#541);
#546=COMPOSITE_CURVE('',(#535,#545),.F.);
#552=(LENGTH_UNIT()NAMED_UNIT(*)SI_UNIT(.MILLI.,.METRE.));
#553=(NAMED_UNIT(*)PLANE_ANGLE_UNIT()SI_UNIT($,.RADIAN.));
#556=(NAMED_UNIT(*)SI_UNIT($,.STERADIAN.)SOLID_ANGLE_UNIT());
#558=(GEOMETRIC_REPRESENTATION_CONTEXT(3)GLOBAL_UNCERTAINTY_ASSIGNED_CONTEXT((
#557))GLOBAL_UNIT_ASSIGNED_CONTEXT((#552,#555,#556))REPRESENTATION_CONTEXT
('ID1','3'));
#559=ADVANCED_BREP_SHAPE_REPRESENTATION('',(#505),#558);
#560=GEOMETRICALLY_BOUNDED_WIREFRAME_SHAPE_REPRESENTATION('',(#547),#558);
#561=CONSTRUCTIVE_GEOMETRY_REPRESENTATION('supplemental geometry',(#515,#522),
#558);
#565=AXIS2_PLACEMENT_3D('',#562,#563,#564);
#566=SHAPE_REPRESENTATION('',(#565),#558);
#577=PRODUCT_DEFINITION('part definition','',#576,#573);
#578=PRODUCT_DEFINITION_SHAPE('','SHAPE FOR RCMT1204M0.',#577);
#579=SHAPE_ASPECT('','solid data associated with RCMT1204M0',#578,.F.);
#580=PROPERTY_DEFINITION('',
'shape for solid data with which properties are associated',#579);
#581=SHAPE_REPRESENTATION('',(#505),#558);
#582=SHAPE_DEFINITION_REPRESENTATION(#580,#581);
#583=(LENGTH_UNIT()NAMED_UNIT(*)SI_UNIT(.MILLI.,.METRE.));
#587=PROPERTY_DEFINITION('geometric validation property','area of RCMT1204M0',
#579);
#588=REPRESENTATION('surface area',(#586),#558);
#589=PROPERTY_DEFINITION_REPRESENTATION(#587,#588);
#590=(LENGTH_UNIT()NAMED_UNIT(*)SI_UNIT(.MILLI.,.METRE.));
#594=PROPERTY_DEFINITION('geometric validation property','volume of RCMT1204M0',
#579);
#595=REPRESENTATION('volume',(#593),#558);
#596=PROPERTY_DEFINITION_REPRESENTATION(#594,#595);
#598=PROPERTY_DEFINITION('geometric validation property',
'centroid of RCMT1204M0',#579);
#599=REPRESENTATION('centroid',(#597),#558);
#600=PROPERTY_DEFINITION_REPRESENTATION(#598,#599);
#601=(LENGTH_UNIT()NAMED_UNIT(*)SI_UNIT(.MILLI.,.METRE.));
#605=PROPERTY_DEFINITION('geometric validation property','area of RCMT1204M0',
#578);
#606=REPRESENTATION('surface area',(#604),#558);
#607=PROPERTY_DEFINITION_REPRESENTATION(#605,#606);
#608=(LENGTH_UNIT()NAMED_UNIT(*)SI_UNIT(.MILLI.,.METRE.));
#612=PROPERTY_DEFINITION('geometric validation property','volume of RCMT1204M0',
#578);
#613=REPRESENTATION('volume',(#611),#558);
#614=PROPERTY_DEFINITION_REPRESENTATION(#612,#613);
#616=PROPERTY_DEFINITION('geometric validation property',
'centroid of RCMT1204M0',#578);
#617=REPRESENTATION('centroid',(#615),#558);
#618=PROPERTY_DEFINITION_REPRESENTATION(#616,#617);
#619=SHAPE_DEFINITION_REPRESENTATION(#578,#566);
ENDSEC;
END-ISO-10303-21;
