ISO-10303-21;
HEADER;
FILE_DESCRIPTION((''),'2;1');
FILE_NAME('RCMT10T3M0','2022-01-13T12:01:32',('tlyw01'),('PTC Japan'),
'CREO PARAMETRIC BY PTC INC, 2018500','CREO PARAMETRIC BY PTC INC, 2018500','');
FILE_SCHEMA(('AUTOMOTIVE_DESIGN { 1 0 10303 214 1 1 1 1 }'));
ENDSEC;
DATA;
#19=CARTESIAN_POINT('',(0.E0,0.E0,-3.97E0));
#20=DIRECTION('',(0.E0,0.E0,1.E0));
#21=DIRECTION('',(0.E0,-1.E0,0.E0));
#22=AXIS2_PLACEMENT_3D('',#19,#20,#21);
#24=DRAUGHTING_PRE_DEFINED_CURVE_FONT('continuous');
#25=CURVE_STYLE('',#24,POSITIVE_LENGTH_MEASURE(2.E-2),#9);
#26=PRESENTATION_STYLE_ASSIGNMENT((#25));
#27=STYLED_ITEM('',(#26),#23);
#28=CARTESIAN_POINT('',(0.E0,0.E0,-3.97E0));
#29=DIRECTION('',(0.E0,0.E0,1.E0));
#30=DIRECTION('',(0.E0,1.E0,0.E0));
#31=AXIS2_PLACEMENT_3D('',#28,#29,#30);
#33=CURVE_STYLE('',#24,POSITIVE_LENGTH_MEASURE(2.E-2),#9);
#34=PRESENTATION_STYLE_ASSIGNMENT((#33));
#35=STYLED_ITEM('',(#34),#32);
#36=CARTESIAN_POINT('',(0.E0,0.E0,-3.97E0));
#37=DIRECTION('',(0.E0,0.E0,1.E0));
#38=DIRECTION('',(1.E0,0.E0,0.E0));
#39=AXIS2_PLACEMENT_3D('',#36,#37,#38);
#41=CURVE_STYLE('',#24,POSITIVE_LENGTH_MEASURE(2.E-2),#9);
#42=PRESENTATION_STYLE_ASSIGNMENT((#41));
#43=STYLED_ITEM('',(#42),#40);
#44=CARTESIAN_POINT('',(0.E0,0.E0,-3.97E0));
#45=DIRECTION('',(0.E0,0.E0,1.E0));
#46=DIRECTION('',(-1.E0,0.E0,0.E0));
#47=AXIS2_PLACEMENT_3D('',#44,#45,#46);
#49=CURVE_STYLE('',#24,POSITIVE_LENGTH_MEASURE(2.E-2),#9);
#50=PRESENTATION_STYLE_ASSIGNMENT((#49));
#51=STYLED_ITEM('',(#50),#48);
#52=DIRECTION('',(0.E0,-1.218693434051E-1,9.925461516413E-1));
#53=VECTOR('',#52,3.999814007071E0);
#54=CARTESIAN_POINT('',(0.E0,-4.512545293216E0,-3.97E0));
#55=LINE('',#54,#53);
#56=CURVE_STYLE('',#24,POSITIVE_LENGTH_MEASURE(2.E-2),#9);
#57=PRESENTATION_STYLE_ASSIGNMENT((#56));
#58=STYLED_ITEM('',(#57),#55);
#59=DIRECTION('',(0.E0,1.218693434051E-1,9.925461516413E-1));
#60=VECTOR('',#59,3.999814007071E0);
#61=CARTESIAN_POINT('',(0.E0,4.512545293216E0,-3.97E0));
#62=LINE('',#61,#60);
#63=CURVE_STYLE('',#24,POSITIVE_LENGTH_MEASURE(2.E-2),#9);
#64=PRESENTATION_STYLE_ASSIGNMENT((#63));
#65=STYLED_ITEM('',(#64),#62);
#66=CARTESIAN_POINT('',(0.E0,0.E0,-1.136868377216E-13));
#67=DIRECTION('',(0.E0,0.E0,-1.E0));
#68=DIRECTION('',(0.E0,1.E0,0.E0));
#69=AXIS2_PLACEMENT_3D('',#66,#67,#68);
#71=CURVE_STYLE('',#24,POSITIVE_LENGTH_MEASURE(2.E-2),#9);
#72=PRESENTATION_STYLE_ASSIGNMENT((#71));
#73=STYLED_ITEM('',(#72),#70);
#74=CARTESIAN_POINT('',(0.E0,0.E0,-1.136868377216E-13));
#75=DIRECTION('',(0.E0,0.E0,-1.E0));
#76=DIRECTION('',(0.E0,-1.E0,0.E0));
#77=AXIS2_PLACEMENT_3D('',#74,#75,#76);
#79=CURVE_STYLE('',#24,POSITIVE_LENGTH_MEASURE(2.E-2),#9);
#80=PRESENTATION_STYLE_ASSIGNMENT((#79));
#81=STYLED_ITEM('',(#80),#78);
#82=CARTESIAN_POINT('',(0.E0,0.E0,6.394884621841E-13));
#83=DIRECTION('',(0.E0,0.E0,1.E0));
#84=DIRECTION('',(0.E0,-1.E0,0.E0));
#85=AXIS2_PLACEMENT_3D('',#82,#83,#84);
#87=CURVE_STYLE('',#24,POSITIVE_LENGTH_MEASURE(2.E-2),#9);
#88=PRESENTATION_STYLE_ASSIGNMENT((#87));
#89=STYLED_ITEM('',(#88),#86);
#90=CARTESIAN_POINT('',(0.E0,0.E0,6.394884621841E-13));
#91=DIRECTION('',(0.E0,0.E0,1.E0));
#92=DIRECTION('',(0.E0,1.E0,0.E0));
#93=AXIS2_PLACEMENT_3D('',#90,#91,#92);
#95=CURVE_STYLE('',#24,POSITIVE_LENGTH_MEASURE(2.E-2),#9);
#96=PRESENTATION_STYLE_ASSIGNMENT((#95));
#97=STYLED_ITEM('',(#96),#94);
#98=DIRECTION('',(0.E0,7.662167692672E-1,-6.425821834550E-1));
#99=VECTOR('',#98,7.517265504921E-2);
#100=CARTESIAN_POINT('',(0.E0,3.413046225451E0,4.830460881805E-2));
#101=LINE('',#100,#99);
#102=CURVE_STYLE('',#24,POSITIVE_LENGTH_MEASURE(2.E-2),#9);
#103=PRESENTATION_STYLE_ASSIGNMENT((#102));
#104=STYLED_ITEM('',(#103),#101);
#105=CARTESIAN_POINT('',(0.E0,0.E0,4.830460881790E-2));
#106=DIRECTION('',(0.E0,0.E0,-1.E0));
#107=DIRECTION('',(0.E0,1.E0,0.E0));
#108=AXIS2_PLACEMENT_3D('',#105,#106,#107);
#110=CURVE_STYLE('',#24,POSITIVE_LENGTH_MEASURE(2.E-2),#9);
#111=PRESENTATION_STYLE_ASSIGNMENT((#110));
#112=STYLED_ITEM('',(#111),#109);
#113=CARTESIAN_POINT('',(0.E0,0.E0,4.830460881790E-2));
#114=DIRECTION('',(0.E0,0.E0,-1.E0));
#115=DIRECTION('',(0.E0,-1.E0,0.E0));
#116=AXIS2_PLACEMENT_3D('',#113,#114,#115);
#118=CURVE_STYLE('',#24,POSITIVE_LENGTH_MEASURE(2.E-2),#9);
#119=PRESENTATION_STYLE_ASSIGNMENT((#118));
#120=STYLED_ITEM('',(#119),#117);
#121=CARTESIAN_POINT('',(0.E0,3.278860745598E0,-9.999999999998E-2));
#122=DIRECTION('',(1.E0,0.E0,0.E0));
#123=DIRECTION('',(0.E0,6.709273992649E-1,7.415230440894E-1));
#124=AXIS2_PLACEMENT_3D('',#121,#122,#123);
#126=CURVE_STYLE('',#24,POSITIVE_LENGTH_MEASURE(2.E-2),#9);
#127=PRESENTATION_STYLE_ASSIGNMENT((#126));
#128=STYLED_ITEM('',(#127),#125);
#129=CARTESIAN_POINT('',(0.E0,-3.278860745598E0,-9.999999999998E-2));
#130=DIRECTION('',(1.E0,0.E0,0.E0));
#131=DIRECTION('',(0.E0,0.E0,1.E0));
#132=AXIS2_PLACEMENT_3D('',#129,#130,#131);
#134=CURVE_STYLE('',#24,POSITIVE_LENGTH_MEASURE(2.E-2),#9);
#135=PRESENTATION_STYLE_ASSIGNMENT((#134));
#136=STYLED_ITEM('',(#135),#133);
#137=DIRECTION('',(0.E0,-7.662167692672E-1,-6.425821834550E-1));
#138=VECTOR('',#137,7.517265504921E-2);
#139=CARTESIAN_POINT('',(0.E0,-3.413046225451E0,4.830460881805E-2));
#140=LINE('',#139,#138);
#141=CURVE_STYLE('',#24,POSITIVE_LENGTH_MEASURE(2.E-2),#9);
#142=PRESENTATION_STYLE_ASSIGNMENT((#141));
#143=STYLED_ITEM('',(#142),#140);
#144=CARTESIAN_POINT('',(0.E0,0.E0,1.E-1));
#145=DIRECTION('',(0.E0,0.E0,-1.E0));
#146=DIRECTION('',(0.E0,-1.E0,0.E0));
#147=AXIS2_PLACEMENT_3D('',#144,#145,#146);
#149=CURVE_STYLE('',#24,POSITIVE_LENGTH_MEASURE(2.E-2),#9);
#150=PRESENTATION_STYLE_ASSIGNMENT((#149));
#151=STYLED_ITEM('',(#150),#148);
#152=CARTESIAN_POINT('',(0.E0,0.E0,1.E-1));
#153=DIRECTION('',(0.E0,0.E0,-1.E0));
#154=DIRECTION('',(0.E0,1.E0,0.E0));
#155=AXIS2_PLACEMENT_3D('',#152,#153,#154);
#157=CURVE_STYLE('',#24,POSITIVE_LENGTH_MEASURE(2.E-2),#9);
#158=PRESENTATION_STYLE_ASSIGNMENT((#157));
#159=STYLED_ITEM('',(#158),#156);
#160=CARTESIAN_POINT('',(0.E0,0.E0,1.E-1));
#161=DIRECTION('',(0.E0,0.E0,1.E0));
#162=DIRECTION('',(1.E0,0.E0,0.E0));
#163=AXIS2_PLACEMENT_3D('',#160,#161,#162);
#165=CURVE_STYLE('',#24,POSITIVE_LENGTH_MEASURE(2.E-2),#9);
#166=PRESENTATION_STYLE_ASSIGNMENT((#165));
#167=STYLED_ITEM('',(#166),#164);
#168=CARTESIAN_POINT('',(0.E0,0.E0,1.E-1));
#169=DIRECTION('',(0.E0,0.E0,1.E0));
#170=DIRECTION('',(-1.E0,0.E0,0.E0));
#171=AXIS2_PLACEMENT_3D('',#168,#169,#170);
#173=CURVE_STYLE('',#24,POSITIVE_LENGTH_MEASURE(2.E-2),#9);
#174=PRESENTATION_STYLE_ASSIGNMENT((#173));
#175=STYLED_ITEM('',(#174),#172);
#176=DIRECTION('',(0.E0,0.E0,-1.E0));
#177=VECTOR('',#176,1.3E0);
#178=CARTESIAN_POINT('',(-3.E0,0.E0,1.E-1));
#179=LINE('',#178,#177);
#180=CURVE_STYLE('',#24,POSITIVE_LENGTH_MEASURE(2.E-2),#9);
#181=PRESENTATION_STYLE_ASSIGNMENT((#180));
#182=STYLED_ITEM('',(#181),#179);
#183=DIRECTION('',(0.E0,0.E0,-1.E0));
#184=VECTOR('',#183,1.3E0);
#185=CARTESIAN_POINT('',(3.E0,0.E0,1.E-1));
#186=LINE('',#185,#184);
#187=CURVE_STYLE('',#24,POSITIVE_LENGTH_MEASURE(2.E-2),#9);
#188=PRESENTATION_STYLE_ASSIGNMENT((#187));
#189=STYLED_ITEM('',(#188),#186);
#190=CARTESIAN_POINT('',(4.7E0,0.E0,-3.033030277982E0));
#191=DIRECTION('',(0.E0,-1.E0,0.E0));
#192=DIRECTION('',(-6.8E-1,0.E0,7.332121111929E-1));
#193=AXIS2_PLACEMENT_3D('',#190,#191,#192);
#195=CURVE_STYLE('',#24,POSITIVE_LENGTH_MEASURE(2.E-2),#9);
#196=PRESENTATION_STYLE_ASSIGNMENT((#195));
#197=STYLED_ITEM('',(#196),#194);
#198=CARTESIAN_POINT('',(0.E0,0.E0,-1.2E0));
#199=DIRECTION('',(0.E0,0.E0,-1.E0));
#200=DIRECTION('',(1.E0,0.E0,0.E0));
#201=AXIS2_PLACEMENT_3D('',#198,#199,#200);
#203=CURVE_STYLE('',#24,POSITIVE_LENGTH_MEASURE(2.E-2),#9);
#204=PRESENTATION_STYLE_ASSIGNMENT((#203));
#205=STYLED_ITEM('',(#204),#202);
#206=CARTESIAN_POINT('',(-4.7E0,0.E0,-3.033030277982E0));
#207=DIRECTION('',(0.E0,1.E0,0.E0));
#208=DIRECTION('',(6.8E-1,0.E0,7.332121111929E-1));
#209=AXIS2_PLACEMENT_3D('',#206,#207,#208);
#211=CURVE_STYLE('',#24,POSITIVE_LENGTH_MEASURE(2.E-2),#9);
#212=PRESENTATION_STYLE_ASSIGNMENT((#211));
#213=STYLED_ITEM('',(#212),#210);
#214=CARTESIAN_POINT('',(0.E0,0.E0,-1.2E0));
#215=DIRECTION('',(0.E0,0.E0,1.E0));
#216=DIRECTION('',(1.E0,0.E0,0.E0));
#217=AXIS2_PLACEMENT_3D('',#214,#215,#216);
#219=CURVE_STYLE('',#24,POSITIVE_LENGTH_MEASURE(2.E-2),#9);
#220=PRESENTATION_STYLE_ASSIGNMENT((#219));
#221=STYLED_ITEM('',(#220),#218);
#222=CARTESIAN_POINT('',(0.E0,0.E0,-3.033030277982E0));
#223=DIRECTION('',(0.E0,0.E0,1.E0));
#224=DIRECTION('',(1.E0,0.E0,0.E0));
#225=AXIS2_PLACEMENT_3D('',#222,#223,#224);
#227=CURVE_STYLE('',#24,POSITIVE_LENGTH_MEASURE(2.E-2),#9);
#228=PRESENTATION_STYLE_ASSIGNMENT((#227));
#229=STYLED_ITEM('',(#228),#226);
#230=DIRECTION('',(0.E0,0.E0,-1.E0));
#231=VECTOR('',#230,9.369697220177E-1);
#232=CARTESIAN_POINT('',(2.2E0,0.E0,-3.033030277982E0));
#233=LINE('',#232,#231);
#234=CURVE_STYLE('',#24,POSITIVE_LENGTH_MEASURE(2.E-2),#9);
#235=PRESENTATION_STYLE_ASSIGNMENT((#234));
#236=STYLED_ITEM('',(#235),#233);
#237=CARTESIAN_POINT('',(0.E0,0.E0,-3.033030277982E0));
#238=DIRECTION('',(0.E0,0.E0,-1.E0));
#239=DIRECTION('',(1.E0,0.E0,0.E0));
#240=AXIS2_PLACEMENT_3D('',#237,#238,#239);
#242=CURVE_STYLE('',#24,POSITIVE_LENGTH_MEASURE(2.E-2),#9);
#243=PRESENTATION_STYLE_ASSIGNMENT((#242));
#244=STYLED_ITEM('',(#243),#241);
#245=DIRECTION('',(0.E0,0.E0,-1.E0));
#246=VECTOR('',#245,9.369697220177E-1);
#247=CARTESIAN_POINT('',(-2.2E0,0.E0,-3.033030277982E0));
#248=LINE('',#247,#246);
#249=CURVE_STYLE('',#24,POSITIVE_LENGTH_MEASURE(2.E-2),#9);
#250=PRESENTATION_STYLE_ASSIGNMENT((#249));
#251=STYLED_ITEM('',(#250),#248);
#252=CARTESIAN_POINT('',(0.E0,-4.512545293216E0,-3.97E0));
#253=CARTESIAN_POINT('',(0.E0,4.512545293216E0,-3.97E0));
#254=VERTEX_POINT('',#252);
#255=VERTEX_POINT('',#253);
#256=CARTESIAN_POINT('',(0.E0,-5.E0,-8.526512829121E-14));
#257=VERTEX_POINT('',#256);
#258=CARTESIAN_POINT('',(0.E0,5.E0,-1.136868377216E-13));
#259=VERTEX_POINT('',#258);
#260=CARTESIAN_POINT('',(0.E0,-3.470644774340E0,6.394884621841E-13));
#261=CARTESIAN_POINT('',(0.E0,3.470644774340E0,6.394884621841E-13));
#262=VERTEX_POINT('',#260);
#263=VERTEX_POINT('',#261);
#264=CARTESIAN_POINT('',(0.E0,3.413046225451E0,4.830460881790E-2));
#265=CARTESIAN_POINT('',(0.E0,-3.413046225451E0,4.830460881790E-2));
#266=VERTEX_POINT('',#264);
#267=VERTEX_POINT('',#265);
#268=CARTESIAN_POINT('',(0.E0,-3.278860745598E0,1.E-1));
#269=VERTEX_POINT('',#268);
#270=CARTESIAN_POINT('',(0.E0,3.278860745598E0,1.E-1));
#271=VERTEX_POINT('',#270);
#272=CARTESIAN_POINT('',(3.E0,0.E0,-1.2E0));
#273=CARTESIAN_POINT('',(2.2E0,0.E0,-3.033030277982E0));
#274=VERTEX_POINT('',#272);
#275=VERTEX_POINT('',#273);
#276=CARTESIAN_POINT('',(-3.E0,0.E0,-1.2E0));
#277=CARTESIAN_POINT('',(-2.2E0,0.E0,-3.033030277982E0));
#278=VERTEX_POINT('',#276);
#279=VERTEX_POINT('',#277);
#280=CARTESIAN_POINT('',(2.2E0,0.E0,-3.97E0));
#281=CARTESIAN_POINT('',(-2.2E0,0.E0,-3.97E0));
#282=VERTEX_POINT('',#280);
#283=VERTEX_POINT('',#281);
#284=CARTESIAN_POINT('',(3.E0,0.E0,1.E-1));
#285=CARTESIAN_POINT('',(-3.E0,0.E0,1.E-1));
#286=VERTEX_POINT('',#284);
#287=VERTEX_POINT('',#285);
#288=CARTESIAN_POINT('',(0.E0,0.E0,-3.97E0));
#289=DIRECTION('',(0.E0,0.E0,1.E0));
#290=DIRECTION('',(0.E0,-1.E0,0.E0));
#291=AXIS2_PLACEMENT_3D('',#288,#289,#290);
#292=PLANE('',#291);
#294=ORIENTED_EDGE('',*,*,#293,.T.);
#296=ORIENTED_EDGE('',*,*,#295,.T.);
#297=EDGE_LOOP('',(#294,#296));
#298=FACE_OUTER_BOUND('',#297,.F.);
#300=ORIENTED_EDGE('',*,*,#299,.F.);
#302=ORIENTED_EDGE('',*,*,#301,.F.);
#303=EDGE_LOOP('',(#300,#302));
#304=FACE_BOUND('',#303,.F.);
#306=CARTESIAN_POINT('',(0.E0,0.E0,-1.985E0));
#307=DIRECTION('',(0.E0,0.E0,1.E0));
#308=DIRECTION('',(0.E0,-1.E0,0.E0));
#309=AXIS2_PLACEMENT_3D('',#306,#307,#308);
#310=CONICAL_SURFACE('',#309,4.756272646608E0,7.E0);
#311=ORIENTED_EDGE('',*,*,#293,.F.);
#313=ORIENTED_EDGE('',*,*,#312,.T.);
#315=ORIENTED_EDGE('',*,*,#314,.F.);
#317=ORIENTED_EDGE('',*,*,#316,.F.);
#318=EDGE_LOOP('',(#311,#313,#315,#317));
#319=FACE_OUTER_BOUND('',#318,.F.);
#321=CARTESIAN_POINT('',(0.E0,0.E0,-1.985E0));
#322=DIRECTION('',(0.E0,0.E0,1.E0));
#323=DIRECTION('',(0.E0,-1.E0,0.E0));
#324=AXIS2_PLACEMENT_3D('',#321,#322,#323);
#325=CONICAL_SURFACE('',#324,4.756272646608E0,7.E0);
#326=ORIENTED_EDGE('',*,*,#295,.F.);
#327=ORIENTED_EDGE('',*,*,#316,.T.);
#329=ORIENTED_EDGE('',*,*,#328,.F.);
#330=ORIENTED_EDGE('',*,*,#312,.F.);
#331=EDGE_LOOP('',(#326,#327,#329,#330));
#332=FACE_OUTER_BOUND('',#331,.F.);
#334=CARTESIAN_POINT('',(0.E0,0.E0,0.E0));
#335=DIRECTION('',(0.E0,0.E0,1.E0));
#336=DIRECTION('',(0.E0,-1.E0,0.E0));
#337=AXIS2_PLACEMENT_3D('',#334,#335,#336);
#338=PLANE('',#337);
#339=ORIENTED_EDGE('',*,*,#314,.T.);
#340=ORIENTED_EDGE('',*,*,#328,.T.);
#341=EDGE_LOOP('',(#339,#340));
#342=FACE_OUTER_BOUND('',#341,.F.);
#344=ORIENTED_EDGE('',*,*,#343,.T.);
#346=ORIENTED_EDGE('',*,*,#345,.T.);
#347=EDGE_LOOP('',(#344,#346));
#348=FACE_BOUND('',#347,.F.);
#350=CARTESIAN_POINT('',(0.E0,0.E0,2.415230440943E-2));
#351=DIRECTION('',(0.E0,0.E0,-1.E0));
#352=DIRECTION('',(0.E0,1.E0,0.E0));
#353=AXIS2_PLACEMENT_3D('',#350,#351,#352);
#354=CONICAL_SURFACE('',#353,3.441845499896E0,5.001536298891E1);
#356=ORIENTED_EDGE('',*,*,#355,.F.);
#358=ORIENTED_EDGE('',*,*,#357,.T.);
#359=ORIENTED_EDGE('',*,*,#343,.F.);
#361=ORIENTED_EDGE('',*,*,#360,.F.);
#362=EDGE_LOOP('',(#356,#358,#359,#361));
#363=FACE_OUTER_BOUND('',#362,.F.);
#365=CARTESIAN_POINT('',(0.E0,0.E0,-9.999999999998E-2));
#366=DIRECTION('',(0.E0,0.E0,1.E0));
#367=DIRECTION('',(0.E0,-1.E0,0.E0));
#368=AXIS2_PLACEMENT_3D('',#365,#366,#367);
#369=TOROIDAL_SURFACE('',#368,3.278860745598E0,2.E-1);
#370=ORIENTED_EDGE('',*,*,#355,.T.);
#372=ORIENTED_EDGE('',*,*,#371,.F.);
#374=ORIENTED_EDGE('',*,*,#373,.F.);
#376=ORIENTED_EDGE('',*,*,#375,.F.);
#377=EDGE_LOOP('',(#370,#372,#374,#376));
#378=FACE_OUTER_BOUND('',#377,.F.);
#380=CARTESIAN_POINT('',(0.E0,0.E0,-9.999999999998E-2));
#381=DIRECTION('',(0.E0,0.E0,1.E0));
#382=DIRECTION('',(0.E0,-1.E0,0.E0));
#383=AXIS2_PLACEMENT_3D('',#380,#381,#382);
#384=TOROIDAL_SURFACE('',#383,3.278860745598E0,2.E-1);
#386=ORIENTED_EDGE('',*,*,#385,.T.);
#387=ORIENTED_EDGE('',*,*,#375,.T.);
#389=ORIENTED_EDGE('',*,*,#388,.F.);
#390=ORIENTED_EDGE('',*,*,#371,.T.);
#391=EDGE_LOOP('',(#386,#387,#389,#390));
#392=FACE_OUTER_BOUND('',#391,.F.);
#394=CARTESIAN_POINT('',(0.E0,0.E0,2.415230440943E-2));
#395=DIRECTION('',(0.E0,0.E0,-1.E0));
#396=DIRECTION('',(0.E0,1.E0,0.E0));
#397=AXIS2_PLACEMENT_3D('',#394,#395,#396);
#398=CONICAL_SURFACE('',#397,3.441845499896E0,5.001536298891E1);
#399=ORIENTED_EDGE('',*,*,#385,.F.);
#400=ORIENTED_EDGE('',*,*,#360,.T.);
#401=ORIENTED_EDGE('',*,*,#345,.F.);
#402=ORIENTED_EDGE('',*,*,#357,.F.);
#403=EDGE_LOOP('',(#399,#400,#401,#402));
#404=FACE_OUTER_BOUND('',#403,.F.);
#406=CARTESIAN_POINT('',(0.E0,0.E0,1.E-1));
#407=DIRECTION('',(0.E0,0.E0,-1.E0));
#408=DIRECTION('',(0.E0,1.E0,0.E0));
#409=AXIS2_PLACEMENT_3D('',#406,#407,#408);
#410=PLANE('',#409);
#411=ORIENTED_EDGE('',*,*,#388,.T.);
#412=ORIENTED_EDGE('',*,*,#373,.T.);
#413=EDGE_LOOP('',(#411,#412));
#414=FACE_OUTER_BOUND('',#413,.F.);
#416=ORIENTED_EDGE('',*,*,#415,.T.);
#418=ORIENTED_EDGE('',*,*,#417,.T.);
#419=EDGE_LOOP('',(#416,#418));
#420=FACE_BOUND('',#419,.F.);
#422=CARTESIAN_POINT('',(0.E0,0.E0,-4.1735E0));
#423=DIRECTION('',(0.E0,0.E0,1.E0));
#424=DIRECTION('',(-1.E0,0.E0,0.E0));
#425=AXIS2_PLACEMENT_3D('',#422,#423,#424);
#426=CYLINDRICAL_SURFACE('',#425,3.E0);
#427=ORIENTED_EDGE('',*,*,#415,.F.);
#429=ORIENTED_EDGE('',*,*,#428,.T.);
#431=ORIENTED_EDGE('',*,*,#430,.T.);
#433=ORIENTED_EDGE('',*,*,#432,.F.);
#434=EDGE_LOOP('',(#427,#429,#431,#433));
#435=FACE_OUTER_BOUND('',#434,.F.);
#437=CARTESIAN_POINT('',(0.E0,0.E0,-4.1735E0));
#438=DIRECTION('',(0.E0,0.E0,1.E0));
#439=DIRECTION('',(-1.E0,0.E0,0.E0));
#440=AXIS2_PLACEMENT_3D('',#437,#438,#439);
#441=CYLINDRICAL_SURFACE('',#440,3.E0);
#442=ORIENTED_EDGE('',*,*,#417,.F.);
#443=ORIENTED_EDGE('',*,*,#432,.T.);
#445=ORIENTED_EDGE('',*,*,#444,.F.);
#446=ORIENTED_EDGE('',*,*,#428,.F.);
#447=EDGE_LOOP('',(#442,#443,#445,#446));
#448=FACE_OUTER_BOUND('',#447,.F.);
#450=CARTESIAN_POINT('',(0.E0,0.E0,-3.033030277982E0));
#451=DIRECTION('',(0.E0,0.E0,1.E0));
#452=DIRECTION('',(-1.E0,0.E0,0.E0));
#453=AXIS2_PLACEMENT_3D('',#450,#451,#452);
#454=TOROIDAL_SURFACE('',#453,4.7E0,2.5E0);
#456=ORIENTED_EDGE('',*,*,#455,.F.);
#457=ORIENTED_EDGE('',*,*,#444,.T.);
#459=ORIENTED_EDGE('',*,*,#458,.T.);
#461=ORIENTED_EDGE('',*,*,#460,.F.);
#462=EDGE_LOOP('',(#456,#457,#459,#461));
#463=FACE_OUTER_BOUND('',#462,.F.);
#465=CARTESIAN_POINT('',(0.E0,0.E0,-3.033030277982E0));
#466=DIRECTION('',(0.E0,0.E0,1.E0));
#467=DIRECTION('',(-1.E0,0.E0,0.E0));
#468=AXIS2_PLACEMENT_3D('',#465,#466,#467);
#469=TOROIDAL_SURFACE('',#468,4.7E0,2.5E0);
#470=ORIENTED_EDGE('',*,*,#455,.T.);
#472=ORIENTED_EDGE('',*,*,#471,.T.);
#473=ORIENTED_EDGE('',*,*,#458,.F.);
#474=ORIENTED_EDGE('',*,*,#430,.F.);
#475=EDGE_LOOP('',(#470,#472,#473,#474));
#476=FACE_OUTER_BOUND('',#475,.F.);
#478=CARTESIAN_POINT('',(0.E0,0.E0,-4.1735E0));
#479=DIRECTION('',(0.E0,0.E0,1.E0));
#480=DIRECTION('',(-1.E0,0.E0,0.E0));
#481=AXIS2_PLACEMENT_3D('',#478,#479,#480);
#482=CYLINDRICAL_SURFACE('',#481,2.2E0);
#483=ORIENTED_EDGE('',*,*,#299,.T.);
#485=ORIENTED_EDGE('',*,*,#484,.F.);
#486=ORIENTED_EDGE('',*,*,#471,.F.);
#488=ORIENTED_EDGE('',*,*,#487,.T.);
#489=EDGE_LOOP('',(#483,#485,#486,#488));
#490=FACE_OUTER_BOUND('',#489,.F.);
#492=CARTESIAN_POINT('',(0.E0,0.E0,-4.1735E0));
#493=DIRECTION('',(0.E0,0.E0,1.E0));
#494=DIRECTION('',(-1.E0,0.E0,0.E0));
#495=AXIS2_PLACEMENT_3D('',#492,#493,#494);
#496=CYLINDRICAL_SURFACE('',#495,2.2E0);
#497=ORIENTED_EDGE('',*,*,#301,.T.);
#498=ORIENTED_EDGE('',*,*,#487,.F.);
#499=ORIENTED_EDGE('',*,*,#460,.T.);
#500=ORIENTED_EDGE('',*,*,#484,.T.);
#501=EDGE_LOOP('',(#497,#498,#499,#500));
#502=FACE_OUTER_BOUND('',#501,.F.);
#504=CLOSED_SHELL('',(#305,#320,#333,#349,#364,#379,#393,#405,#421,#436,#449,
#464,#477,#491,#503));
#505=MANIFOLD_SOLID_BREP('',#504);
#506=FILL_AREA_STYLE_COLOUR('',#9);
#507=FILL_AREA_STYLE('',(#506));
#508=SURFACE_STYLE_FILL_AREA(#507);
#509=SURFACE_SIDE_STYLE('',(#508));
#510=SURFACE_STYLE_USAGE(.BOTH.,#509);
#511=PRESENTATION_STYLE_ASSIGNMENT((#510));
#18=STYLED_ITEM('',(#511),#505);
#512=CARTESIAN_POINT('',(0.E0,0.E0,0.E0));
#513=DIRECTION('',(0.E0,0.E0,1.E0));
#514=DIRECTION('',(1.E0,0.E0,0.E0));
#515=AXIS2_PLACEMENT_3D('MCS',#512,#513,#514);
#516=CURVE_STYLE('',#24,POSITIVE_LENGTH_MEASURE(2.E-2),#16);
#517=PRESENTATION_STYLE_ASSIGNMENT((#516));
#518=STYLED_ITEM('',(#517),#515);
#519=CARTESIAN_POINT('',(-5.E0,-5.E0,0.E0));
#520=DIRECTION('',(0.E0,0.E0,1.E0));
#521=DIRECTION('',(1.E0,0.E0,0.E0));
#522=AXIS2_PLACEMENT_3D('PCS',#519,#520,#521);
#523=CURVE_STYLE('',#24,POSITIVE_LENGTH_MEASURE(2.E-2),#16);
#524=PRESENTATION_STYLE_ASSIGNMENT((#523));
#525=STYLED_ITEM('',(#524),#522);
#526=CARTESIAN_POINT('',(0.E0,0.E0,-2.131628207280E-14));
#527=DIRECTION('',(0.E0,0.E0,1.E0));
#528=DIRECTION('',(0.E0,-1.E0,0.E0));
#529=AXIS2_PLACEMENT_3D('',#526,#527,#528);
#532=CURVE_STYLE('',#24,POSITIVE_LENGTH_MEASURE(2.E-2),#1);
#533=PRESENTATION_STYLE_ASSIGNMENT((#532));
#534=STYLED_ITEM('',(#533),#531);
#536=CARTESIAN_POINT('',(0.E0,0.E0,-2.131628207280E-14));
#537=DIRECTION('',(0.E0,0.E0,1.E0));
#538=DIRECTION('',(0.E0,1.E0,0.E0));
#539=AXIS2_PLACEMENT_3D('',#536,#537,#538);
#542=CURVE_STYLE('',#24,POSITIVE_LENGTH_MEASURE(2.E-2),#1);
#543=PRESENTATION_STYLE_ASSIGNMENT((#542));
#544=STYLED_ITEM('',(#543),#541);
#548=PRESENTATION_LAYER_ASSIGNMENT('ALL_CSYS','',(#515,#522));
#549=PRESENTATION_LAYER_ASSIGNMENT('ALL_CURVES','',(#546));
#550=PRESENTATION_LAYER_ASSIGNMENT('ALL_FEATURES','',(#515,#515,#522,#522,#546,
#546));
#551=PRESENTATION_LAYER_ASSIGNMENT('INTF_BLUE','',(#531,#541));
#554=PLANE_ANGLE_MEASURE_WITH_UNIT(PLANE_ANGLE_MEASURE(1.745329251994E-2),#553);
#555=(CONVERSION_BASED_UNIT('DEGREE',#554)NAMED_UNIT(*)PLANE_ANGLE_UNIT());
#557=UNCERTAINTY_MEASURE_WITH_UNIT(LENGTH_MEASURE(1.E-3),#552,
'distance_accuracy_value',
'Maximum model space distance between geometric entities at asserted connectivities');
#547=GEOMETRIC_CURVE_SET('',(#546));
#562=CARTESIAN_POINT('',(0.E0,0.E0,0.E0));
#563=DIRECTION('',(0.E0,0.E0,1.E0));
#564=DIRECTION('',(1.E0,0.E0,0.E0));
#567=SHAPE_REPRESENTATION_RELATIONSHIP('','',#566,#559);
#568=SHAPE_REPRESENTATION_RELATIONSHIP('','',#566,#560);
#569=CONSTRUCTIVE_GEOMETRY_REPRESENTATION_RELATIONSHIP('','',#566,#561);
#570=MECHANICAL_DESIGN_GEOMETRIC_PRESENTATION_REPRESENTATION('',(#27,#35,#43,
#51,#58,#65,#73,#81,#89,#97,#104,#112,#120,#128,#136,#143,#151,#159,#167,#175,
#182,#189,#197,#205,#213,#221,#229,#236,#244,#251,#18,#518,#525,#534,#544),
#558);
#571=APPLICATION_CONTEXT('automotive_design');
#572=APPLICATION_PROTOCOL_DEFINITION('international standard',
'automotive_design',2001,#571);
#573=PRODUCT_DEFINITION_CONTEXT('part definition',#571,'design');
#574=PRODUCT_CONTEXT('',#571,'mechanical');
#575=PRODUCT('RCMT10T3M0','RCMT10T3M0','NOT SPECIFIED',(#574));
#576=PRODUCT_DEFINITION_FORMATION('4','LAST_VERSION',#575);
#584=DERIVED_UNIT_ELEMENT(#583,2.E0);
#585=DERIVED_UNIT((#584));
#586=MEASURE_REPRESENTATION_ITEM('surface area measure',AREA_MEASURE(
2.886450309052E2),#585);
#591=DERIVED_UNIT_ELEMENT(#590,3.E0);
#592=DERIVED_UNIT((#591));
#593=MEASURE_REPRESENTATION_ITEM('volume measure',VOLUME_MEASURE(
2.002472754804E2),#592);
#597=CARTESIAN_POINT('centre point',(3.102759272889E-13,0.E0,
-2.001990589694E0));
#602=DERIVED_UNIT_ELEMENT(#601,2.E0);
#603=DERIVED_UNIT((#602));
#604=MEASURE_REPRESENTATION_ITEM('surface area measure',AREA_MEASURE(
2.886450309052E2),#603);
#609=DERIVED_UNIT_ELEMENT(#608,3.E0);
#610=DERIVED_UNIT((#609));
#611=MEASURE_REPRESENTATION_ITEM('volume measure',VOLUME_MEASURE(
2.002472754804E2),#610);
#615=CARTESIAN_POINT('centre point',(3.102759272889E-13,0.E0,
-2.001990589694E0));
#620=PRODUCT_RELATED_PRODUCT_CATEGORY('part','',(#575));
#1=DRAUGHTING_PRE_DEFINED_COLOUR('blue');
#2=DRAUGHTING_PRE_DEFINED_COLOUR('green');
#3=COLOUR_RGB('',3.01961E-1,3.01961E-1,3.01961E-1);
#4=COLOUR_RGB('',3.92157E-1,3.92157E-1,3.92157E-1);
#5=COLOUR_RGB('',5.01961E-1,5.01961E-1,5.01961E-1);
#6=COLOUR_RGB('',5.764705882353E-1,5.450980392157E-1,3.921568627451E-1);
#7=COLOUR_RGB('',7.05882E-1,7.05882E-1,7.05882E-1);
#8=COLOUR_RGB('',7.84314E-1,5.29412E-1,7.84314E-1);
#9=COLOUR_RGB('',8.E-1,8.E-1,8.E-1);
#10=COLOUR_RGB('',8.23529E-1,8.23529E-1,8.23529E-1);
#11=COLOUR_RGB('',8.784E-1,9.49E-1,1.E0);
#12=COLOUR_RGB('',9.80392E-1,9.80392E-1,9.80392E-1);
#13=COLOUR_RGB('',1.E0,6.66667E-1,0.E0);
#14=COLOUR_RGB('',1.E0,7.63913E-1,1.92109E-1);
#15=COLOUR_RGB('',1.E0,8.39216E-1,8.90196E-1);
#16=DRAUGHTING_PRE_DEFINED_COLOUR('yellow');
#17=COLOUR_RGB('',1.E0,1.E0,9.41176E-1);
#23=CIRCLE('',#22,4.512545293216E0);
#32=CIRCLE('',#31,4.512545293216E0);
#40=CIRCLE('',#39,2.2E0);
#48=CIRCLE('',#47,2.2E0);
#70=CIRCLE('',#69,5.E0);
#78=CIRCLE('',#77,5.E0);
#86=CIRCLE('',#85,3.470644774340E0);
#94=CIRCLE('',#93,3.470644774340E0);
#109=CIRCLE('',#108,3.413046225451E0);
#117=CIRCLE('',#116,3.413046225451E0);
#125=CIRCLE('',#124,2.E-1);
#133=CIRCLE('',#132,2.E-1);
#148=CIRCLE('',#147,3.278860745598E0);
#156=CIRCLE('',#155,3.278860745598E0);
#164=CIRCLE('',#163,3.E0);
#172=CIRCLE('',#171,3.E0);
#194=CIRCLE('',#193,2.5E0);
#202=CIRCLE('',#201,3.E0);
#210=CIRCLE('',#209,2.5E0);
#218=CIRCLE('',#217,3.E0);
#226=CIRCLE('',#225,2.2E0);
#241=CIRCLE('',#240,2.2E0);
#293=EDGE_CURVE('',#254,#255,#23,.T.);
#295=EDGE_CURVE('',#255,#254,#32,.T.);
#299=EDGE_CURVE('',#282,#283,#40,.T.);
#301=EDGE_CURVE('',#283,#282,#48,.T.);
#305=ADVANCED_FACE('',(#298,#304),#292,.F.);
#312=EDGE_CURVE('',#254,#257,#55,.T.);
#314=EDGE_CURVE('',#259,#257,#70,.T.);
#316=EDGE_CURVE('',#255,#259,#62,.T.);
#320=ADVANCED_FACE('',(#319),#310,.T.);
#328=EDGE_CURVE('',#257,#259,#78,.T.);
#333=ADVANCED_FACE('',(#332),#325,.T.);
#343=EDGE_CURVE('',#262,#263,#86,.T.);
#345=EDGE_CURVE('',#263,#262,#94,.T.);
#349=ADVANCED_FACE('',(#342,#348),#338,.T.);
#355=EDGE_CURVE('',#266,#267,#109,.T.);
#357=EDGE_CURVE('',#266,#263,#101,.T.);
#360=EDGE_CURVE('',#267,#262,#140,.T.);
#364=ADVANCED_FACE('',(#363),#354,.T.);
#371=EDGE_CURVE('',#269,#267,#133,.T.);
#373=EDGE_CURVE('',#271,#269,#156,.T.);
#375=EDGE_CURVE('',#266,#271,#125,.T.);
#379=ADVANCED_FACE('',(#378),#369,.T.);
#385=EDGE_CURVE('',#267,#266,#117,.T.);
#388=EDGE_CURVE('',#269,#271,#148,.T.);
#393=ADVANCED_FACE('',(#392),#384,.T.);
#405=ADVANCED_FACE('',(#404),#398,.T.);
#415=EDGE_CURVE('',#286,#287,#164,.T.);
#417=EDGE_CURVE('',#287,#286,#172,.T.);
#421=ADVANCED_FACE('',(#414,#420),#410,.F.);
#428=EDGE_CURVE('',#286,#274,#186,.T.);
#430=EDGE_CURVE('',#274,#278,#218,.T.);
#432=EDGE_CURVE('',#287,#278,#179,.T.);
#436=ADVANCED_FACE('',(#435),#426,.F.);
#444=EDGE_CURVE('',#274,#278,#202,.T.);
#449=ADVANCED_FACE('',(#448),#441,.F.);
#455=EDGE_CURVE('',#274,#275,#194,.T.);
#458=EDGE_CURVE('',#278,#279,#210,.T.);
#460=EDGE_CURVE('',#275,#279,#241,.T.);
#464=ADVANCED_FACE('',(#463),#454,.T.);
#471=EDGE_CURVE('',#275,#279,#226,.T.);
#477=ADVANCED_FACE('',(#476),#469,.T.);
#484=EDGE_CURVE('',#279,#283,#248,.T.);
#487=EDGE_CURVE('',#275,#282,#233,.T.);
#491=ADVANCED_FACE('',(#490),#482,.F.);
#503=ADVANCED_FACE('',(#502),#496,.F.);
#530=CIRCLE('',#529,5.E0);
#531=TRIMMED_CURVE('',#530,(PARAMETER_VALUE(0.E0)),(PARAMETER_VALUE(1.8E2)),.T.,
.UNSPECIFIED.);
#535=COMPOSITE_CURVE_SEGMENT(.CONTINUOUS.,.T.,#531);
#540=CIRCLE('',#539,5.E0);
#541=TRIMMED_CURVE('',#540,(PARAMETER_VALUE(0.E0)),(PARAMETER_VALUE(1.8E2)),.T.,
.UNSPECIFIED.);
#545=COMPOSITE_CURVE_SEGMENT(.CONTINUOUS.,.T.,#541);
#546=COMPOSITE_CURVE('',(#535,#545),.F.);
#552=(LENGTH_UNIT()NAMED_UNIT(*)SI_UNIT(.MILLI.,.METRE.));
#553=(NAMED_UNIT(*)PLANE_ANGLE_UNIT()SI_UNIT($,.RADIAN.));
#556=(NAMED_UNIT(*)SI_UNIT($,.STERADIAN.)SOLID_ANGLE_UNIT());
#558=(GEOMETRIC_REPRESENTATION_CONTEXT(3)GLOBAL_UNCERTAINTY_ASSIGNED_CONTEXT((
#557))GLOBAL_UNIT_ASSIGNED_CONTEXT((#552,#555,#556))REPRESENTATION_CONTEXT
('ID1','3'));
#559=ADVANCED_BREP_SHAPE_REPRESENTATION('',(#505),#558);
#560=GEOMETRICALLY_BOUNDED_WIREFRAME_SHAPE_REPRESENTATION('',(#547),#558);
#561=CONSTRUCTIVE_GEOMETRY_REPRESENTATION('supplemental geometry',(#515,#522),
#558);
#565=AXIS2_PLACEMENT_3D('',#562,#563,#564);
#566=SHAPE_REPRESENTATION('',(#565),#558);
#577=PRODUCT_DEFINITION('part definition','',#576,#573);
#578=PRODUCT_DEFINITION_SHAPE('','SHAPE FOR RCMT10T3M0.',#577);
#579=SHAPE_ASPECT('','solid data associated with RCMT10T3M0',#578,.F.);
#580=PROPERTY_DEFINITION('',
'shape for solid data with which properties are associated',#579);
#581=SHAPE_REPRESENTATION('',(#505),#558);
#582=SHAPE_DEFINITION_REPRESENTATION(#580,#581);
#583=(LENGTH_UNIT()NAMED_UNIT(*)SI_UNIT(.MILLI.,.METRE.));
#587=PROPERTY_DEFINITION('geometric validation property','area of RCMT10T3M0',
#579);
#588=REPRESENTATION('surface area',(#586),#558);
#589=PROPERTY_DEFINITION_REPRESENTATION(#587,#588);
#590=(LENGTH_UNIT()NAMED_UNIT(*)SI_UNIT(.MILLI.,.METRE.));
#594=PROPERTY_DEFINITION('geometric validation property','volume of RCMT10T3M0',
#579);
#595=REPRESENTATION('volume',(#593),#558);
#596=PROPERTY_DEFINITION_REPRESENTATION(#594,#595);
#598=PROPERTY_DEFINITION('geometric validation property',
'centroid of RCMT10T3M0',#579);
#599=REPRESENTATION('centroid',(#597),#558);
#600=PROPERTY_DEFINITION_REPRESENTATION(#598,#599);
#601=(LENGTH_UNIT()NAMED_UNIT(*)SI_UNIT(.MILLI.,.METRE.));
#605=PROPERTY_DEFINITION('geometric validation property','area of RCMT10T3M0',
#578);
#606=REPRESENTATION('surface area',(#604),#558);
#607=PROPERTY_DEFINITION_REPRESENTATION(#605,#606);
#608=(LENGTH_UNIT()NAMED_UNIT(*)SI_UNIT(.MILLI.,.METRE.));
#612=PROPERTY_DEFINITION('geometric validation property','volume of RCMT10T3M0',
#578);
#613=REPRESENTATION('volume',(#611),#558);
#614=PROPERTY_DEFINITION_REPRESENTATION(#612,#613);
#616=PROPERTY_DEFINITION('geometric validation property',
'centroid of RCMT10T3M0',#578);
#617=REPRESENTATION('centroid',(#615),#558);
#618=PROPERTY_DEFINITION_REPRESENTATION(#616,#617);
#619=SHAPE_DEFINITION_REPRESENTATION(#578,#566);
ENDSEC;
END-ISO-10303-21;
