ISO-10303-21;
HEADER;
FILE_DESCRIPTION((''),'2;1');
FILE_NAME('RCMT0803M0','2022-01-13T12:00:58',('tlyw01'),('PTC Japan'),
'CREO PARAMETRIC BY PTC INC, 2018500','CREO PARAMETRIC BY PTC INC, 2018500','');
FILE_SCHEMA(('AUTOMOTIVE_DESIGN { 1 0 10303 214 1 1 1 1 }'));
ENDSEC;
DATA;
#19=CARTESIAN_POINT('',(0.E0,0.E0,5.E-2));
#20=DIRECTION('',(0.E0,0.E0,-1.E0));
#21=DIRECTION('',(0.E0,-1.E0,0.E0));
#22=AXIS2_PLACEMENT_3D('',#19,#20,#21);
#24=DRAUGHTING_PRE_DEFINED_CURVE_FONT('continuous');
#25=CURVE_STYLE('',#24,POSITIVE_LENGTH_MEASURE(2.E-2),#9);
#26=PRESENTATION_STYLE_ASSIGNMENT((#25));
#27=STYLED_ITEM('',(#26),#23);
#28=CARTESIAN_POINT('',(0.E0,0.E0,5.E-2));
#29=DIRECTION('',(0.E0,0.E0,-1.E0));
#30=DIRECTION('',(0.E0,1.E0,0.E0));
#31=AXIS2_PLACEMENT_3D('',#28,#29,#30);
#33=CURVE_STYLE('',#24,POSITIVE_LENGTH_MEASURE(2.E-2),#9);
#34=PRESENTATION_STYLE_ASSIGNMENT((#33));
#35=STYLED_ITEM('',(#34),#32);
#36=CARTESIAN_POINT('',(0.E0,0.E0,5.000000000003E-2));
#37=DIRECTION('',(0.E0,0.E0,-1.E0));
#38=DIRECTION('',(-1.E0,0.E0,0.E0));
#39=AXIS2_PLACEMENT_3D('',#36,#37,#38);
#41=CURVE_STYLE('',#24,POSITIVE_LENGTH_MEASURE(2.E-2),#9);
#42=PRESENTATION_STYLE_ASSIGNMENT((#41));
#43=STYLED_ITEM('',(#42),#40);
#44=CARTESIAN_POINT('',(0.E0,0.E0,5.000000000003E-2));
#45=DIRECTION('',(0.E0,0.E0,-1.E0));
#46=DIRECTION('',(1.E0,0.E0,0.E0));
#47=AXIS2_PLACEMENT_3D('',#44,#45,#46);
#49=CURVE_STYLE('',#24,POSITIVE_LENGTH_MEASURE(2.E-2),#9);
#50=PRESENTATION_STYLE_ASSIGNMENT((#49));
#51=STYLED_ITEM('',(#50),#48);
#52=CARTESIAN_POINT('',(0.E0,2.624845874471E0,-1.5E-1));
#53=DIRECTION('',(1.E0,0.E0,0.E0));
#54=DIRECTION('',(0.E0,6.281783423848E-1,7.780693864680E-1));
#55=AXIS2_PLACEMENT_3D('',#52,#53,#54);
#57=CURVE_STYLE('',#24,POSITIVE_LENGTH_MEASURE(2.E-2),#9);
#58=PRESENTATION_STYLE_ASSIGNMENT((#57));
#59=STYLED_ITEM('',(#58),#56);
#60=CARTESIAN_POINT('',(0.E0,-2.624845874471E0,-1.5E-1));
#61=DIRECTION('',(1.E0,0.E0,0.E0));
#62=DIRECTION('',(0.E0,0.E0,1.E0));
#63=AXIS2_PLACEMENT_3D('',#60,#61,#62);
#65=CURVE_STYLE('',#24,POSITIVE_LENGTH_MEASURE(2.E-2),#9);
#66=PRESENTATION_STYLE_ASSIGNMENT((#65));
#67=STYLED_ITEM('',(#66),#64);
#68=CARTESIAN_POINT('',(0.E0,0.E0,5.613877293597E-3));
#69=DIRECTION('',(0.E0,0.E0,-1.E0));
#70=DIRECTION('',(0.E0,-1.E0,0.E0));
#71=AXIS2_PLACEMENT_3D('',#68,#69,#70);
#73=CURVE_STYLE('',#24,POSITIVE_LENGTH_MEASURE(2.E-2),#9);
#74=PRESENTATION_STYLE_ASSIGNMENT((#73));
#75=STYLED_ITEM('',(#74),#72);
#76=CARTESIAN_POINT('',(0.E0,0.E0,5.613877293597E-3));
#77=DIRECTION('',(0.E0,0.E0,-1.E0));
#78=DIRECTION('',(0.E0,1.E0,0.E0));
#79=AXIS2_PLACEMENT_3D('',#76,#77,#78);
#81=CURVE_STYLE('',#24,POSITIVE_LENGTH_MEASURE(2.E-2),#9);
#82=PRESENTATION_STYLE_ASSIGNMENT((#81));
#83=STYLED_ITEM('',(#82),#80);
#84=DIRECTION('',(-1.875526549242E-14,7.815904237648E-1,-6.237919600950E-1));
#85=VECTOR('',#84,8.999598668608E-3);
#86=CARTESIAN_POINT('',(0.E0,2.750481542948E0,5.613877293380E-3));
#87=LINE('',#86,#85);
#88=CURVE_STYLE('',#24,POSITIVE_LENGTH_MEASURE(2.E-2),#9);
#89=PRESENTATION_STYLE_ASSIGNMENT((#88));
#90=STYLED_ITEM('',(#89),#87);
#91=DIRECTION('',(1.875526549242E-14,-7.815904237648E-1,-6.237919600950E-1));
#92=VECTOR('',#91,8.999598668608E-3);
#93=CARTESIAN_POINT('',(0.E0,-2.750481542948E0,5.613877293380E-3));
#94=LINE('',#93,#92);
#95=CURVE_STYLE('',#24,POSITIVE_LENGTH_MEASURE(2.E-2),#9);
#96=PRESENTATION_STYLE_ASSIGNMENT((#95));
#97=STYLED_ITEM('',(#96),#94);
#98=CARTESIAN_POINT('',(0.E0,0.E0,7.815970093361E-14));
#99=DIRECTION('',(0.E0,0.E0,-1.E0));
#100=DIRECTION('',(0.E0,1.E0,0.E0));
#101=AXIS2_PLACEMENT_3D('',#98,#99,#100);
#103=CURVE_STYLE('',#24,POSITIVE_LENGTH_MEASURE(2.E-2),#9);
#104=PRESENTATION_STYLE_ASSIGNMENT((#103));
#105=STYLED_ITEM('',(#104),#102);
#106=CARTESIAN_POINT('',(0.E0,0.E0,7.815970093361E-14));
#107=DIRECTION('',(0.E0,0.E0,-1.E0));
#108=DIRECTION('',(0.E0,-1.E0,0.E0));
#109=AXIS2_PLACEMENT_3D('',#106,#107,#108);
#111=CURVE_STYLE('',#24,POSITIVE_LENGTH_MEASURE(2.E-2),#9);
#112=PRESENTATION_STYLE_ASSIGNMENT((#111));
#113=STYLED_ITEM('',(#112),#110);
#114=CARTESIAN_POINT('',(0.E0,0.E0,-2.673417043297E-13));
#115=DIRECTION('',(0.E0,0.E0,1.E0));
#116=DIRECTION('',(0.E0,-1.E0,0.E0));
#117=AXIS2_PLACEMENT_3D('',#114,#115,#116);
#119=CURVE_STYLE('',#24,POSITIVE_LENGTH_MEASURE(2.E-2),#9);
#120=PRESENTATION_STYLE_ASSIGNMENT((#119));
#121=STYLED_ITEM('',(#120),#118);
#122=CARTESIAN_POINT('',(0.E0,0.E0,-2.673417043297E-13));
#123=DIRECTION('',(0.E0,0.E0,1.E0));
#124=DIRECTION('',(0.E0,1.E0,0.E0));
#125=AXIS2_PLACEMENT_3D('',#122,#123,#124);
#127=CURVE_STYLE('',#24,POSITIVE_LENGTH_MEASURE(2.E-2),#9);
#128=PRESENTATION_STYLE_ASSIGNMENT((#127));
#129=STYLED_ITEM('',(#128),#126);
#130=DIRECTION('',(0.E0,-1.218693434052E-1,9.925461516413E-1));
#131=VECTOR('',#130,3.203881244959E0);
#132=CARTESIAN_POINT('',(0.E0,-3.609545096328E0,-3.18E0));
#133=LINE('',#132,#131);
#134=CURVE_STYLE('',#24,POSITIVE_LENGTH_MEASURE(2.E-2),#9);
#135=PRESENTATION_STYLE_ASSIGNMENT((#134));
#136=STYLED_ITEM('',(#135),#133);
#137=CARTESIAN_POINT('',(0.E0,0.E0,-3.18E0));
#138=DIRECTION('',(0.E0,0.E0,1.E0));
#139=DIRECTION('',(0.E0,-1.E0,0.E0));
#140=AXIS2_PLACEMENT_3D('',#137,#138,#139);
#142=CURVE_STYLE('',#24,POSITIVE_LENGTH_MEASURE(2.E-2),#9);
#143=PRESENTATION_STYLE_ASSIGNMENT((#142));
#144=STYLED_ITEM('',(#143),#141);
#145=CARTESIAN_POINT('',(0.E0,0.E0,-3.18E0));
#146=DIRECTION('',(0.E0,0.E0,1.E0));
#147=DIRECTION('',(0.E0,1.E0,0.E0));
#148=AXIS2_PLACEMENT_3D('',#145,#146,#147);
#150=CURVE_STYLE('',#24,POSITIVE_LENGTH_MEASURE(2.E-2),#9);
#151=PRESENTATION_STYLE_ASSIGNMENT((#150));
#152=STYLED_ITEM('',(#151),#149);
#153=CARTESIAN_POINT('',(0.E0,0.E0,-3.18E0));
#154=DIRECTION('',(0.E0,0.E0,-1.E0));
#155=DIRECTION('',(-1.E0,0.E0,0.E0));
#156=AXIS2_PLACEMENT_3D('',#153,#154,#155);
#158=CURVE_STYLE('',#24,POSITIVE_LENGTH_MEASURE(2.E-2),#9);
#159=PRESENTATION_STYLE_ASSIGNMENT((#158));
#160=STYLED_ITEM('',(#159),#157);
#161=CARTESIAN_POINT('',(0.E0,0.E0,-3.18E0));
#162=DIRECTION('',(0.E0,0.E0,-1.E0));
#163=DIRECTION('',(1.E0,0.E0,0.E0));
#164=AXIS2_PLACEMENT_3D('',#161,#162,#163);
#166=CURVE_STYLE('',#24,POSITIVE_LENGTH_MEASURE(2.E-2),#9);
#167=PRESENTATION_STYLE_ASSIGNMENT((#166));
#168=STYLED_ITEM('',(#167),#165);
#169=DIRECTION('',(0.E0,1.218693434052E-1,9.925461516413E-1));
#170=VECTOR('',#169,3.203881244959E0);
#171=CARTESIAN_POINT('',(0.E0,3.609545096328E0,-3.18E0));
#172=LINE('',#171,#170);
#173=CURVE_STYLE('',#24,POSITIVE_LENGTH_MEASURE(2.E-2),#9);
#174=PRESENTATION_STYLE_ASSIGNMENT((#173));
#175=STYLED_ITEM('',(#174),#172);
#176=DIRECTION('',(0.E0,0.E0,1.E0));
#177=VECTOR('',#176,1.015551215284E0);
#178=CARTESIAN_POINT('',(1.7E0,0.E0,-3.18E0));
#179=LINE('',#178,#177);
#180=CURVE_STYLE('',#24,POSITIVE_LENGTH_MEASURE(2.E-2),#9);
#181=PRESENTATION_STYLE_ASSIGNMENT((#180));
#182=STYLED_ITEM('',(#181),#179);
#183=DIRECTION('',(0.E0,0.E0,1.E0));
#184=VECTOR('',#183,1.015551215284E0);
#185=CARTESIAN_POINT('',(-1.7E0,0.E0,-3.18E0));
#186=LINE('',#185,#184);
#187=CURVE_STYLE('',#24,POSITIVE_LENGTH_MEASURE(2.E-2),#9);
#188=PRESENTATION_STYLE_ASSIGNMENT((#187));
#189=STYLED_ITEM('',(#188),#186);
#190=CARTESIAN_POINT('',(-4.2E0,0.E0,-2.164448784716E0));
#191=DIRECTION('',(0.E0,-1.E0,0.E0));
#192=DIRECTION('',(1.E0,0.E0,0.E0));
#193=AXIS2_PLACEMENT_3D('',#190,#191,#192);
#195=CURVE_STYLE('',#24,POSITIVE_LENGTH_MEASURE(2.E-2),#9);
#196=PRESENTATION_STYLE_ASSIGNMENT((#195));
#197=STYLED_ITEM('',(#196),#194);
#198=CARTESIAN_POINT('',(0.E0,0.E0,-2.164448784716E0));
#199=DIRECTION('',(0.E0,0.E0,1.E0));
#200=DIRECTION('',(-1.E0,0.E0,0.E0));
#201=AXIS2_PLACEMENT_3D('',#198,#199,#200);
#203=CURVE_STYLE('',#24,POSITIVE_LENGTH_MEASURE(2.E-2),#9);
#204=PRESENTATION_STYLE_ASSIGNMENT((#203));
#205=STYLED_ITEM('',(#204),#202);
#206=CARTESIAN_POINT('',(4.2E0,0.E0,-2.164448784716E0));
#207=DIRECTION('',(0.E0,1.E0,0.E0));
#208=DIRECTION('',(-1.E0,0.E0,0.E0));
#209=AXIS2_PLACEMENT_3D('',#206,#207,#208);
#211=CURVE_STYLE('',#24,POSITIVE_LENGTH_MEASURE(2.E-2),#9);
#212=PRESENTATION_STYLE_ASSIGNMENT((#211));
#213=STYLED_ITEM('',(#212),#210);
#214=CARTESIAN_POINT('',(0.E0,0.E0,-2.164448784716E0));
#215=DIRECTION('',(0.E0,0.E0,-1.E0));
#216=DIRECTION('',(-1.E0,0.E0,0.E0));
#217=AXIS2_PLACEMENT_3D('',#214,#215,#216);
#219=CURVE_STYLE('',#24,POSITIVE_LENGTH_MEASURE(2.E-2),#9);
#220=PRESENTATION_STYLE_ASSIGNMENT((#219));
#221=STYLED_ITEM('',(#220),#218);
#222=CARTESIAN_POINT('',(0.E0,0.E0,-6.E-1));
#223=DIRECTION('',(0.E0,0.E0,-1.E0));
#224=DIRECTION('',(-1.E0,0.E0,0.E0));
#225=AXIS2_PLACEMENT_3D('',#222,#223,#224);
#227=CURVE_STYLE('',#24,POSITIVE_LENGTH_MEASURE(2.E-2),#9);
#228=PRESENTATION_STYLE_ASSIGNMENT((#227));
#229=STYLED_ITEM('',(#228),#226);
#230=DIRECTION('',(0.E0,0.E0,1.E0));
#231=VECTOR('',#230,6.5E-1);
#232=CARTESIAN_POINT('',(-2.25E0,0.E0,-6.E-1));
#233=LINE('',#232,#231);
#234=CURVE_STYLE('',#24,POSITIVE_LENGTH_MEASURE(2.E-2),#9);
#235=PRESENTATION_STYLE_ASSIGNMENT((#234));
#236=STYLED_ITEM('',(#235),#233);
#237=CARTESIAN_POINT('',(0.E0,0.E0,-6.E-1));
#238=DIRECTION('',(0.E0,0.E0,1.E0));
#239=DIRECTION('',(-1.E0,0.E0,0.E0));
#240=AXIS2_PLACEMENT_3D('',#237,#238,#239);
#242=CURVE_STYLE('',#24,POSITIVE_LENGTH_MEASURE(2.E-2),#9);
#243=PRESENTATION_STYLE_ASSIGNMENT((#242));
#244=STYLED_ITEM('',(#243),#241);
#245=DIRECTION('',(0.E0,0.E0,1.E0));
#246=VECTOR('',#245,6.5E-1);
#247=CARTESIAN_POINT('',(2.25E0,0.E0,-6.E-1));
#248=LINE('',#247,#246);
#249=CURVE_STYLE('',#24,POSITIVE_LENGTH_MEASURE(2.E-2),#9);
#250=PRESENTATION_STYLE_ASSIGNMENT((#249));
#251=STYLED_ITEM('',(#250),#248);
#252=CARTESIAN_POINT('',(0.E0,-2.624845874471E0,5.E-2));
#253=CARTESIAN_POINT('',(0.E0,2.624845874471E0,5.E-2));
#254=VERTEX_POINT('',#252);
#255=VERTEX_POINT('',#253);
#256=CARTESIAN_POINT('',(0.E0,2.750481542948E0,5.613877293597E-3));
#257=VERTEX_POINT('',#256);
#258=CARTESIAN_POINT('',(0.E0,-2.750481542948E0,5.613877293597E-3));
#259=VERTEX_POINT('',#258);
#260=CARTESIAN_POINT('',(0.E0,2.757515543085E0,-1.791162704268E-13));
#261=VERTEX_POINT('',#260);
#262=CARTESIAN_POINT('',(0.E0,-2.757515543085E0,-2.673417043297E-13));
#263=VERTEX_POINT('',#262);
#264=CARTESIAN_POINT('',(0.E0,4.E0,7.815970093361E-14));
#265=CARTESIAN_POINT('',(0.E0,-4.E0,7.815970093361E-14));
#266=VERTEX_POINT('',#264);
#267=VERTEX_POINT('',#265);
#268=CARTESIAN_POINT('',(0.E0,-3.609545096328E0,-3.18E0));
#269=CARTESIAN_POINT('',(0.E0,3.609545096328E0,-3.18E0));
#270=VERTEX_POINT('',#268);
#271=VERTEX_POINT('',#269);
#272=CARTESIAN_POINT('',(-1.7E0,0.E0,-2.164448784716E0));
#273=CARTESIAN_POINT('',(-2.25E0,0.E0,-6.E-1));
#274=VERTEX_POINT('',#272);
#275=VERTEX_POINT('',#273);
#276=CARTESIAN_POINT('',(1.7E0,0.E0,-2.164448784716E0));
#277=CARTESIAN_POINT('',(2.25E0,0.E0,-6.E-1));
#278=VERTEX_POINT('',#276);
#279=VERTEX_POINT('',#277);
#280=CARTESIAN_POINT('',(-2.25E0,0.E0,5.000000000003E-2));
#281=CARTESIAN_POINT('',(2.25E0,0.E0,5.000000000003E-2));
#282=VERTEX_POINT('',#280);
#283=VERTEX_POINT('',#281);
#284=CARTESIAN_POINT('',(-1.7E0,0.E0,-3.18E0));
#285=CARTESIAN_POINT('',(1.7E0,0.E0,-3.18E0));
#286=VERTEX_POINT('',#284);
#287=VERTEX_POINT('',#285);
#288=CARTESIAN_POINT('',(0.E0,0.E0,5.000000000003E-2));
#289=DIRECTION('',(0.E0,0.E0,-1.E0));
#290=DIRECTION('',(0.E0,1.E0,0.E0));
#291=AXIS2_PLACEMENT_3D('',#288,#289,#290);
#292=PLANE('',#291);
#294=ORIENTED_EDGE('',*,*,#293,.T.);
#296=ORIENTED_EDGE('',*,*,#295,.T.);
#297=EDGE_LOOP('',(#294,#296));
#298=FACE_OUTER_BOUND('',#297,.F.);
#300=ORIENTED_EDGE('',*,*,#299,.F.);
#302=ORIENTED_EDGE('',*,*,#301,.F.);
#303=EDGE_LOOP('',(#300,#302));
#304=FACE_BOUND('',#303,.F.);
#306=CARTESIAN_POINT('',(0.E0,0.E0,-1.5E-1));
#307=DIRECTION('',(0.E0,0.E0,1.E0));
#308=DIRECTION('',(0.E0,-1.E0,0.E0));
#309=AXIS2_PLACEMENT_3D('',#306,#307,#308);
#310=TOROIDAL_SURFACE('',#309,2.624845874471E0,2.E-1);
#312=ORIENTED_EDGE('',*,*,#311,.T.);
#313=ORIENTED_EDGE('',*,*,#293,.F.);
#315=ORIENTED_EDGE('',*,*,#314,.T.);
#317=ORIENTED_EDGE('',*,*,#316,.T.);
#318=EDGE_LOOP('',(#312,#313,#315,#317));
#319=FACE_OUTER_BOUND('',#318,.F.);
#321=CARTESIAN_POINT('',(0.E0,0.E0,-1.5E-1));
#322=DIRECTION('',(0.E0,0.E0,1.E0));
#323=DIRECTION('',(0.E0,-1.E0,0.E0));
#324=AXIS2_PLACEMENT_3D('',#321,#322,#323);
#325=TOROIDAL_SURFACE('',#324,2.624845874471E0,2.E-1);
#326=ORIENTED_EDGE('',*,*,#314,.F.);
#327=ORIENTED_EDGE('',*,*,#295,.F.);
#328=ORIENTED_EDGE('',*,*,#311,.F.);
#330=ORIENTED_EDGE('',*,*,#329,.T.);
#331=EDGE_LOOP('',(#326,#327,#328,#330));
#332=FACE_OUTER_BOUND('',#331,.F.);
#334=CARTESIAN_POINT('',(0.E0,0.E0,2.806938646448E-3));
#335=DIRECTION('',(0.E0,0.E0,-1.E0));
#336=DIRECTION('',(0.E0,1.E0,0.E0));
#337=AXIS2_PLACEMENT_3D('',#334,#335,#336);
#338=CONICAL_SURFACE('',#337,2.753998543016E0,5.140642463566E1);
#339=ORIENTED_EDGE('',*,*,#329,.F.);
#341=ORIENTED_EDGE('',*,*,#340,.T.);
#343=ORIENTED_EDGE('',*,*,#342,.F.);
#345=ORIENTED_EDGE('',*,*,#344,.F.);
#346=EDGE_LOOP('',(#339,#341,#343,#345));
#347=FACE_OUTER_BOUND('',#346,.F.);
#349=CARTESIAN_POINT('',(0.E0,0.E0,2.806938646448E-3));
#350=DIRECTION('',(0.E0,0.E0,-1.E0));
#351=DIRECTION('',(0.E0,1.E0,0.E0));
#352=AXIS2_PLACEMENT_3D('',#349,#350,#351);
#353=CONICAL_SURFACE('',#352,2.753998543016E0,5.140642463566E1);
#354=ORIENTED_EDGE('',*,*,#316,.F.);
#355=ORIENTED_EDGE('',*,*,#344,.T.);
#357=ORIENTED_EDGE('',*,*,#356,.F.);
#358=ORIENTED_EDGE('',*,*,#340,.F.);
#359=EDGE_LOOP('',(#354,#355,#357,#358));
#360=FACE_OUTER_BOUND('',#359,.F.);
#362=CARTESIAN_POINT('',(0.E0,0.E0,0.E0));
#363=DIRECTION('',(0.E0,0.E0,1.E0));
#364=DIRECTION('',(0.E0,-1.E0,0.E0));
#365=AXIS2_PLACEMENT_3D('',#362,#363,#364);
#366=PLANE('',#365);
#368=ORIENTED_EDGE('',*,*,#367,.T.);
#370=ORIENTED_EDGE('',*,*,#369,.T.);
#371=EDGE_LOOP('',(#368,#370));
#372=FACE_OUTER_BOUND('',#371,.F.);
#373=ORIENTED_EDGE('',*,*,#342,.T.);
#374=ORIENTED_EDGE('',*,*,#356,.T.);
#375=EDGE_LOOP('',(#373,#374));
#376=FACE_BOUND('',#375,.F.);
#378=CARTESIAN_POINT('',(0.E0,0.E0,-1.59E0));
#379=DIRECTION('',(0.E0,0.E0,1.E0));
#380=DIRECTION('',(0.E0,-1.E0,0.E0));
#381=AXIS2_PLACEMENT_3D('',#378,#379,#380);
#382=CONICAL_SURFACE('',#381,3.804772548164E0,7.E0);
#384=ORIENTED_EDGE('',*,*,#383,.F.);
#386=ORIENTED_EDGE('',*,*,#385,.T.);
#387=ORIENTED_EDGE('',*,*,#367,.F.);
#389=ORIENTED_EDGE('',*,*,#388,.F.);
#390=EDGE_LOOP('',(#384,#386,#387,#389));
#391=FACE_OUTER_BOUND('',#390,.F.);
#393=CARTESIAN_POINT('',(0.E0,0.E0,-3.18E0));
#394=DIRECTION('',(0.E0,0.E0,1.E0));
#395=DIRECTION('',(0.E0,-1.E0,0.E0));
#396=AXIS2_PLACEMENT_3D('',#393,#394,#395);
#397=PLANE('',#396);
#398=ORIENTED_EDGE('',*,*,#383,.T.);
#400=ORIENTED_EDGE('',*,*,#399,.T.);
#401=EDGE_LOOP('',(#398,#400));
#402=FACE_OUTER_BOUND('',#401,.F.);
#404=ORIENTED_EDGE('',*,*,#403,.T.);
#406=ORIENTED_EDGE('',*,*,#405,.T.);
#407=EDGE_LOOP('',(#404,#406));
#408=FACE_BOUND('',#407,.F.);
#410=CARTESIAN_POINT('',(0.E0,0.E0,-1.59E0));
#411=DIRECTION('',(0.E0,0.E0,1.E0));
#412=DIRECTION('',(0.E0,-1.E0,0.E0));
#413=AXIS2_PLACEMENT_3D('',#410,#411,#412);
#414=CONICAL_SURFACE('',#413,3.804772548164E0,7.E0);
#415=ORIENTED_EDGE('',*,*,#399,.F.);
#416=ORIENTED_EDGE('',*,*,#388,.T.);
#417=ORIENTED_EDGE('',*,*,#369,.F.);
#418=ORIENTED_EDGE('',*,*,#385,.F.);
#419=EDGE_LOOP('',(#415,#416,#417,#418));
#420=FACE_OUTER_BOUND('',#419,.F.);
#422=CARTESIAN_POINT('',(0.E0,0.E0,2.115E-1));
#423=DIRECTION('',(0.E0,0.E0,-1.E0));
#424=DIRECTION('',(1.E0,0.E0,0.E0));
#425=AXIS2_PLACEMENT_3D('',#422,#423,#424);
#426=CYLINDRICAL_SURFACE('',#425,1.7E0);
#427=ORIENTED_EDGE('',*,*,#403,.F.);
#429=ORIENTED_EDGE('',*,*,#428,.T.);
#431=ORIENTED_EDGE('',*,*,#430,.T.);
#433=ORIENTED_EDGE('',*,*,#432,.F.);
#434=EDGE_LOOP('',(#427,#429,#431,#433));
#435=FACE_OUTER_BOUND('',#434,.F.);
#437=CARTESIAN_POINT('',(0.E0,0.E0,2.115E-1));
#438=DIRECTION('',(0.E0,0.E0,-1.E0));
#439=DIRECTION('',(1.E0,0.E0,0.E0));
#440=AXIS2_PLACEMENT_3D('',#437,#438,#439);
#441=CYLINDRICAL_SURFACE('',#440,1.7E0);
#442=ORIENTED_EDGE('',*,*,#405,.F.);
#443=ORIENTED_EDGE('',*,*,#432,.T.);
#445=ORIENTED_EDGE('',*,*,#444,.F.);
#446=ORIENTED_EDGE('',*,*,#428,.F.);
#447=EDGE_LOOP('',(#442,#443,#445,#446));
#448=FACE_OUTER_BOUND('',#447,.F.);
#450=CARTESIAN_POINT('',(0.E0,0.E0,-2.164448784716E0));
#451=DIRECTION('',(0.E0,0.E0,-1.E0));
#452=DIRECTION('',(1.E0,0.E0,0.E0));
#453=AXIS2_PLACEMENT_3D('',#450,#451,#452);
#454=TOROIDAL_SURFACE('',#453,4.2E0,2.5E0);
#456=ORIENTED_EDGE('',*,*,#455,.F.);
#457=ORIENTED_EDGE('',*,*,#444,.T.);
#459=ORIENTED_EDGE('',*,*,#458,.T.);
#461=ORIENTED_EDGE('',*,*,#460,.F.);
#462=EDGE_LOOP('',(#456,#457,#459,#461));
#463=FACE_OUTER_BOUND('',#462,.F.);
#465=CARTESIAN_POINT('',(0.E0,0.E0,-2.164448784716E0));
#466=DIRECTION('',(0.E0,0.E0,-1.E0));
#467=DIRECTION('',(1.E0,0.E0,0.E0));
#468=AXIS2_PLACEMENT_3D('',#465,#466,#467);
#469=TOROIDAL_SURFACE('',#468,4.2E0,2.5E0);
#470=ORIENTED_EDGE('',*,*,#455,.T.);
#472=ORIENTED_EDGE('',*,*,#471,.T.);
#473=ORIENTED_EDGE('',*,*,#458,.F.);
#474=ORIENTED_EDGE('',*,*,#430,.F.);
#475=EDGE_LOOP('',(#470,#472,#473,#474));
#476=FACE_OUTER_BOUND('',#475,.F.);
#478=CARTESIAN_POINT('',(0.E0,0.E0,2.115E-1));
#479=DIRECTION('',(0.E0,0.E0,-1.E0));
#480=DIRECTION('',(1.E0,0.E0,0.E0));
#481=AXIS2_PLACEMENT_3D('',#478,#479,#480);
#482=CYLINDRICAL_SURFACE('',#481,2.25E0);
#483=ORIENTED_EDGE('',*,*,#299,.T.);
#485=ORIENTED_EDGE('',*,*,#484,.F.);
#486=ORIENTED_EDGE('',*,*,#471,.F.);
#488=ORIENTED_EDGE('',*,*,#487,.T.);
#489=EDGE_LOOP('',(#483,#485,#486,#488));
#490=FACE_OUTER_BOUND('',#489,.F.);
#492=CARTESIAN_POINT('',(0.E0,0.E0,2.115E-1));
#493=DIRECTION('',(0.E0,0.E0,-1.E0));
#494=DIRECTION('',(1.E0,0.E0,0.E0));
#495=AXIS2_PLACEMENT_3D('',#492,#493,#494);
#496=CYLINDRICAL_SURFACE('',#495,2.25E0);
#497=ORIENTED_EDGE('',*,*,#301,.T.);
#498=ORIENTED_EDGE('',*,*,#487,.F.);
#499=ORIENTED_EDGE('',*,*,#460,.T.);
#500=ORIENTED_EDGE('',*,*,#484,.T.);
#501=EDGE_LOOP('',(#497,#498,#499,#500));
#502=FACE_OUTER_BOUND('',#501,.F.);
#504=CLOSED_SHELL('',(#305,#320,#333,#348,#361,#377,#392,#409,#421,#436,#449,
#464,#477,#491,#503));
#505=MANIFOLD_SOLID_BREP('',#504);
#506=FILL_AREA_STYLE_COLOUR('',#9);
#507=FILL_AREA_STYLE('',(#506));
#508=SURFACE_STYLE_FILL_AREA(#507);
#509=SURFACE_SIDE_STYLE('',(#508));
#510=SURFACE_STYLE_USAGE(.BOTH.,#509);
#511=PRESENTATION_STYLE_ASSIGNMENT((#510));
#18=STYLED_ITEM('',(#511),#505);
#512=CARTESIAN_POINT('',(0.E0,0.E0,0.E0));
#513=DIRECTION('',(0.E0,0.E0,1.E0));
#514=DIRECTION('',(1.E0,0.E0,0.E0));
#515=AXIS2_PLACEMENT_3D('MCS',#512,#513,#514);
#516=CURVE_STYLE('',#24,POSITIVE_LENGTH_MEASURE(2.E-2),#16);
#517=PRESENTATION_STYLE_ASSIGNMENT((#516));
#518=STYLED_ITEM('',(#517),#515);
#519=CARTESIAN_POINT('',(-4.E0,-4.E0,0.E0));
#520=DIRECTION('',(0.E0,0.E0,1.E0));
#521=DIRECTION('',(1.E0,0.E0,0.E0));
#522=AXIS2_PLACEMENT_3D('PCS',#519,#520,#521);
#523=CURVE_STYLE('',#24,POSITIVE_LENGTH_MEASURE(2.E-2),#16);
#524=PRESENTATION_STYLE_ASSIGNMENT((#523));
#525=STYLED_ITEM('',(#524),#522);
#526=CARTESIAN_POINT('',(0.E0,0.E0,0.E0));
#527=DIRECTION('',(0.E0,0.E0,1.E0));
#528=DIRECTION('',(0.E0,-1.E0,0.E0));
#529=AXIS2_PLACEMENT_3D('',#526,#527,#528);
#532=CURVE_STYLE('',#24,POSITIVE_LENGTH_MEASURE(2.E-2),#1);
#533=PRESENTATION_STYLE_ASSIGNMENT((#532));
#534=STYLED_ITEM('',(#533),#531);
#536=CARTESIAN_POINT('',(0.E0,0.E0,0.E0));
#537=DIRECTION('',(0.E0,0.E0,1.E0));
#538=DIRECTION('',(0.E0,1.E0,0.E0));
#539=AXIS2_PLACEMENT_3D('',#536,#537,#538);
#542=CURVE_STYLE('',#24,POSITIVE_LENGTH_MEASURE(2.E-2),#1);
#543=PRESENTATION_STYLE_ASSIGNMENT((#542));
#544=STYLED_ITEM('',(#543),#541);
#548=PRESENTATION_LAYER_ASSIGNMENT('ALL_CSYS','',(#515,#522));
#549=PRESENTATION_LAYER_ASSIGNMENT('ALL_CURVES','',(#546));
#550=PRESENTATION_LAYER_ASSIGNMENT('ALL_FEATURES','',(#515,#515,#522,#522,#546,
#546));
#551=PRESENTATION_LAYER_ASSIGNMENT('INTF_BLUE','',(#531,#541));
#554=PLANE_ANGLE_MEASURE_WITH_UNIT(PLANE_ANGLE_MEASURE(1.745329251994E-2),#553);
#555=(CONVERSION_BASED_UNIT('DEGREE',#554)NAMED_UNIT(*)PLANE_ANGLE_UNIT());
#557=UNCERTAINTY_MEASURE_WITH_UNIT(LENGTH_MEASURE(1.E-3),#552,
'distance_accuracy_value',
'Maximum model space distance between geometric entities at asserted connectivities');
#547=GEOMETRIC_CURVE_SET('',(#546));
#562=CARTESIAN_POINT('',(0.E0,0.E0,0.E0));
#563=DIRECTION('',(0.E0,0.E0,1.E0));
#564=DIRECTION('',(1.E0,0.E0,0.E0));
#567=SHAPE_REPRESENTATION_RELATIONSHIP('','',#566,#559);
#568=SHAPE_REPRESENTATION_RELATIONSHIP('','',#566,#560);
#569=CONSTRUCTIVE_GEOMETRY_REPRESENTATION_RELATIONSHIP('','',#566,#561);
#570=MECHANICAL_DESIGN_GEOMETRIC_PRESENTATION_REPRESENTATION('',(#27,#35,#43,
#51,#59,#67,#75,#83,#90,#97,#105,#113,#121,#129,#136,#144,#152,#160,#168,#175,
#182,#189,#197,#205,#213,#221,#229,#236,#244,#251,#18,#518,#525,#534,#544),
#558);
#571=APPLICATION_CONTEXT('automotive_design');
#572=APPLICATION_PROTOCOL_DEFINITION('international standard',
'automotive_design',2001,#571);
#573=PRODUCT_DEFINITION_CONTEXT('part definition',#571,'design');
#574=PRODUCT_CONTEXT('',#571,'mechanical');
#575=PRODUCT('RCMT0803M0','RCMT0803M0','NOT SPECIFIED',(#574));
#576=PRODUCT_DEFINITION_FORMATION('4','LAST_VERSION',#575);
#584=DERIVED_UNIT_ELEMENT(#583,2.E0);
#585=DERIVED_UNIT((#584));
#586=MEASURE_REPRESENTATION_ITEM('surface area measure',AREA_MEASURE(
1.830830411394E2),#585);
#591=DERIVED_UNIT_ELEMENT(#590,3.E0);
#592=DERIVED_UNIT((#591));
#593=MEASURE_REPRESENTATION_ITEM('volume measure',VOLUME_MEASURE(
1.089539152374E2),#592);
#597=CARTESIAN_POINT('centre point',(-8.634463296672E-14,0.E0,
-1.579053721335E0));
#602=DERIVED_UNIT_ELEMENT(#601,2.E0);
#603=DERIVED_UNIT((#602));
#604=MEASURE_REPRESENTATION_ITEM('surface area measure',AREA_MEASURE(
1.830830411394E2),#603);
#609=DERIVED_UNIT_ELEMENT(#608,3.E0);
#610=DERIVED_UNIT((#609));
#611=MEASURE_REPRESENTATION_ITEM('volume measure',VOLUME_MEASURE(
1.089539152374E2),#610);
#615=CARTESIAN_POINT('centre point',(-8.634463296672E-14,0.E0,
-1.579053721335E0));
#620=PRODUCT_RELATED_PRODUCT_CATEGORY('part','',(#575));
#1=DRAUGHTING_PRE_DEFINED_COLOUR('blue');
#2=DRAUGHTING_PRE_DEFINED_COLOUR('green');
#3=COLOUR_RGB('',3.01961E-1,3.01961E-1,3.01961E-1);
#4=COLOUR_RGB('',3.92157E-1,3.92157E-1,3.92157E-1);
#5=COLOUR_RGB('',5.01961E-1,5.01961E-1,5.01961E-1);
#6=COLOUR_RGB('',5.764705882353E-1,5.450980392157E-1,3.921568627451E-1);
#7=COLOUR_RGB('',7.05882E-1,7.05882E-1,7.05882E-1);
#8=COLOUR_RGB('',7.84314E-1,5.29412E-1,7.84314E-1);
#9=COLOUR_RGB('',8.E-1,8.E-1,8.E-1);
#10=COLOUR_RGB('',8.23529E-1,8.23529E-1,8.23529E-1);
#11=COLOUR_RGB('',8.784E-1,9.49E-1,1.E0);
#12=COLOUR_RGB('',9.80392E-1,9.80392E-1,9.80392E-1);
#13=COLOUR_RGB('',1.E0,6.66667E-1,0.E0);
#14=COLOUR_RGB('',1.E0,7.63913E-1,1.92109E-1);
#15=COLOUR_RGB('',1.E0,8.39216E-1,8.90196E-1);
#16=DRAUGHTING_PRE_DEFINED_COLOUR('yellow');
#17=COLOUR_RGB('',1.E0,1.E0,9.41176E-1);
#23=CIRCLE('',#22,2.624845874471E0);
#32=CIRCLE('',#31,2.624845874471E0);
#40=CIRCLE('',#39,2.25E0);
#48=CIRCLE('',#47,2.25E0);
#56=CIRCLE('',#55,2.E-1);
#64=CIRCLE('',#63,2.E-1);
#72=CIRCLE('',#71,2.750481542948E0);
#80=CIRCLE('',#79,2.750481542948E0);
#102=CIRCLE('',#101,4.E0);
#110=CIRCLE('',#109,4.E0);
#118=CIRCLE('',#117,2.757515543085E0);
#126=CIRCLE('',#125,2.757515543085E0);
#141=CIRCLE('',#140,3.609545096328E0);
#149=CIRCLE('',#148,3.609545096328E0);
#157=CIRCLE('',#156,1.7E0);
#165=CIRCLE('',#164,1.7E0);
#194=CIRCLE('',#193,2.5E0);
#202=CIRCLE('',#201,1.7E0);
#210=CIRCLE('',#209,2.5E0);
#218=CIRCLE('',#217,1.7E0);
#226=CIRCLE('',#225,2.25E0);
#241=CIRCLE('',#240,2.25E0);
#293=EDGE_CURVE('',#254,#255,#23,.T.);
#295=EDGE_CURVE('',#255,#254,#32,.T.);
#299=EDGE_CURVE('',#282,#283,#40,.T.);
#301=EDGE_CURVE('',#283,#282,#48,.T.);
#305=ADVANCED_FACE('',(#298,#304),#292,.F.);
#311=EDGE_CURVE('',#257,#255,#56,.T.);
#314=EDGE_CURVE('',#254,#259,#64,.T.);
#316=EDGE_CURVE('',#259,#257,#72,.T.);
#320=ADVANCED_FACE('',(#319),#310,.T.);
#329=EDGE_CURVE('',#257,#259,#80,.T.);
#333=ADVANCED_FACE('',(#332),#325,.T.);
#340=EDGE_CURVE('',#257,#261,#87,.T.);
#342=EDGE_CURVE('',#263,#261,#118,.T.);
#344=EDGE_CURVE('',#259,#263,#94,.T.);
#348=ADVANCED_FACE('',(#347),#338,.T.);
#356=EDGE_CURVE('',#261,#263,#126,.T.);
#361=ADVANCED_FACE('',(#360),#353,.T.);
#367=EDGE_CURVE('',#266,#267,#102,.T.);
#369=EDGE_CURVE('',#267,#266,#110,.T.);
#377=ADVANCED_FACE('',(#372,#376),#366,.T.);
#383=EDGE_CURVE('',#270,#271,#141,.T.);
#385=EDGE_CURVE('',#270,#267,#133,.T.);
#388=EDGE_CURVE('',#271,#266,#172,.T.);
#392=ADVANCED_FACE('',(#391),#382,.T.);
#399=EDGE_CURVE('',#271,#270,#149,.T.);
#403=EDGE_CURVE('',#286,#287,#157,.T.);
#405=EDGE_CURVE('',#287,#286,#165,.T.);
#409=ADVANCED_FACE('',(#402,#408),#397,.F.);
#421=ADVANCED_FACE('',(#420),#414,.T.);
#428=EDGE_CURVE('',#286,#274,#186,.T.);
#430=EDGE_CURVE('',#274,#278,#218,.T.);
#432=EDGE_CURVE('',#287,#278,#179,.T.);
#436=ADVANCED_FACE('',(#435),#426,.F.);
#444=EDGE_CURVE('',#274,#278,#202,.T.);
#449=ADVANCED_FACE('',(#448),#441,.F.);
#455=EDGE_CURVE('',#274,#275,#194,.T.);
#458=EDGE_CURVE('',#278,#279,#210,.T.);
#460=EDGE_CURVE('',#275,#279,#241,.T.);
#464=ADVANCED_FACE('',(#463),#454,.T.);
#471=EDGE_CURVE('',#275,#279,#226,.T.);
#477=ADVANCED_FACE('',(#476),#469,.T.);
#484=EDGE_CURVE('',#279,#283,#248,.T.);
#487=EDGE_CURVE('',#275,#282,#233,.T.);
#491=ADVANCED_FACE('',(#490),#482,.F.);
#503=ADVANCED_FACE('',(#502),#496,.F.);
#530=CIRCLE('',#529,4.E0);
#531=TRIMMED_CURVE('',#530,(PARAMETER_VALUE(0.E0)),(PARAMETER_VALUE(1.8E2)),.T.,
.UNSPECIFIED.);
#535=COMPOSITE_CURVE_SEGMENT(.CONTINUOUS.,.T.,#531);
#540=CIRCLE('',#539,4.E0);
#541=TRIMMED_CURVE('',#540,(PARAMETER_VALUE(0.E0)),(PARAMETER_VALUE(1.8E2)),.T.,
.UNSPECIFIED.);
#545=COMPOSITE_CURVE_SEGMENT(.CONTINUOUS.,.T.,#541);
#546=COMPOSITE_CURVE('',(#535,#545),.F.);
#552=(LENGTH_UNIT()NAMED_UNIT(*)SI_UNIT(.MILLI.,.METRE.));
#553=(NAMED_UNIT(*)PLANE_ANGLE_UNIT()SI_UNIT($,.RADIAN.));
#556=(NAMED_UNIT(*)SI_UNIT($,.STERADIAN.)SOLID_ANGLE_UNIT());
#558=(GEOMETRIC_REPRESENTATION_CONTEXT(3)GLOBAL_UNCERTAINTY_ASSIGNED_CONTEXT((
#557))GLOBAL_UNIT_ASSIGNED_CONTEXT((#552,#555,#556))REPRESENTATION_CONTEXT
('ID1','3'));
#559=ADVANCED_BREP_SHAPE_REPRESENTATION('',(#505),#558);
#560=GEOMETRICALLY_BOUNDED_WIREFRAME_SHAPE_REPRESENTATION('',(#547),#558);
#561=CONSTRUCTIVE_GEOMETRY_REPRESENTATION('supplemental geometry',(#515,#522),
#558);
#565=AXIS2_PLACEMENT_3D('',#562,#563,#564);
#566=SHAPE_REPRESENTATION('',(#565),#558);
#577=PRODUCT_DEFINITION('part definition','',#576,#573);
#578=PRODUCT_DEFINITION_SHAPE('','SHAPE FOR RCMT0803M0.',#577);
#579=SHAPE_ASPECT('','solid data associated with RCMT0803M0',#578,.F.);
#580=PROPERTY_DEFINITION('',
'shape for solid data with which properties are associated',#579);
#581=SHAPE_REPRESENTATION('',(#505),#558);
#582=SHAPE_DEFINITION_REPRESENTATION(#580,#581);
#583=(LENGTH_UNIT()NAMED_UNIT(*)SI_UNIT(.MILLI.,.METRE.));
#587=PROPERTY_DEFINITION('geometric validation property','area of RCMT0803M0',
#579);
#588=REPRESENTATION('surface area',(#586),#558);
#589=PROPERTY_DEFINITION_REPRESENTATION(#587,#588);
#590=(LENGTH_UNIT()NAMED_UNIT(*)SI_UNIT(.MILLI.,.METRE.));
#594=PROPERTY_DEFINITION('geometric validation property','volume of RCMT0803M0',
#579);
#595=REPRESENTATION('volume',(#593),#558);
#596=PROPERTY_DEFINITION_REPRESENTATION(#594,#595);
#598=PROPERTY_DEFINITION('geometric validation property',
'centroid of RCMT0803M0',#579);
#599=REPRESENTATION('centroid',(#597),#558);
#600=PROPERTY_DEFINITION_REPRESENTATION(#598,#599);
#601=(LENGTH_UNIT()NAMED_UNIT(*)SI_UNIT(.MILLI.,.METRE.));
#605=PROPERTY_DEFINITION('geometric validation property','area of RCMT0803M0',
#578);
#606=REPRESENTATION('surface area',(#604),#558);
#607=PROPERTY_DEFINITION_REPRESENTATION(#605,#606);
#608=(LENGTH_UNIT()NAMED_UNIT(*)SI_UNIT(.MILLI.,.METRE.));
#612=PROPERTY_DEFINITION('geometric validation property','volume of RCMT0803M0',
#578);
#613=REPRESENTATION('volume',(#611),#558);
#614=PROPERTY_DEFINITION_REPRESENTATION(#612,#613);
#616=PROPERTY_DEFINITION('geometric validation property',
'centroid of RCMT0803M0',#578);
#617=REPRESENTATION('centroid',(#615),#558);
#618=PROPERTY_DEFINITION_REPRESENTATION(#616,#617);
#619=SHAPE_DEFINITION_REPRESENTATION(#578,#566);
ENDSEC;
END-ISO-10303-21;
