ISO-10303-21;
HEADER;
/* Generated by software containing ST-Developer
 * from STEP Tools, Inc. (www.steptools.com) 
 */
/* OPTION: using custom schema-name function */

FILE_DESCRIPTION(
/* description */ (''),
/* implementation_level */ '2;1');

FILE_NAME(
/* name */ 'RCGT10T3M0-AZ.stp',
/* time_stamp */ '2021-12-22T08:51:12+09:00',
/* author */ (''),
/* organization */ (''),
/* preprocessor_version */ 'ST-DEVELOPER v16',
/* originating_system */ 'SIEMENS PLM Software NX 10.0',
/* authorisation */ '');

FILE_SCHEMA (('AUTOMOTIVE_DESIGN { 1 0 10303 214 3 1 1 1 }'));
ENDSEC;

DATA;
#10=CONSTRUCTIVE_GEOMETRY_REPRESENTATION_RELATIONSHIP(
'supplemental geometry','',#26,#11);
#11=CONSTRUCTIVE_GEOMETRY_REPRESENTATION('supplemental geometry',(#220,
#221,#222),#364);
#12=GEOMETRICALLY_BOUNDED_WIREFRAME_SHAPE_REPRESENTATION(
'RCGT10T3M0-AZ-None',(#27),#364);
#13=SHAPE_REPRESENTATION_RELATIONSHIP('None',
'relationship between RCGT10T3M0-AZ-None and RCGT10T3M0-AZ-None',#26,#15);
#14=SHAPE_REPRESENTATION_RELATIONSHIP('None',
'relationship between RCGT10T3M0-AZ-None and RCGT10T3M0-AZ-None',#26,#12);
#15=ADVANCED_BREP_SHAPE_REPRESENTATION('RCGT10T3M0-AZ-None',(#33),#364);
#16=SHAPE_DEFINITION_REPRESENTATION(#17,#26);
#17=PRODUCT_DEFINITION_SHAPE('','',#18);
#18=PRODUCT_DEFINITION('part definition','',#20,#19);
#19=PRODUCT_DEFINITION_CONTEXT('part definition',#25,'design');
#20=PRODUCT_DEFINITION_FORMATION_WITH_SPECIFIED_SOURCE(' ',' ',#22,
 .NOT_KNOWN.);
#21=PRODUCT_RELATED_PRODUCT_CATEGORY('part','',(#22));
#22=PRODUCT('RCGT10T3M0-AZ','RCGT10T3M0-AZ','NOT SPECIFIED',(#23));
#23=PRODUCT_CONTEXT('',#25,'mechanical');
#24=APPLICATION_PROTOCOL_DEFINITION('international standard',
'automotive_design',2010,#25);
#25=APPLICATION_CONTEXT(
'core data for automotive mechanical design processes');
#26=SHAPE_REPRESENTATION('RCGT10T3M0-AZ-None',(#217),#364);
#27=GEOMETRIC_CURVE_SET('None',(#314,#315,#175,#176));
#28=SURFACE_STYLE_USAGE(.BOTH.,#29);
#29=SURFACE_SIDE_STYLE('',(#30));
#30=SURFACE_STYLE_FILL_AREA(#31);
#31=FILL_AREA_STYLE('',(#32));
#32=FILL_AREA_STYLE_COLOUR('',#164);
#33=MANIFOLD_SOLID_BREP('',#34);
#34=CLOSED_SHELL('',(#63,#64,#65,#66,#67,#68,#69,#70,#71,#72));
#35=TOROIDAL_SURFACE('',#242,5.2,3.);
#36=TOROIDAL_SURFACE('',#244,5.2,3.);
#37=CYLINDRICAL_SURFACE('',#236,2.2);
#38=CYLINDRICAL_SURFACE('',#238,2.2);
#39=CYLINDRICAL_SURFACE('',#245,3.);
#40=CYLINDRICAL_SURFACE('',#246,3.);
#41=CONICAL_SURFACE('',#229,4.756272646608,7.);
#42=CONICAL_SURFACE('',#231,4.756272646608,7.);
#43=FACE_OUTER_BOUND('',#81,.T.);
#44=FACE_OUTER_BOUND('',#82,.T.);
#45=FACE_OUTER_BOUND('',#85,.T.);
#46=FACE_OUTER_BOUND('',#86,.T.);
#47=FACE_OUTER_BOUND('',#87,.T.);
#48=FACE_OUTER_BOUND('',#88,.T.);
#49=FACE_OUTER_BOUND('',#89,.T.);
#50=FACE_OUTER_BOUND('',#90,.T.);
#51=LINE('',#330,#57);
#52=LINE('',#334,#58);
#53=LINE('',#343,#59);
#54=LINE('',#347,#60);
#55=LINE('',#359,#61);
#56=LINE('',#360,#62);
#57=VECTOR('',#269,1.);
#58=VECTOR('',#272,1.);
#59=VECTOR('',#285,1.);
#60=VECTOR('',#288,1.);
#61=VECTOR('',#307,1.);
#62=VECTOR('',#308,1.);
#63=ADVANCED_FACE('',(#75,#76),#73,.T.);
#64=ADVANCED_FACE('',(#43),#41,.T.);
#65=ADVANCED_FACE('',(#44),#42,.T.);
#66=ADVANCED_FACE('',(#77,#78),#74,.F.);
#67=ADVANCED_FACE('',(#45),#37,.F.);
#68=ADVANCED_FACE('',(#46),#38,.F.);
#69=ADVANCED_FACE('',(#47),#35,.T.);
#70=ADVANCED_FACE('',(#48),#36,.T.);
#71=ADVANCED_FACE('',(#49),#39,.F.);
#72=ADVANCED_FACE('',(#50),#40,.F.);
#73=PLANE('',#227);
#74=PLANE('',#234);
#75=FACE_BOUND('',#79,.T.);
#76=FACE_BOUND('',#80,.T.);
#77=FACE_BOUND('',#83,.T.);
#78=FACE_BOUND('',#84,.T.);
#79=EDGE_LOOP('',(#91,#92));
#80=EDGE_LOOP('',(#93,#94));
#81=EDGE_LOOP('',(#95,#96,#97,#98));
#82=EDGE_LOOP('',(#99,#100,#101,#102));
#83=EDGE_LOOP('',(#103,#104));
#84=EDGE_LOOP('',(#105,#106));
#85=EDGE_LOOP('',(#107,#108,#109,#110));
#86=EDGE_LOOP('',(#111,#112,#113,#114));
#87=EDGE_LOOP('',(#115,#116,#117,#118));
#88=EDGE_LOOP('',(#119,#120,#121,#122));
#89=EDGE_LOOP('',(#123,#124,#125,#126));
#90=EDGE_LOOP('',(#127,#128,#129,#130));
#91=ORIENTED_EDGE('',*,*,#143,.F.);
#92=ORIENTED_EDGE('',*,*,#144,.F.);
#93=ORIENTED_EDGE('',*,*,#145,.F.);
#94=ORIENTED_EDGE('',*,*,#146,.F.);
#95=ORIENTED_EDGE('',*,*,#147,.F.);
#96=ORIENTED_EDGE('',*,*,#148,.T.);
#97=ORIENTED_EDGE('',*,*,#149,.T.);
#98=ORIENTED_EDGE('',*,*,#144,.T.);
#99=ORIENTED_EDGE('',*,*,#149,.F.);
#100=ORIENTED_EDGE('',*,*,#150,.T.);
#101=ORIENTED_EDGE('',*,*,#147,.T.);
#102=ORIENTED_EDGE('',*,*,#143,.T.);
#103=ORIENTED_EDGE('',*,*,#150,.F.);
#104=ORIENTED_EDGE('',*,*,#148,.F.);
#105=ORIENTED_EDGE('',*,*,#151,.F.);
#106=ORIENTED_EDGE('',*,*,#152,.F.);
#107=ORIENTED_EDGE('',*,*,#153,.T.);
#108=ORIENTED_EDGE('',*,*,#154,.T.);
#109=ORIENTED_EDGE('',*,*,#155,.F.);
#110=ORIENTED_EDGE('',*,*,#152,.T.);
#111=ORIENTED_EDGE('',*,*,#155,.T.);
#112=ORIENTED_EDGE('',*,*,#156,.T.);
#113=ORIENTED_EDGE('',*,*,#153,.F.);
#114=ORIENTED_EDGE('',*,*,#151,.T.);
#115=ORIENTED_EDGE('',*,*,#157,.F.);
#116=ORIENTED_EDGE('',*,*,#158,.T.);
#117=ORIENTED_EDGE('',*,*,#156,.F.);
#118=ORIENTED_EDGE('',*,*,#159,.F.);
#119=ORIENTED_EDGE('',*,*,#154,.F.);
#120=ORIENTED_EDGE('',*,*,#158,.F.);
#121=ORIENTED_EDGE('',*,*,#160,.F.);
#122=ORIENTED_EDGE('',*,*,#159,.T.);
#123=ORIENTED_EDGE('',*,*,#161,.F.);
#124=ORIENTED_EDGE('',*,*,#160,.T.);
#125=ORIENTED_EDGE('',*,*,#162,.T.);
#126=ORIENTED_EDGE('',*,*,#146,.T.);
#127=ORIENTED_EDGE('',*,*,#162,.F.);
#128=ORIENTED_EDGE('',*,*,#157,.T.);
#129=ORIENTED_EDGE('',*,*,#161,.T.);
#130=ORIENTED_EDGE('',*,*,#145,.T.);
#131=VERTEX_POINT('',#322);
#132=VERTEX_POINT('',#323);
#133=VERTEX_POINT('',#326);
#134=VERTEX_POINT('',#327);
#135=VERTEX_POINT('',#331);
#136=VERTEX_POINT('',#333);
#137=VERTEX_POINT('',#339);
#138=VERTEX_POINT('',#340);
#139=VERTEX_POINT('',#344);
#140=VERTEX_POINT('',#346);
#141=VERTEX_POINT('',#352);
#142=VERTEX_POINT('',#353);
#143=EDGE_CURVE('',#131,#132,#179,.T.);
#144=EDGE_CURVE('',#132,#131,#180,.T.);
#145=EDGE_CURVE('',#133,#134,#181,.T.);
#146=EDGE_CURVE('',#134,#133,#182,.T.);
#147=EDGE_CURVE('',#135,#131,#51,.T.);
#148=EDGE_CURVE('',#135,#136,#183,.T.);
#149=EDGE_CURVE('',#136,#132,#52,.T.);
#150=EDGE_CURVE('',#136,#135,#184,.T.);
#151=EDGE_CURVE('',#137,#138,#185,.T.);
#152=EDGE_CURVE('',#138,#137,#186,.T.);
#153=EDGE_CURVE('',#137,#139,#53,.T.);
#154=EDGE_CURVE('',#139,#140,#187,.T.);
#155=EDGE_CURVE('',#138,#140,#54,.T.);
#156=EDGE_CURVE('',#140,#139,#188,.T.);
#157=EDGE_CURVE('',#141,#142,#189,.T.);
#158=EDGE_CURVE('',#141,#139,#190,.T.);
#159=EDGE_CURVE('',#142,#140,#191,.T.);
#160=EDGE_CURVE('',#142,#141,#192,.T.);
#161=EDGE_CURVE('',#142,#133,#55,.T.);
#162=EDGE_CURVE('',#141,#134,#56,.T.);
#163=COLOUR_RGB('Strong Stone',0.576470588235294,0.54508278019379,0.392156862745098);
#164=COLOUR_RGB('cutting part',0.8,0.8,0.8);
#165=CURVE_STYLE('',#170,POSITIVE_LENGTH_MEASURE(0.18),#216);
#166=CURVE_STYLE('',#171,POSITIVE_LENGTH_MEASURE(0.18),#216);
#167=CURVE_STYLE('',#172,POSITIVE_LENGTH_MEASURE(0.13),#215);
#168=CURVE_STYLE('',#173,POSITIVE_LENGTH_MEASURE(0.13),#215);
#169=CURVE_STYLE('',#174,POSITIVE_LENGTH_MEASURE(0.13),#163);
#170=DRAUGHTING_PRE_DEFINED_CURVE_FONT('continuous');
#171=DRAUGHTING_PRE_DEFINED_CURVE_FONT('continuous');
#172=DRAUGHTING_PRE_DEFINED_CURVE_FONT('continuous');
#173=DRAUGHTING_PRE_DEFINED_CURVE_FONT('continuous');
#174=DRAUGHTING_PRE_DEFINED_CURVE_FONT('continuous');
#175=TRIMMED_CURVE('',#177,(PARAMETER_VALUE(0.)),(PARAMETER_VALUE(180.)),
 .T.,.PARAMETER.);
#176=TRIMMED_CURVE('',#178,(PARAMETER_VALUE(0.)),(PARAMETER_VALUE(180.)),
 .T.,.PARAMETER.);
#177=CIRCLE('',#218,5.);
#178=CIRCLE('',#219,5.);
#179=CIRCLE('',#223,5.);
#180=CIRCLE('',#224,5.);
#181=CIRCLE('',#225,3.);
#182=CIRCLE('',#226,3.);
#183=CIRCLE('',#228,4.512545293216);
#184=CIRCLE('',#230,4.512545293216);
#185=CIRCLE('',#232,2.2);
#186=CIRCLE('',#233,2.2);
#187=CIRCLE('',#235,2.2);
#188=CIRCLE('',#237,2.2);
#189=CIRCLE('',#239,3.);
#190=CIRCLE('',#240,3.);
#191=CIRCLE('',#241,3.);
#192=CIRCLE('',#243,3.);
#193=PRESENTATION_LAYER_ASSIGNMENT('1','Layer 1',(#314,#315,#220,#221,#222,
#33));
#194=PRESENTATION_LAYER_ASSIGNMENT('2','Layer 2',(#175,#176));
#195=STYLED_ITEM('',(#203),#314);
#196=STYLED_ITEM('',(#204),#315);
#197=STYLED_ITEM('',(#205),#175);
#198=STYLED_ITEM('',(#206),#176);
#199=STYLED_ITEM('',(#207),#220);
#200=STYLED_ITEM('',(#208),#221);
#201=STYLED_ITEM('',(#209),#222);
#202=STYLED_ITEM('',(#210),#33);
#203=PRESENTATION_STYLE_ASSIGNMENT((#211));
#204=PRESENTATION_STYLE_ASSIGNMENT((#212));
#205=PRESENTATION_STYLE_ASSIGNMENT((#165));
#206=PRESENTATION_STYLE_ASSIGNMENT((#166));
#207=PRESENTATION_STYLE_ASSIGNMENT((#167));
#208=PRESENTATION_STYLE_ASSIGNMENT((#168));
#209=PRESENTATION_STYLE_ASSIGNMENT((#169));
#210=PRESENTATION_STYLE_ASSIGNMENT((#28));
#211=POINT_STYLE('',#213,POSITIVE_LENGTH_MEASURE(3.),#215);
#212=POINT_STYLE('',#214,POSITIVE_LENGTH_MEASURE(3.),#215);
#213=PRE_DEFINED_POINT_MARKER_SYMBOL('plus');
#214=PRE_DEFINED_POINT_MARKER_SYMBOL('plus');
#215=DRAUGHTING_PRE_DEFINED_COLOUR('yellow');
#216=DRAUGHTING_PRE_DEFINED_COLOUR('blue');
#217=AXIS2_PLACEMENT_3D('',#313,#247,#248);
#218=AXIS2_PLACEMENT_3D('',#316,#249,#250);
#219=AXIS2_PLACEMENT_3D('',#317,#251,#252);
#220=AXIS2_PLACEMENT_3D('MCS',#318,#253,#254);
#221=AXIS2_PLACEMENT_3D('PCS',#319,#255,#256);
#222=AXIS2_PLACEMENT_3D('',#320,#257,#258);
#223=AXIS2_PLACEMENT_3D('',#321,#259,#260);
#224=AXIS2_PLACEMENT_3D('',#324,#261,#262);
#225=AXIS2_PLACEMENT_3D('',#325,#263,#264);
#226=AXIS2_PLACEMENT_3D('',#328,#265,#266);
#227=AXIS2_PLACEMENT_3D('',#329,#267,#268);
#228=AXIS2_PLACEMENT_3D('',#332,#270,#271);
#229=AXIS2_PLACEMENT_3D('',#335,#273,#274);
#230=AXIS2_PLACEMENT_3D('',#336,#275,#276);
#231=AXIS2_PLACEMENT_3D('',#337,#277,#278);
#232=AXIS2_PLACEMENT_3D('',#338,#279,#280);
#233=AXIS2_PLACEMENT_3D('',#341,#281,#282);
#234=AXIS2_PLACEMENT_3D('',#342,#283,#284);
#235=AXIS2_PLACEMENT_3D('',#345,#286,#287);
#236=AXIS2_PLACEMENT_3D('',#348,#289,#290);
#237=AXIS2_PLACEMENT_3D('',#349,#291,#292);
#238=AXIS2_PLACEMENT_3D('',#350,#293,#294);
#239=AXIS2_PLACEMENT_3D('',#351,#295,#296);
#240=AXIS2_PLACEMENT_3D('',#354,#297,#298);
#241=AXIS2_PLACEMENT_3D('',#355,#299,#300);
#242=AXIS2_PLACEMENT_3D('',#356,#301,#302);
#243=AXIS2_PLACEMENT_3D('',#357,#303,#304);
#244=AXIS2_PLACEMENT_3D('',#358,#305,#306);
#245=AXIS2_PLACEMENT_3D('',#361,#309,#310);
#246=AXIS2_PLACEMENT_3D('',#362,#311,#312);
#247=DIRECTION('',(0.,0.,1.));
#248=DIRECTION('',(1.,0.,0.));
#249=DIRECTION('',(0.,0.,-1.));
#250=DIRECTION('',(-1.,0.,0.));
#251=DIRECTION('',(0.,0.,-1.));
#252=DIRECTION('',(1.,0.,0.));
#253=DIRECTION('',(0.,0.,1.));
#254=DIRECTION('',(1.,0.,0.));
#255=DIRECTION('',(0.,0.,1.));
#256=DIRECTION('',(1.,0.,0.));
#257=DIRECTION('',(0.,0.,1.));
#258=DIRECTION('',(1.,0.,0.));
#259=DIRECTION('',(0.,0.,-1.));
#260=DIRECTION('',(1.,0.,0.));
#261=DIRECTION('',(0.,0.,-1.));
#262=DIRECTION('',(-1.,0.,0.));
#263=DIRECTION('',(0.,0.,1.));
#264=DIRECTION('',(1.,0.,0.));
#265=DIRECTION('',(0.,0.,1.));
#266=DIRECTION('',(-1.,0.,0.));
#267=DIRECTION('',(0.,0.,1.));
#268=DIRECTION('',(-1.,0.,0.));
#269=DIRECTION('',(0.121869343405202,0.,0.992546151641315));
#270=DIRECTION('',(0.,0.,1.));
#271=DIRECTION('',(1.,0.,0.));
#272=DIRECTION('',(-0.121869343405202,0.,0.992546151641315));
#273=DIRECTION('',(0.,0.,1.));
#274=DIRECTION('',(-1.,0.,-1.12210876144641E-16));
#275=DIRECTION('',(0.,0.,1.));
#276=DIRECTION('',(-1.,0.,0.));
#277=DIRECTION('',(0.,0.,1.));
#278=DIRECTION('',(-1.,0.,-1.12210876144641E-16));
#279=DIRECTION('',(0.,0.,-1.));
#280=DIRECTION('',(-1.,0.,0.));
#281=DIRECTION('',(0.,0.,-1.));
#282=DIRECTION('',(1.,0.,0.));
#283=DIRECTION('',(0.,0.,1.));
#284=DIRECTION('',(-1.,0.,0.));
#285=DIRECTION('',(0.,0.,1.));
#286=DIRECTION('',(0.,0.,1.));
#287=DIRECTION('',(-1.,0.,0.));
#288=DIRECTION('',(0.,0.,1.));
#289=DIRECTION('',(0.,0.,-1.));
#290=DIRECTION('',(1.,0.,0.));
#291=DIRECTION('',(0.,0.,1.));
#292=DIRECTION('',(1.,0.,0.));
#293=DIRECTION('',(0.,0.,-1.));
#294=DIRECTION('',(1.,0.,0.));
#295=DIRECTION('',(0.,0.,-1.));
#296=DIRECTION('',(-1.,0.,0.));
#297=DIRECTION('',(0.,1.,0.));
#298=DIRECTION('',(0.733333333333383,0.,0.679869268478984));
#299=DIRECTION('',(0.,-1.,0.));
#300=DIRECTION('',(-0.733333333333383,0.,0.679869268478984));
#301=DIRECTION('',(0.,0.,-1.));
#302=DIRECTION('',(1.,0.,0.));
#303=DIRECTION('',(0.,0.,-1.));
#304=DIRECTION('',(1.,0.,0.));
#305=DIRECTION('',(0.,0.,-1.));
#306=DIRECTION('',(1.,0.,0.));
#307=DIRECTION('',(2.458350983099E-14,0.,1.));
#308=DIRECTION('',(-2.458350983099E-14,0.,1.));
#309=DIRECTION('',(0.,0.,-1.));
#310=DIRECTION('',(1.,0.,0.));
#311=DIRECTION('',(0.,0.,-1.));
#312=DIRECTION('',(1.,0.,0.));
#313=CARTESIAN_POINT('',(0.,0.,0.));
#314=CARTESIAN_POINT('',(0.,0.,0.));
#315=CARTESIAN_POINT('',(-5.,-5.,0.));
#316=CARTESIAN_POINT('',(0.,0.,0.));
#317=CARTESIAN_POINT('',(0.,0.,0.));
#318=CARTESIAN_POINT('',(0.,0.,0.));
#319=CARTESIAN_POINT('',(-5.,-5.,0.));
#320=CARTESIAN_POINT('',(0.,0.,0.));
#321=CARTESIAN_POINT('',(0.,0.,0.));
#322=CARTESIAN_POINT('',(5.,0.,0.));
#323=CARTESIAN_POINT('',(-5.,0.,0.));
#324=CARTESIAN_POINT('',(0.,0.,0.));
#325=CARTESIAN_POINT('',(0.,0.,0.));
#326=CARTESIAN_POINT('',(3.,0.,0.));
#327=CARTESIAN_POINT('',(-3.,0.,0.));
#328=CARTESIAN_POINT('',(0.,0.,0.));
#329=CARTESIAN_POINT('',(0.,0.,0.));
#330=CARTESIAN_POINT('',(4.512545293215,0.,-3.97));
#331=CARTESIAN_POINT('',(4.512545293216,0.,-3.97));
#332=CARTESIAN_POINT('',(0.,0.,-3.97));
#333=CARTESIAN_POINT('',(-4.512545293215,0.,-3.97));
#334=CARTESIAN_POINT('',(-4.512545293215,0.,-3.97));
#335=CARTESIAN_POINT('',(0.,0.,-1.985));
#336=CARTESIAN_POINT('',(0.,0.,-3.97));
#337=CARTESIAN_POINT('',(0.,0.,-1.985));
#338=CARTESIAN_POINT('',(0.,0.,-3.97));
#339=CARTESIAN_POINT('',(-2.2,0.,-3.97));
#340=CARTESIAN_POINT('',(2.2,0.,-3.97));
#341=CARTESIAN_POINT('',(0.,0.,-3.97));
#342=CARTESIAN_POINT('',(0.,0.,-3.97));
#343=CARTESIAN_POINT('',(-2.2,0.,-3.159607805437));
#344=CARTESIAN_POINT('',(-2.2,0.,-3.159607805437));
#345=CARTESIAN_POINT('',(0.,0.,-3.159607805437));
#346=CARTESIAN_POINT('',(2.2,0.,-3.159607805437));
#347=CARTESIAN_POINT('',(2.2,0.,-3.159607805437));
#348=CARTESIAN_POINT('',(0.,0.,0.1985));
#349=CARTESIAN_POINT('',(0.,0.,-3.159607805437));
#350=CARTESIAN_POINT('',(0.,0.,0.1985));
#351=CARTESIAN_POINT('',(0.,0.,-1.12));
#352=CARTESIAN_POINT('',(-3.,0.,-1.12));
#353=CARTESIAN_POINT('',(3.,0.,-1.12));
#354=CARTESIAN_POINT('',(-5.2,0.,-3.159607805437));
#355=CARTESIAN_POINT('',(5.2,0.,-3.159607805437));
#356=CARTESIAN_POINT('',(0.,0.,-3.159607805437));
#357=CARTESIAN_POINT('',(0.,0.,-1.12));
#358=CARTESIAN_POINT('',(0.,0.,-3.159607805437));
#359=CARTESIAN_POINT('',(3.,0.,0.));
#360=CARTESIAN_POINT('',(-3.,0.,0.));
#361=CARTESIAN_POINT('',(0.,0.,0.1985));
#362=CARTESIAN_POINT('',(0.,0.,0.1985));
#363=MECHANICAL_DESIGN_GEOMETRIC_PRESENTATION_REPRESENTATION('',(#195,#196,
#197,#198,#199,#200,#201,#202),#364);
#364=(
GEOMETRIC_REPRESENTATION_CONTEXT(3)
GLOBAL_UNCERTAINTY_ASSIGNED_CONTEXT((#365))
GLOBAL_UNIT_ASSIGNED_CONTEXT((#371,#367,#366))
REPRESENTATION_CONTEXT('RCGT10T3M0-AZ','TOP_LEVEL_ASSEMBLY_PART')
);
#365=UNCERTAINTY_MEASURE_WITH_UNIT(LENGTH_MEASURE(2.E-5),#371,
'DISTANCE_ACCURACY_VALUE','Maximum Tolerance applied to model');
#366=(
NAMED_UNIT(*)
SI_UNIT($,.STERADIAN.)
SOLID_ANGLE_UNIT()
);
#367=(
CONVERSION_BASED_UNIT('DEGREE',#369)
NAMED_UNIT(#368)
PLANE_ANGLE_UNIT()
);
#368=DIMENSIONAL_EXPONENTS(0.,0.,0.,0.,0.,0.,0.);
#369=PLANE_ANGLE_MEASURE_WITH_UNIT(PLANE_ANGLE_MEASURE(0.0174532925),#370);
#370=(
NAMED_UNIT(*)
PLANE_ANGLE_UNIT()
SI_UNIT($,.RADIAN.)
);
#371=(
LENGTH_UNIT()
NAMED_UNIT(*)
SI_UNIT(.MILLI.,.METRE.)
);
ENDSEC;
END-ISO-10303-21;
