ISO-10303-21;
HEADER;
FILE_DESCRIPTION((''),'2;1');
FILE_NAME('CC09T300L','2021-04-13T13:10:24',('tlyac05'),('PTC Japan'),
'CREO PARAMETRIC BY PTC INC, 2018500','CREO PARAMETRIC BY PTC INC, 2018500','');
FILE_SCHEMA(('AUTOMOTIVE_DESIGN { 1 0 10303 214 1 1 1 1 }'));
ENDSEC;
DATA;
#23=DIRECTION('',(-1.736481776669E-1,-9.848077530122E-1,0.E0));
#24=VECTOR('',#23,9.671938478212E0);
#25=CARTESIAN_POINT('',(5.675726484730E0,4.7625E0,2.335699064791E-14));
#26=LINE('',#25,#24);
#27=DRAUGHTING_PRE_DEFINED_CURVE_FONT('continuous');
#28=CURVE_STYLE('',#27,POSITIVE_LENGTH_MEASURE(2.E-2),#11);
#29=PRESENTATION_STYLE_ASSIGNMENT((#28));
#30=STYLED_ITEM('',(#29),#26);
#31=DIRECTION('',(-1.E0,0.E0,0.E0));
#32=VECTOR('',#31,9.671938478212E0);
#33=CARTESIAN_POINT('',(3.996211993482E0,-4.7625E0,1.921757417345E-14));
#34=LINE('',#33,#32);
#35=CURVE_STYLE('',#27,POSITIVE_LENGTH_MEASURE(2.E-2),#11);
#36=PRESENTATION_STYLE_ASSIGNMENT((#35));
#37=STYLED_ITEM('',(#36),#34);
#38=DIRECTION('',(1.736481776669E-1,9.848077530122E-1,0.E0));
#39=VECTOR('',#38,9.671938478212E0);
#40=CARTESIAN_POINT('',(-5.675726484730E0,-4.7625E0,2.335699064791E-14));
#41=LINE('',#40,#39);
#42=CURVE_STYLE('',#27,POSITIVE_LENGTH_MEASURE(2.E-2),#11);
#43=PRESENTATION_STYLE_ASSIGNMENT((#42));
#44=STYLED_ITEM('',(#43),#41);
#45=DIRECTION('',(1.E0,0.E0,0.E0));
#46=VECTOR('',#45,9.671938478212E0);
#47=CARTESIAN_POINT('',(-3.996211993482E0,4.7625E0,1.921757417345E-14));
#48=LINE('',#47,#46);
#49=CURVE_STYLE('',#27,POSITIVE_LENGTH_MEASURE(2.E-2),#11);
#50=PRESENTATION_STYLE_ASSIGNMENT((#49));
#51=STYLED_ITEM('',(#50),#48);
#52=CARTESIAN_POINT('',(0.E0,0.E0,0.E0));
#53=DIRECTION('',(0.E0,0.E0,1.E0));
#54=DIRECTION('',(-7.660444431190E-1,-6.427876096866E-1,0.E0));
#55=AXIS2_PLACEMENT_3D('',#52,#53,#54);
#57=CURVE_STYLE('',#27,POSITIVE_LENGTH_MEASURE(2.E-2),#11);
#58=PRESENTATION_STYLE_ASSIGNMENT((#57));
#59=STYLED_ITEM('',(#58),#56);
#60=CARTESIAN_POINT('',(0.E0,0.E0,0.E0));
#61=DIRECTION('',(0.E0,0.E0,1.E0));
#62=DIRECTION('',(7.660444431190E-1,6.427876096866E-1,0.E0));
#63=AXIS2_PLACEMENT_3D('',#60,#61,#62);
#65=CURVE_STYLE('',#27,POSITIVE_LENGTH_MEASURE(2.E-2),#11);
#66=PRESENTATION_STYLE_ASSIGNMENT((#65));
#67=STYLED_ITEM('',(#66),#64);
#68=DIRECTION('',(1.017299982538E-1,-1.212370908936E-1,9.873968681573E-1));
#69=VECTOR('',#68,4.020673072833E0);
#70=CARTESIAN_POINT('',(3.587188928803E0,-4.275045293215E0,-3.97E0));
#71=LINE('',#70,#69);
#72=CURVE_STYLE('',#27,POSITIVE_LENGTH_MEASURE(2.E-2),#11);
#73=PRESENTATION_STYLE_ASSIGNMENT((#72));
#74=STYLED_ITEM('',(#73),#71);
#75=DIRECTION('',(1.437302061858E-1,1.206039629995E-1,9.822404552545E-1));
#76=VECTOR('',#75,4.041780175885E0);
#77=CARTESIAN_POINT('',(5.094800586692E0,4.275045293215E0,-3.97E0));
#78=LINE('',#77,#76);
#79=CURVE_STYLE('',#27,POSITIVE_LENGTH_MEASURE(2.E-2),#11);
#80=PRESENTATION_STYLE_ASSIGNMENT((#79));
#81=STYLED_ITEM('',(#80),#78);
#82=DIRECTION('',(-1.017299982538E-1,1.212370908936E-1,9.873968681573E-1));
#83=VECTOR('',#82,4.020673072833E0);
#84=CARTESIAN_POINT('',(-3.587188928803E0,4.275045293215E0,-3.97E0));
#85=LINE('',#84,#83);
#86=CURVE_STYLE('',#27,POSITIVE_LENGTH_MEASURE(2.E-2),#11);
#87=PRESENTATION_STYLE_ASSIGNMENT((#86));
#88=STYLED_ITEM('',(#87),#85);
#89=DIRECTION('',(-1.437302061858E-1,-1.206039629995E-1,9.822404552545E-1));
#90=VECTOR('',#89,4.041780175885E0);
#91=CARTESIAN_POINT('',(-5.094800586692E0,-4.275045293215E0,-3.97E0));
#92=LINE('',#91,#90);
#93=CURVE_STYLE('',#27,POSITIVE_LENGTH_MEASURE(2.E-2),#11);
#94=PRESENTATION_STYLE_ASSIGNMENT((#93));
#95=STYLED_ITEM('',(#94),#92);
#96=DIRECTION('',(1.736481776669E-1,9.848077530122E-1,0.E0));
#97=VECTOR('',#96,8.681989515496E0);
#98=CARTESIAN_POINT('',(3.587188928803E0,-4.275045293215E0,-3.97E0));
#99=LINE('',#98,#97);
#100=CURVE_STYLE('',#27,POSITIVE_LENGTH_MEASURE(2.E-2),#11);
#101=PRESENTATION_STYLE_ASSIGNMENT((#100));
#102=STYLED_ITEM('',(#101),#99);
#103=DIRECTION('',(-1.E0,0.E0,0.E0));
#104=VECTOR('',#103,8.681989515495E0);
#105=CARTESIAN_POINT('',(5.094800586692E0,4.275045293215E0,-3.97E0));
#106=LINE('',#105,#104);
#107=CURVE_STYLE('',#27,POSITIVE_LENGTH_MEASURE(2.E-2),#11);
#108=PRESENTATION_STYLE_ASSIGNMENT((#107));
#109=STYLED_ITEM('',(#108),#106);
#110=DIRECTION('',(-1.736481776669E-1,-9.848077530122E-1,0.E0));
#111=VECTOR('',#110,8.681989515496E0);
#112=CARTESIAN_POINT('',(-3.587188928803E0,4.275045293215E0,-3.97E0));
#113=LINE('',#112,#111);
#114=CURVE_STYLE('',#27,POSITIVE_LENGTH_MEASURE(2.E-2),#11);
#115=PRESENTATION_STYLE_ASSIGNMENT((#114));
#116=STYLED_ITEM('',(#115),#113);
#117=DIRECTION('',(1.E0,0.E0,0.E0));
#118=VECTOR('',#117,8.681989515495E0);
#119=CARTESIAN_POINT('',(-5.094800586692E0,-4.275045293215E0,-3.97E0));
#120=LINE('',#119,#118);
#121=CURVE_STYLE('',#27,POSITIVE_LENGTH_MEASURE(2.E-2),#11);
#122=PRESENTATION_STYLE_ASSIGNMENT((#121));
#123=STYLED_ITEM('',(#122),#120);
#124=CARTESIAN_POINT('',(0.E0,0.E0,-3.97E0));
#125=DIRECTION('',(0.E0,0.E0,-1.E0));
#126=DIRECTION('',(7.660444431190E-1,6.427876096865E-1,0.E0));
#127=AXIS2_PLACEMENT_3D('',#124,#125,#126);
#129=CURVE_STYLE('',#27,POSITIVE_LENGTH_MEASURE(2.E-2),#11);
#130=PRESENTATION_STYLE_ASSIGNMENT((#129));
#131=STYLED_ITEM('',(#130),#128);
#132=CARTESIAN_POINT('',(0.E0,0.E0,-3.97E0));
#133=DIRECTION('',(0.E0,0.E0,-1.E0));
#134=DIRECTION('',(-7.660444431190E-1,-6.427876096865E-1,0.E0));
#135=AXIS2_PLACEMENT_3D('',#132,#133,#134);
#137=CURVE_STYLE('',#27,POSITIVE_LENGTH_MEASURE(2.E-2),#11);
#138=PRESENTATION_STYLE_ASSIGNMENT((#137));
#139=STYLED_ITEM('',(#138),#136);
#140=DIRECTION('',(0.E0,0.E0,-1.E0));
#141=VECTOR('',#140,1.130392194563E0);
#142=CARTESIAN_POINT('',(-1.685297774862E0,-1.414132741310E0,
-2.839607805437E0));
#143=LINE('',#142,#141);
#144=CURVE_STYLE('',#27,POSITIVE_LENGTH_MEASURE(2.E-2),#11);
#145=PRESENTATION_STYLE_ASSIGNMENT((#144));
#146=STYLED_ITEM('',(#145),#143);
#147=DIRECTION('',(4.066131510865E-14,-4.812571111893E-14,-1.E0));
#148=VECTOR('',#147,1.130392194563E0);
#149=CARTESIAN_POINT('',(1.685297774862E0,1.414132741310E0,-2.839607805437E0));
#150=LINE('',#149,#148);
#151=CURVE_STYLE('',#27,POSITIVE_LENGTH_MEASURE(2.E-2),#11);
#152=PRESENTATION_STYLE_ASSIGNMENT((#151));
#153=STYLED_ITEM('',(#152),#150);
#154=CARTESIAN_POINT('',(3.983431104219E0,3.342495570370E0,-2.839607805437E0));
#155=DIRECTION('',(6.427876096865E-1,-7.660444431190E-1,0.E0));
#156=DIRECTION('',(-5.617659249539E-1,-4.713775804368E-1,6.798692684790E-1));
#157=AXIS2_PLACEMENT_3D('',#154,#155,#156);
#159=CURVE_STYLE('',#27,POSITIVE_LENGTH_MEASURE(2.E-2),#11);
#160=PRESENTATION_STYLE_ASSIGNMENT((#159));
#161=STYLED_ITEM('',(#160),#158);
#162=CARTESIAN_POINT('',(0.E0,0.E0,-2.839607805437E0));
#163=DIRECTION('',(0.E0,0.E0,1.E0));
#164=DIRECTION('',(7.660444431191E-1,6.427876096864E-1,0.E0));
#165=AXIS2_PLACEMENT_3D('',#162,#163,#164);
#167=CURVE_STYLE('',#27,POSITIVE_LENGTH_MEASURE(2.E-2),#11);
#168=PRESENTATION_STYLE_ASSIGNMENT((#167));
#169=STYLED_ITEM('',(#168),#166);
#170=CARTESIAN_POINT('',(0.E0,0.E0,-7.999999999999E-1));
#171=DIRECTION('',(0.E0,0.E0,-1.E0));
#172=DIRECTION('',(-7.660444431190E-1,-6.427876096865E-1,0.E0));
#173=AXIS2_PLACEMENT_3D('',#170,#171,#172);
#175=CURVE_STYLE('',#27,POSITIVE_LENGTH_MEASURE(2.E-2),#11);
#176=PRESENTATION_STYLE_ASSIGNMENT((#175));
#177=STYLED_ITEM('',(#176),#174);
#178=CARTESIAN_POINT('',(0.E0,0.E0,-7.999999999999E-1));
#179=DIRECTION('',(0.E0,0.E0,-1.E0));
#180=DIRECTION('',(7.660444431189E-1,6.427876096866E-1,0.E0));
#181=AXIS2_PLACEMENT_3D('',#178,#179,#180);
#183=CURVE_STYLE('',#27,POSITIVE_LENGTH_MEASURE(2.E-2),#11);
#184=PRESENTATION_STYLE_ASSIGNMENT((#183));
#185=STYLED_ITEM('',(#184),#182);
#186=CARTESIAN_POINT('',(-3.983431104219E0,-3.342495570370E0,
-2.839607805437E0));
#187=DIRECTION('',(-6.427876096865E-1,7.660444431190E-1,0.E0));
#188=DIRECTION('',(5.617659249540E-1,4.713775804368E-1,6.798692684790E-1));
#189=AXIS2_PLACEMENT_3D('',#186,#187,#188);
#191=CURVE_STYLE('',#27,POSITIVE_LENGTH_MEASURE(2.E-2),#11);
#192=PRESENTATION_STYLE_ASSIGNMENT((#191));
#193=STYLED_ITEM('',(#192),#190);
#194=CARTESIAN_POINT('',(0.E0,0.E0,-2.839607805437E0));
#195=DIRECTION('',(0.E0,0.E0,1.E0));
#196=DIRECTION('',(-7.660444431190E-1,-6.427876096865E-1,0.E0));
#197=AXIS2_PLACEMENT_3D('',#194,#195,#196);
#199=CURVE_STYLE('',#27,POSITIVE_LENGTH_MEASURE(2.E-2),#11);
#200=PRESENTATION_STYLE_ASSIGNMENT((#199));
#201=STYLED_ITEM('',(#200),#198);
#202=DIRECTION('',(-2.109423746788E-14,8.548717289614E-14,-1.E0));
#203=VECTOR('',#202,8.E-1);
#204=CARTESIAN_POINT('',(-2.298133329357E0,-1.928362829060E0,0.E0));
#205=LINE('',#204,#203);
#206=CURVE_STYLE('',#27,POSITIVE_LENGTH_MEASURE(2.E-2),#11);
#207=PRESENTATION_STYLE_ASSIGNMENT((#206));
#208=STYLED_ITEM('',(#207),#205);
#209=DIRECTION('',(5.939693181745E-14,-1.318389841742E-13,-1.E0));
#210=VECTOR('',#209,8.E-1);
#211=CARTESIAN_POINT('',(2.298133329357E0,1.928362829060E0,0.E0));
#212=LINE('',#211,#210);
#213=CURVE_STYLE('',#27,POSITIVE_LENGTH_MEASURE(2.E-2),#11);
#214=PRESENTATION_STYLE_ASSIGNMENT((#213));
#215=STYLED_ITEM('',(#214),#212);
#216=CARTESIAN_POINT('',(5.675726484730E0,4.7625E0,2.335699064791E-14));
#217=CARTESIAN_POINT('',(3.996211993482E0,-4.7625E0,1.921757417345E-14));
#218=VERTEX_POINT('',#216);
#219=VERTEX_POINT('',#217);
#220=CARTESIAN_POINT('',(-5.675726484730E0,-4.7625E0,2.335699064791E-14));
#221=VERTEX_POINT('',#220);
#222=CARTESIAN_POINT('',(-3.996211993482E0,4.7625E0,1.921757417345E-14));
#223=VERTEX_POINT('',#222);
#224=CARTESIAN_POINT('',(-2.298133329357E0,-1.928362829060E0,0.E0));
#225=CARTESIAN_POINT('',(2.298133329357E0,1.928362829060E0,0.E0));
#226=VERTEX_POINT('',#224);
#227=VERTEX_POINT('',#225);
#228=CARTESIAN_POINT('',(5.094800586692E0,4.275045293215E0,-3.97E0));
#229=VERTEX_POINT('',#228);
#230=CARTESIAN_POINT('',(3.587188928803E0,-4.275045293215E0,-3.97E0));
#231=VERTEX_POINT('',#230);
#232=CARTESIAN_POINT('',(-3.587188928803E0,4.275045293215E0,-3.97E0));
#233=VERTEX_POINT('',#232);
#234=CARTESIAN_POINT('',(-5.094800586692E0,-4.275045293215E0,-3.97E0));
#235=VERTEX_POINT('',#234);
#236=CARTESIAN_POINT('',(1.685297774862E0,1.414132741310E0,-3.97E0));
#237=CARTESIAN_POINT('',(-1.685297774862E0,-1.414132741310E0,-3.97E0));
#238=VERTEX_POINT('',#236);
#239=VERTEX_POINT('',#237);
#240=CARTESIAN_POINT('',(1.685297774862E0,1.414132741310E0,-2.839607805437E0));
#241=VERTEX_POINT('',#240);
#242=CARTESIAN_POINT('',(-1.685297774862E0,-1.414132741310E0,
-2.839607805437E0));
#243=VERTEX_POINT('',#242);
#244=CARTESIAN_POINT('',(2.298133329357E0,1.928362829060E0,-7.999999999999E-1));
#245=VERTEX_POINT('',#244);
#246=CARTESIAN_POINT('',(-2.298133329357E0,-1.928362829059E0,
-7.999999999999E-1));
#247=VERTEX_POINT('',#246);
#248=CARTESIAN_POINT('',(0.E0,0.E0,0.E0));
#249=DIRECTION('',(0.E0,0.E0,1.E0));
#250=DIRECTION('',(6.427876096865E-1,-7.660444431190E-1,0.E0));
#251=AXIS2_PLACEMENT_3D('',#248,#249,#250);
#252=PLANE('',#251);
#254=ORIENTED_EDGE('',*,*,#253,.T.);
#256=ORIENTED_EDGE('',*,*,#255,.T.);
#258=ORIENTED_EDGE('',*,*,#257,.T.);
#260=ORIENTED_EDGE('',*,*,#259,.T.);
#261=EDGE_LOOP('',(#254,#256,#258,#260));
#262=FACE_OUTER_BOUND('',#261,.F.);
#264=ORIENTED_EDGE('',*,*,#263,.T.);
#266=ORIENTED_EDGE('',*,*,#265,.T.);
#267=EDGE_LOOP('',(#264,#266));
#268=FACE_BOUND('',#267,.F.);
#270=CARTESIAN_POINT('',(3.801725200950E0,-5.865489410640E0,0.E0));
#271=DIRECTION('',(9.774671453588E-1,-1.723538304828E-1,-1.218693434051E-1));
#272=DIRECTION('',(1.736481776669E-1,9.848077530122E-1,0.E0));
#273=AXIS2_PLACEMENT_3D('',#270,#271,#272);
#274=PLANE('',#273);
#275=ORIENTED_EDGE('',*,*,#253,.F.);
#277=ORIENTED_EDGE('',*,*,#276,.F.);
#279=ORIENTED_EDGE('',*,*,#278,.F.);
#281=ORIENTED_EDGE('',*,*,#280,.T.);
#282=EDGE_LOOP('',(#275,#277,#279,#281));
#283=FACE_OUTER_BOUND('',#282,.F.);
#285=CARTESIAN_POINT('',(6.795731284922E0,4.7625E0,0.E0));
#286=DIRECTION('',(0.E0,9.925461516413E-1,-1.218693434051E-1));
#287=DIRECTION('',(-1.E0,0.E0,0.E0));
#288=AXIS2_PLACEMENT_3D('',#285,#286,#287);
#289=PLANE('',#288);
#290=ORIENTED_EDGE('',*,*,#259,.F.);
#292=ORIENTED_EDGE('',*,*,#291,.F.);
#294=ORIENTED_EDGE('',*,*,#293,.F.);
#295=ORIENTED_EDGE('',*,*,#276,.T.);
#296=EDGE_LOOP('',(#290,#292,#294,#295));
#297=FACE_OUTER_BOUND('',#296,.F.);
#299=CARTESIAN_POINT('',(-3.801725200950E0,5.865489410640E0,0.E0));
#300=DIRECTION('',(-9.774671453588E-1,1.723538304828E-1,-1.218693434051E-1));
#301=DIRECTION('',(-1.736481776669E-1,-9.848077530122E-1,0.E0));
#302=AXIS2_PLACEMENT_3D('',#299,#300,#301);
#303=PLANE('',#302);
#304=ORIENTED_EDGE('',*,*,#257,.F.);
#306=ORIENTED_EDGE('',*,*,#305,.F.);
#308=ORIENTED_EDGE('',*,*,#307,.F.);
#309=ORIENTED_EDGE('',*,*,#291,.T.);
#310=EDGE_LOOP('',(#304,#306,#308,#309));
#311=FACE_OUTER_BOUND('',#310,.F.);
#313=CARTESIAN_POINT('',(-6.795731284922E0,-4.7625E0,0.E0));
#314=DIRECTION('',(0.E0,-9.925461516413E-1,-1.218693434051E-1));
#315=DIRECTION('',(1.E0,0.E0,0.E0));
#316=AXIS2_PLACEMENT_3D('',#313,#314,#315);
#317=PLANE('',#316);
#318=ORIENTED_EDGE('',*,*,#255,.F.);
#319=ORIENTED_EDGE('',*,*,#280,.F.);
#321=ORIENTED_EDGE('',*,*,#320,.F.);
#322=ORIENTED_EDGE('',*,*,#305,.T.);
#323=EDGE_LOOP('',(#318,#319,#321,#322));
#324=FACE_OUTER_BOUND('',#323,.F.);
#326=CARTESIAN_POINT('',(0.E0,0.E0,-3.97E0));
#327=DIRECTION('',(0.E0,0.E0,1.E0));
#328=DIRECTION('',(6.427876096865E-1,-7.660444431190E-1,0.E0));
#329=AXIS2_PLACEMENT_3D('',#326,#327,#328);
#330=PLANE('',#329);
#331=ORIENTED_EDGE('',*,*,#278,.T.);
#332=ORIENTED_EDGE('',*,*,#293,.T.);
#333=ORIENTED_EDGE('',*,*,#307,.T.);
#334=ORIENTED_EDGE('',*,*,#320,.T.);
#335=EDGE_LOOP('',(#331,#332,#333,#334));
#336=FACE_OUTER_BOUND('',#335,.F.);
#338=ORIENTED_EDGE('',*,*,#337,.T.);
#340=ORIENTED_EDGE('',*,*,#339,.T.);
#341=EDGE_LOOP('',(#338,#340));
#342=FACE_BOUND('',#341,.F.);
#344=CARTESIAN_POINT('',(0.E0,0.E0,1.985E-1));
#345=DIRECTION('',(0.E0,0.E0,-1.E0));
#346=DIRECTION('',(-7.660444431190E-1,-6.427876096865E-1,0.E0));
#347=AXIS2_PLACEMENT_3D('',#344,#345,#346);
#348=CYLINDRICAL_SURFACE('',#347,2.2E0);
#349=ORIENTED_EDGE('',*,*,#337,.F.);
#351=ORIENTED_EDGE('',*,*,#350,.F.);
#353=ORIENTED_EDGE('',*,*,#352,.F.);
#355=ORIENTED_EDGE('',*,*,#354,.T.);
#356=EDGE_LOOP('',(#349,#351,#353,#355));
#357=FACE_OUTER_BOUND('',#356,.F.);
#359=CARTESIAN_POINT('',(0.E0,0.E0,1.985E-1));
#360=DIRECTION('',(0.E0,0.E0,-1.E0));
#361=DIRECTION('',(-7.660444431190E-1,-6.427876096865E-1,0.E0));
#362=AXIS2_PLACEMENT_3D('',#359,#360,#361);
#363=CYLINDRICAL_SURFACE('',#362,2.2E0);
#364=ORIENTED_EDGE('',*,*,#339,.F.);
#365=ORIENTED_EDGE('',*,*,#354,.F.);
#367=ORIENTED_EDGE('',*,*,#366,.F.);
#368=ORIENTED_EDGE('',*,*,#350,.T.);
#369=EDGE_LOOP('',(#364,#365,#367,#368));
#370=FACE_OUTER_BOUND('',#369,.F.);
#372=CARTESIAN_POINT('',(0.E0,0.E0,-2.839607805437E0));
#373=DIRECTION('',(0.E0,0.E0,-1.E0));
#374=DIRECTION('',(-7.660444431190E-1,-6.427876096865E-1,0.E0));
#375=AXIS2_PLACEMENT_3D('',#372,#373,#374);
#376=TOROIDAL_SURFACE('',#375,5.2E0,3.E0);
#378=ORIENTED_EDGE('',*,*,#377,.T.);
#379=ORIENTED_EDGE('',*,*,#366,.T.);
#381=ORIENTED_EDGE('',*,*,#380,.F.);
#383=ORIENTED_EDGE('',*,*,#382,.T.);
#384=EDGE_LOOP('',(#378,#379,#381,#383));
#385=FACE_OUTER_BOUND('',#384,.F.);
#387=CARTESIAN_POINT('',(0.E0,0.E0,-2.839607805437E0));
#388=DIRECTION('',(0.E0,0.E0,-1.E0));
#389=DIRECTION('',(-7.660444431190E-1,-6.427876096865E-1,0.E0));
#390=AXIS2_PLACEMENT_3D('',#387,#388,#389);
#391=TOROIDAL_SURFACE('',#390,5.2E0,3.E0);
#392=ORIENTED_EDGE('',*,*,#377,.F.);
#394=ORIENTED_EDGE('',*,*,#393,.T.);
#395=ORIENTED_EDGE('',*,*,#380,.T.);
#396=ORIENTED_EDGE('',*,*,#352,.T.);
#397=EDGE_LOOP('',(#392,#394,#395,#396));
#398=FACE_OUTER_BOUND('',#397,.F.);
#400=CARTESIAN_POINT('',(0.E0,0.E0,1.985E-1));
#401=DIRECTION('',(0.E0,0.E0,-1.E0));
#402=DIRECTION('',(-7.660444431190E-1,-6.427876096865E-1,0.E0));
#403=AXIS2_PLACEMENT_3D('',#400,#401,#402);
#404=CYLINDRICAL_SURFACE('',#403,3.E0);
#406=ORIENTED_EDGE('',*,*,#405,.F.);
#407=ORIENTED_EDGE('',*,*,#263,.F.);
#409=ORIENTED_EDGE('',*,*,#408,.T.);
#410=ORIENTED_EDGE('',*,*,#393,.F.);
#411=EDGE_LOOP('',(#406,#407,#409,#410));
#412=FACE_OUTER_BOUND('',#411,.F.);
#414=CARTESIAN_POINT('',(0.E0,0.E0,1.985E-1));
#415=DIRECTION('',(0.E0,0.E0,-1.E0));
#416=DIRECTION('',(-7.660444431190E-1,-6.427876096865E-1,0.E0));
#417=AXIS2_PLACEMENT_3D('',#414,#415,#416);
#418=CYLINDRICAL_SURFACE('',#417,3.E0);
#419=ORIENTED_EDGE('',*,*,#405,.T.);
#420=ORIENTED_EDGE('',*,*,#382,.F.);
#421=ORIENTED_EDGE('',*,*,#408,.F.);
#422=ORIENTED_EDGE('',*,*,#265,.F.);
#423=EDGE_LOOP('',(#419,#420,#421,#422));
#424=FACE_OUTER_BOUND('',#423,.F.);
#426=CLOSED_SHELL('',(#269,#284,#298,#312,#325,#343,#358,#371,#386,#399,#413,
#425));
#427=MANIFOLD_SOLID_BREP('',#426);
#428=FILL_AREA_STYLE_COLOUR('',#11);
#429=FILL_AREA_STYLE('',(#428));
#430=SURFACE_STYLE_FILL_AREA(#429);
#431=SURFACE_SIDE_STYLE('',(#430));
#432=SURFACE_STYLE_USAGE(.BOTH.,#431);
#433=PRESENTATION_STYLE_ASSIGNMENT((#432));
#22=STYLED_ITEM('',(#433),#427);
#434=CARTESIAN_POINT('',(0.E0,0.E0,0.E0));
#435=DIRECTION('',(0.E0,0.E0,1.E0));
#436=DIRECTION('',(1.E0,0.E0,0.E0));
#437=AXIS2_PLACEMENT_3D('MCS',#434,#435,#436);
#438=CURVE_STYLE('',#27,POSITIVE_LENGTH_MEASURE(2.E-2),#20);
#439=PRESENTATION_STYLE_ASSIGNMENT((#438));
#440=STYLED_ITEM('',(#439),#437);
#441=DIRECTION('',(-1.736481776669E-1,-9.848077530122E-1,0.E0));
#442=VECTOR('',#441,9.671938478212E0);
#443=CARTESIAN_POINT('',(5.675726484730E0,4.7625E0,0.E0));
#444=LINE('',#443,#442);
#446=CURVE_STYLE('',#27,POSITIVE_LENGTH_MEASURE(2.E-2),#1);
#447=PRESENTATION_STYLE_ASSIGNMENT((#446));
#448=STYLED_ITEM('',(#447),#445);
#450=DIRECTION('',(-1.E0,0.E0,0.E0));
#451=VECTOR('',#450,9.671938478212E0);
#452=CARTESIAN_POINT('',(3.996211993482E0,-4.7625E0,0.E0));
#453=LINE('',#452,#451);
#455=CURVE_STYLE('',#27,POSITIVE_LENGTH_MEASURE(2.E-2),#1);
#456=PRESENTATION_STYLE_ASSIGNMENT((#455));
#457=STYLED_ITEM('',(#456),#454);
#459=DIRECTION('',(1.736481776669E-1,9.848077530122E-1,0.E0));
#460=VECTOR('',#459,9.671938478212E0);
#461=CARTESIAN_POINT('',(-5.675726484730E0,-4.7625E0,0.E0));
#462=LINE('',#461,#460);
#464=CURVE_STYLE('',#27,POSITIVE_LENGTH_MEASURE(2.E-2),#1);
#465=PRESENTATION_STYLE_ASSIGNMENT((#464));
#466=STYLED_ITEM('',(#465),#463);
#468=DIRECTION('',(1.E0,0.E0,0.E0));
#469=VECTOR('',#468,9.671938478212E0);
#470=CARTESIAN_POINT('',(-3.996211993482E0,4.7625E0,0.E0));
#471=LINE('',#470,#469);
#473=CURVE_STYLE('',#27,POSITIVE_LENGTH_MEASURE(2.E-2),#1);
#474=PRESENTATION_STYLE_ASSIGNMENT((#473));
#475=STYLED_ITEM('',(#474),#472);
#479=CARTESIAN_POINT('',(-5.675726484729E0,-4.7625E0,0.E0));
#480=DIRECTION('',(0.E0,0.E0,1.E0));
#481=DIRECTION('',(1.E0,0.E0,0.E0));
#482=AXIS2_PLACEMENT_3D('PCS',#479,#480,#481);
#483=CURVE_STYLE('',#27,POSITIVE_LENGTH_MEASURE(2.E-2),#20);
#484=PRESENTATION_STYLE_ASSIGNMENT((#483));
#485=STYLED_ITEM('',(#484),#482);
#486=PRESENTATION_LAYER_ASSIGNMENT('02_ALL_CSYS','',(#437));
#487=PRESENTATION_LAYER_ASSIGNMENT('05___PRT_ALL_DTM_CSYS','',(#437));
#488=PRESENTATION_LAYER_ASSIGNMENT('07_ALL_FEATURES','',(#437));
#489=PRESENTATION_LAYER_ASSIGNMENT('ALL_CSYS','',(#482));
#490=PRESENTATION_LAYER_ASSIGNMENT('ALL_CURVES','',(#477));
#491=PRESENTATION_LAYER_ASSIGNMENT('ALL_FEATURES','',(#437,#477,#482));
#494=PLANE_ANGLE_MEASURE_WITH_UNIT(PLANE_ANGLE_MEASURE(1.745329251994E-2),#493);
#495=(CONVERSION_BASED_UNIT('DEGREE',#494)NAMED_UNIT(*)PLANE_ANGLE_UNIT());
#497=UNCERTAINTY_MEASURE_WITH_UNIT(LENGTH_MEASURE(1.E-3),#492,
'distance_accuracy_value',
'Maximum model space distance between geometric entities at asserted connectivities');
#478=GEOMETRIC_CURVE_SET('',(#477));
#502=CARTESIAN_POINT('',(0.E0,0.E0,0.E0));
#503=DIRECTION('',(0.E0,0.E0,1.E0));
#504=DIRECTION('',(1.E0,0.E0,0.E0));
#507=SHAPE_REPRESENTATION_RELATIONSHIP('','',#506,#499);
#508=SHAPE_REPRESENTATION_RELATIONSHIP('','',#506,#500);
#509=CONSTRUCTIVE_GEOMETRY_REPRESENTATION_RELATIONSHIP('','',#506,#501);
#510=MECHANICAL_DESIGN_GEOMETRIC_PRESENTATION_REPRESENTATION('',(#30,#37,#44,
#51,#59,#67,#74,#81,#88,#95,#102,#109,#116,#123,#131,#139,#146,#153,#161,#169,
#177,#185,#193,#201,#208,#215,#22,#440,#448,#457,#466,#475,#485),#498);
#511=APPLICATION_CONTEXT('automotive_design');
#512=APPLICATION_PROTOCOL_DEFINITION('international standard',
'automotive_design',2001,#511);
#513=PRODUCT_DEFINITION_CONTEXT('part definition',#511,'design');
#514=PRODUCT_CONTEXT('',#511,'mechanical');
#515=PRODUCT('CC09T300L','CC09T300L','NOT SPECIFIED',(#514));
#516=PRODUCT_DEFINITION_FORMATION('1','LAST_VERSION',#515);
#524=DERIVED_UNIT_ELEMENT(#523,2.E0);
#525=DERIVED_UNIT((#524));
#526=MEASURE_REPRESENTATION_ITEM('surface area measure',AREA_MEASURE(
3.352378200132E2),#525);
#531=DERIVED_UNIT_ELEMENT(#530,3.E0);
#532=DERIVED_UNIT((#531));
#533=MEASURE_REPRESENTATION_ITEM('volume measure',VOLUME_MEASURE(
2.509452464440E2),#532);
#537=CARTESIAN_POINT('centre point',(1.592239069409E-13,1.336734727220E-13,
-1.979379443592E0));
#542=DERIVED_UNIT_ELEMENT(#541,2.E0);
#543=DERIVED_UNIT((#542));
#544=MEASURE_REPRESENTATION_ITEM('surface area measure',AREA_MEASURE(
3.352378200132E2),#543);
#549=DERIVED_UNIT_ELEMENT(#548,3.E0);
#550=DERIVED_UNIT((#549));
#551=MEASURE_REPRESENTATION_ITEM('volume measure',VOLUME_MEASURE(
2.509452464440E2),#550);
#555=CARTESIAN_POINT('centre point',(1.592239069409E-13,1.336734727220E-13,
-1.979379443592E0));
#560=PRODUCT_RELATED_PRODUCT_CATEGORY('part','',(#515));
#1=DRAUGHTING_PRE_DEFINED_COLOUR('blue');
#2=DRAUGHTING_PRE_DEFINED_COLOUR('green');
#3=COLOUR_RGB('',2.E-1,2.E-1,6.E-1);
#4=COLOUR_RGB('',3.01961E-1,3.01961E-1,3.01961E-1);
#5=COLOUR_RGB('',3.92157E-1,3.92157E-1,3.92157E-1);
#6=COLOUR_RGB('',4.588235294118E-1,1.E0,1.E0);
#7=COLOUR_RGB('',5.01961E-1,5.01961E-1,5.01961E-1);
#8=COLOUR_RGB('',6.E-1,4.E-1,2.E-1);
#9=COLOUR_RGB('',7.05882E-1,7.05882E-1,7.05882E-1);
#10=COLOUR_RGB('',7.84314E-1,5.29412E-1,7.84314E-1);
#11=COLOUR_RGB('',8.E-1,8.E-1,8.E-1);
#12=COLOUR_RGB('',8.23529E-1,8.23529E-1,8.23529E-1);
#13=COLOUR_RGB('',8.784E-1,9.49E-1,1.E0);
#14=COLOUR_RGB('',9.215686274510E-1,7.607843137255E-1,1.098039215686E-1);
#15=COLOUR_RGB('',9.80392E-1,9.80392E-1,9.80392E-1);
#16=COLOUR_RGB('',1.E0,0.E0,2.E-1);
#17=COLOUR_RGB('',1.E0,6.66667E-1,0.E0);
#18=COLOUR_RGB('',1.E0,7.63913E-1,1.92109E-1);
#19=COLOUR_RGB('',1.E0,8.39216E-1,8.90196E-1);
#20=DRAUGHTING_PRE_DEFINED_COLOUR('yellow');
#21=COLOUR_RGB('',1.E0,1.E0,9.41176E-1);
#56=CIRCLE('',#55,3.E0);
#64=CIRCLE('',#63,3.E0);
#128=CIRCLE('',#127,2.2E0);
#136=CIRCLE('',#135,2.2E0);
#158=CIRCLE('',#157,3.E0);
#166=CIRCLE('',#165,2.2E0);
#174=CIRCLE('',#173,3.E0);
#182=CIRCLE('',#181,3.E0);
#190=CIRCLE('',#189,3.E0);
#198=CIRCLE('',#197,2.2E0);
#253=EDGE_CURVE('',#218,#219,#26,.T.);
#255=EDGE_CURVE('',#219,#221,#34,.T.);
#257=EDGE_CURVE('',#221,#223,#41,.T.);
#259=EDGE_CURVE('',#223,#218,#48,.T.);
#263=EDGE_CURVE('',#226,#227,#56,.T.);
#265=EDGE_CURVE('',#227,#226,#64,.T.);
#269=ADVANCED_FACE('',(#262,#268),#252,.T.);
#276=EDGE_CURVE('',#229,#218,#78,.T.);
#278=EDGE_CURVE('',#231,#229,#99,.T.);
#280=EDGE_CURVE('',#231,#219,#71,.T.);
#284=ADVANCED_FACE('',(#283),#274,.T.);
#291=EDGE_CURVE('',#233,#223,#85,.T.);
#293=EDGE_CURVE('',#229,#233,#106,.T.);
#298=ADVANCED_FACE('',(#297),#289,.T.);
#305=EDGE_CURVE('',#235,#221,#92,.T.);
#307=EDGE_CURVE('',#233,#235,#113,.T.);
#312=ADVANCED_FACE('',(#311),#303,.T.);
#320=EDGE_CURVE('',#235,#231,#120,.T.);
#325=ADVANCED_FACE('',(#324),#317,.T.);
#337=EDGE_CURVE('',#238,#239,#128,.T.);
#339=EDGE_CURVE('',#239,#238,#136,.T.);
#343=ADVANCED_FACE('',(#336,#342),#330,.F.);
#350=EDGE_CURVE('',#241,#238,#150,.T.);
#352=EDGE_CURVE('',#243,#241,#198,.T.);
#354=EDGE_CURVE('',#243,#239,#143,.T.);
#358=ADVANCED_FACE('',(#357),#348,.F.);
#366=EDGE_CURVE('',#241,#243,#166,.T.);
#371=ADVANCED_FACE('',(#370),#363,.F.);
#377=EDGE_CURVE('',#245,#241,#158,.T.);
#380=EDGE_CURVE('',#247,#243,#190,.T.);
#382=EDGE_CURVE('',#247,#245,#174,.T.);
#386=ADVANCED_FACE('',(#385),#376,.T.);
#393=EDGE_CURVE('',#245,#247,#182,.T.);
#399=ADVANCED_FACE('',(#398),#391,.T.);
#405=EDGE_CURVE('',#227,#245,#212,.T.);
#408=EDGE_CURVE('',#226,#247,#205,.T.);
#413=ADVANCED_FACE('',(#412),#404,.F.);
#425=ADVANCED_FACE('',(#424),#418,.F.);
#445=TRIMMED_CURVE('',#444,(PARAMETER_VALUE(0.E0)),(PARAMETER_VALUE(1.E0)),.T.,
.UNSPECIFIED.);
#449=COMPOSITE_CURVE_SEGMENT(.CONTINUOUS.,.T.,#445);
#454=TRIMMED_CURVE('',#453,(PARAMETER_VALUE(0.E0)),(PARAMETER_VALUE(1.E0)),.T.,
.UNSPECIFIED.);
#458=COMPOSITE_CURVE_SEGMENT(.CONTINUOUS.,.T.,#454);
#463=TRIMMED_CURVE('',#462,(PARAMETER_VALUE(0.E0)),(PARAMETER_VALUE(1.E0)),.T.,
.UNSPECIFIED.);
#467=COMPOSITE_CURVE_SEGMENT(.CONTINUOUS.,.T.,#463);
#472=TRIMMED_CURVE('',#471,(PARAMETER_VALUE(0.E0)),(PARAMETER_VALUE(1.E0)),.T.,
.UNSPECIFIED.);
#476=COMPOSITE_CURVE_SEGMENT(.CONTINUOUS.,.T.,#472);
#477=COMPOSITE_CURVE('',(#449,#458,#467,#476),.F.);
#492=(LENGTH_UNIT()NAMED_UNIT(*)SI_UNIT(.MILLI.,.METRE.));
#493=(NAMED_UNIT(*)PLANE_ANGLE_UNIT()SI_UNIT($,.RADIAN.));
#496=(NAMED_UNIT(*)SI_UNIT($,.STERADIAN.)SOLID_ANGLE_UNIT());
#498=(GEOMETRIC_REPRESENTATION_CONTEXT(3)GLOBAL_UNCERTAINTY_ASSIGNED_CONTEXT((
#497))GLOBAL_UNIT_ASSIGNED_CONTEXT((#492,#495,#496))REPRESENTATION_CONTEXT
('ID1','3'));
#499=ADVANCED_BREP_SHAPE_REPRESENTATION('',(#427),#498);
#500=GEOMETRICALLY_BOUNDED_WIREFRAME_SHAPE_REPRESENTATION('',(#478),#498);
#501=CONSTRUCTIVE_GEOMETRY_REPRESENTATION('supplemental geometry',(#437,#482),
#498);
#505=AXIS2_PLACEMENT_3D('',#502,#503,#504);
#506=SHAPE_REPRESENTATION('',(#505),#498);
#517=PRODUCT_DEFINITION('part definition','',#516,#513);
#518=PRODUCT_DEFINITION_SHAPE('','SHAPE FOR CC09T300L.',#517);
#519=SHAPE_ASPECT('','solid data associated with CC09T300L',#518,.F.);
#520=PROPERTY_DEFINITION('',
'shape for solid data with which properties are associated',#519);
#521=SHAPE_REPRESENTATION('',(#427),#498);
#522=SHAPE_DEFINITION_REPRESENTATION(#520,#521);
#523=(LENGTH_UNIT()NAMED_UNIT(*)SI_UNIT(.MILLI.,.METRE.));
#527=PROPERTY_DEFINITION('geometric validation property','area of CC09T300L',
#519);
#528=REPRESENTATION('surface area',(#526),#498);
#529=PROPERTY_DEFINITION_REPRESENTATION(#527,#528);
#530=(LENGTH_UNIT()NAMED_UNIT(*)SI_UNIT(.MILLI.,.METRE.));
#534=PROPERTY_DEFINITION('geometric validation property','volume of CC09T300L',
#519);
#535=REPRESENTATION('volume',(#533),#498);
#536=PROPERTY_DEFINITION_REPRESENTATION(#534,#535);
#538=PROPERTY_DEFINITION('geometric validation property',
'centroid of CC09T300L',#519);
#539=REPRESENTATION('centroid',(#537),#498);
#540=PROPERTY_DEFINITION_REPRESENTATION(#538,#539);
#541=(LENGTH_UNIT()NAMED_UNIT(*)SI_UNIT(.MILLI.,.METRE.));
#545=PROPERTY_DEFINITION('geometric validation property','area of CC09T300L',
#518);
#546=REPRESENTATION('surface area',(#544),#498);
#547=PROPERTY_DEFINITION_REPRESENTATION(#545,#546);
#548=(LENGTH_UNIT()NAMED_UNIT(*)SI_UNIT(.MILLI.,.METRE.));
#552=PROPERTY_DEFINITION('geometric validation property','volume of CC09T300L',
#518);
#553=REPRESENTATION('volume',(#551),#498);
#554=PROPERTY_DEFINITION_REPRESENTATION(#552,#553);
#556=PROPERTY_DEFINITION('geometric validation property',
'centroid of CC09T300L',#518);
#557=REPRESENTATION('centroid',(#555),#498);
#558=PROPERTY_DEFINITION_REPRESENTATION(#556,#557);
#559=SHAPE_DEFINITION_REPRESENTATION(#518,#506);
ENDSEC;
END-ISO-10303-21;
