ISO-10303-21;
HEADER;
FILE_DESCRIPTION((''),'2;1');
FILE_NAME('SP190412N','2024-08-11T11:14:51',('tlyad09'),('PTC Japan'),
'CREO PARAMETRIC BY PTC INC, 2021424','CREO PARAMETRIC BY PTC INC, 2021424','');
FILE_SCHEMA(('AUTOMOTIVE_DESIGN { 1 0 10303 214 1 1 1 1 }'));
ENDSEC;
DATA;
#36=CARTESIAN_POINT('',(-8.325E0,8.325E0,0.E0));
#37=DIRECTION('',(0.E0,0.E0,1.E0));
#38=DIRECTION('',(0.E0,1.E0,0.E0));
#39=AXIS2_PLACEMENT_3D('',#36,#37,#38);
#41=DRAUGHTING_PRE_DEFINED_CURVE_FONT('continuous');
#42=CURVE_STYLE('',#41,POSITIVE_LENGTH_MEASURE(2.E-2),#22);
#43=PRESENTATION_STYLE_ASSIGNMENT((#42));
#44=STYLED_ITEM('',(#43),#40);
#45=DIRECTION('',(-1.E0,0.E0,0.E0));
#46=VECTOR('',#45,1.665E1);
#47=CARTESIAN_POINT('',(8.325E0,9.525E0,0.E0));
#48=LINE('',#47,#46);
#49=CURVE_STYLE('',#41,POSITIVE_LENGTH_MEASURE(2.E-2),#22);
#50=PRESENTATION_STYLE_ASSIGNMENT((#49));
#51=STYLED_ITEM('',(#50),#48);
#52=CARTESIAN_POINT('',(8.325E0,8.325E0,0.E0));
#53=DIRECTION('',(0.E0,0.E0,1.E0));
#54=DIRECTION('',(1.E0,0.E0,0.E0));
#55=AXIS2_PLACEMENT_3D('',#52,#53,#54);
#57=CURVE_STYLE('',#41,POSITIVE_LENGTH_MEASURE(2.E-2),#22);
#58=PRESENTATION_STYLE_ASSIGNMENT((#57));
#59=STYLED_ITEM('',(#58),#56);
#60=DIRECTION('',(0.E0,1.E0,0.E0));
#61=VECTOR('',#60,1.665E1);
#62=CARTESIAN_POINT('',(9.525E0,-8.325E0,0.E0));
#63=LINE('',#62,#61);
#64=CURVE_STYLE('',#41,POSITIVE_LENGTH_MEASURE(2.E-2),#22);
#65=PRESENTATION_STYLE_ASSIGNMENT((#64));
#66=STYLED_ITEM('',(#65),#63);
#67=CARTESIAN_POINT('',(8.325E0,-8.325E0,0.E0));
#68=DIRECTION('',(0.E0,0.E0,1.E0));
#69=DIRECTION('',(0.E0,-1.E0,0.E0));
#70=AXIS2_PLACEMENT_3D('',#67,#68,#69);
#72=CURVE_STYLE('',#41,POSITIVE_LENGTH_MEASURE(2.E-2),#22);
#73=PRESENTATION_STYLE_ASSIGNMENT((#72));
#74=STYLED_ITEM('',(#73),#71);
#75=DIRECTION('',(1.E0,0.E0,0.E0));
#76=VECTOR('',#75,1.665E1);
#77=CARTESIAN_POINT('',(-8.325E0,-9.525E0,0.E0));
#78=LINE('',#77,#76);
#79=CURVE_STYLE('',#41,POSITIVE_LENGTH_MEASURE(2.E-2),#22);
#80=PRESENTATION_STYLE_ASSIGNMENT((#79));
#81=STYLED_ITEM('',(#80),#78);
#82=CARTESIAN_POINT('',(-8.325E0,-8.325E0,0.E0));
#83=DIRECTION('',(0.E0,0.E0,1.E0));
#84=DIRECTION('',(-1.E0,0.E0,0.E0));
#85=AXIS2_PLACEMENT_3D('',#82,#83,#84);
#87=CURVE_STYLE('',#41,POSITIVE_LENGTH_MEASURE(2.E-2),#22);
#88=PRESENTATION_STYLE_ASSIGNMENT((#87));
#89=STYLED_ITEM('',(#88),#86);
#90=DIRECTION('',(0.E0,-1.E0,0.E0));
#91=VECTOR('',#90,1.665E1);
#92=CARTESIAN_POINT('',(-9.525E0,8.325E0,0.E0));
#93=LINE('',#92,#91);
#94=CURVE_STYLE('',#41,POSITIVE_LENGTH_MEASURE(2.E-2),#22);
#95=PRESENTATION_STYLE_ASSIGNMENT((#94));
#96=STYLED_ITEM('',(#95),#93);
#97=CARTESIAN_POINT('',(-8.325E0,8.325E0,-4.76E0));
#98=DIRECTION('',(0.E0,0.E0,-1.E0));
#99=DIRECTION('',(-1.E0,0.E0,0.E0));
#100=AXIS2_PLACEMENT_3D('',#97,#98,#99);
#102=CURVE_STYLE('',#41,POSITIVE_LENGTH_MEASURE(2.E-2),#22);
#103=PRESENTATION_STYLE_ASSIGNMENT((#102));
#104=STYLED_ITEM('',(#103),#101);
#105=DIRECTION('',(0.E0,-1.E0,0.E0));
#106=VECTOR('',#105,1.665E1);
#107=CARTESIAN_POINT('',(-8.599749728504E0,8.325E0,-4.76E0));
#108=LINE('',#107,#106);
#109=CURVE_STYLE('',#41,POSITIVE_LENGTH_MEASURE(2.E-2),#22);
#110=PRESENTATION_STYLE_ASSIGNMENT((#109));
#111=STYLED_ITEM('',(#110),#108);
#112=CARTESIAN_POINT('',(-8.325E0,-8.325E0,-4.76E0));
#113=DIRECTION('',(0.E0,0.E0,-1.E0));
#114=DIRECTION('',(0.E0,-1.E0,0.E0));
#115=AXIS2_PLACEMENT_3D('',#112,#113,#114);
#117=CURVE_STYLE('',#41,POSITIVE_LENGTH_MEASURE(2.E-2),#22);
#118=PRESENTATION_STYLE_ASSIGNMENT((#117));
#119=STYLED_ITEM('',(#118),#116);
#120=DIRECTION('',(1.E0,0.E0,0.E0));
#121=VECTOR('',#120,1.665E1);
#122=CARTESIAN_POINT('',(-8.325E0,-8.599749728504E0,-4.76E0));
#123=LINE('',#122,#121);
#124=CURVE_STYLE('',#41,POSITIVE_LENGTH_MEASURE(2.E-2),#22);
#125=PRESENTATION_STYLE_ASSIGNMENT((#124));
#126=STYLED_ITEM('',(#125),#123);
#127=CARTESIAN_POINT('',(8.325E0,-8.325E0,-4.76E0));
#128=DIRECTION('',(0.E0,0.E0,-1.E0));
#129=DIRECTION('',(1.E0,0.E0,0.E0));
#130=AXIS2_PLACEMENT_3D('',#127,#128,#129);
#132=CURVE_STYLE('',#41,POSITIVE_LENGTH_MEASURE(2.E-2),#22);
#133=PRESENTATION_STYLE_ASSIGNMENT((#132));
#134=STYLED_ITEM('',(#133),#131);
#135=DIRECTION('',(0.E0,1.E0,0.E0));
#136=VECTOR('',#135,1.665E1);
#137=CARTESIAN_POINT('',(8.599749728504E0,-8.325E0,-4.76E0));
#138=LINE('',#137,#136);
#139=CURVE_STYLE('',#41,POSITIVE_LENGTH_MEASURE(2.E-2),#22);
#140=PRESENTATION_STYLE_ASSIGNMENT((#139));
#141=STYLED_ITEM('',(#140),#138);
#142=CARTESIAN_POINT('',(8.325E0,8.325E0,-4.76E0));
#143=DIRECTION('',(0.E0,0.E0,-1.E0));
#144=DIRECTION('',(0.E0,1.E0,0.E0));
#145=AXIS2_PLACEMENT_3D('',#142,#143,#144);
#147=CURVE_STYLE('',#41,POSITIVE_LENGTH_MEASURE(2.E-2),#22);
#148=PRESENTATION_STYLE_ASSIGNMENT((#147));
#149=STYLED_ITEM('',(#148),#146);
#150=DIRECTION('',(-1.E0,0.E0,0.E0));
#151=VECTOR('',#150,1.665E1);
#152=CARTESIAN_POINT('',(8.325E0,8.599749728504E0,-4.76E0));
#153=LINE('',#152,#151);
#154=CURVE_STYLE('',#41,POSITIVE_LENGTH_MEASURE(2.E-2),#22);
#155=PRESENTATION_STYLE_ASSIGNMENT((#154));
#156=STYLED_ITEM('',(#155),#153);
#157=DIRECTION('',(1.908089953765E-1,0.E0,-9.816271834477E-1));
#158=VECTOR('',#157,4.849091467987E0);
#159=CARTESIAN_POINT('',(-9.525E0,8.325E0,0.E0));
#160=LINE('',#159,#158);
#161=CURVE_STYLE('',#41,POSITIVE_LENGTH_MEASURE(2.E-2),#22);
#162=PRESENTATION_STYLE_ASSIGNMENT((#161));
#163=STYLED_ITEM('',(#162),#160);
#164=DIRECTION('',(1.908089953765E-1,0.E0,-9.816271834477E-1));
#165=VECTOR('',#164,4.849091467987E0);
#166=CARTESIAN_POINT('',(-9.525E0,-8.325E0,0.E0));
#167=LINE('',#166,#165);
#168=CURVE_STYLE('',#41,POSITIVE_LENGTH_MEASURE(2.E-2),#22);
#169=PRESENTATION_STYLE_ASSIGNMENT((#168));
#170=STYLED_ITEM('',(#169),#167);
#171=DIRECTION('',(0.E0,1.908089953765E-1,-9.816271834477E-1));
#172=VECTOR('',#171,4.849091467987E0);
#173=CARTESIAN_POINT('',(-8.325E0,-9.525E0,0.E0));
#174=LINE('',#173,#172);
#175=CURVE_STYLE('',#41,POSITIVE_LENGTH_MEASURE(2.E-2),#22);
#176=PRESENTATION_STYLE_ASSIGNMENT((#175));
#177=STYLED_ITEM('',(#176),#174);
#178=DIRECTION('',(0.E0,1.908089953765E-1,-9.816271834477E-1));
#179=VECTOR('',#178,4.849091467987E0);
#180=CARTESIAN_POINT('',(8.325E0,-9.525E0,0.E0));
#181=LINE('',#180,#179);
#182=CURVE_STYLE('',#41,POSITIVE_LENGTH_MEASURE(2.E-2),#22);
#183=PRESENTATION_STYLE_ASSIGNMENT((#182));
#184=STYLED_ITEM('',(#183),#181);
#185=DIRECTION('',(-1.908089953765E-1,0.E0,-9.816271834477E-1));
#186=VECTOR('',#185,4.849091467987E0);
#187=CARTESIAN_POINT('',(9.525E0,-8.325E0,0.E0));
#188=LINE('',#187,#186);
#189=CURVE_STYLE('',#41,POSITIVE_LENGTH_MEASURE(2.E-2),#22);
#190=PRESENTATION_STYLE_ASSIGNMENT((#189));
#191=STYLED_ITEM('',(#190),#188);
#192=DIRECTION('',(-1.908089953765E-1,0.E0,-9.816271834477E-1));
#193=VECTOR('',#192,4.849091467987E0);
#194=CARTESIAN_POINT('',(9.525E0,8.325E0,0.E0));
#195=LINE('',#194,#193);
#196=CURVE_STYLE('',#41,POSITIVE_LENGTH_MEASURE(2.E-2),#22);
#197=PRESENTATION_STYLE_ASSIGNMENT((#196));
#198=STYLED_ITEM('',(#197),#195);
#199=DIRECTION('',(0.E0,-1.908089953765E-1,-9.816271834477E-1));
#200=VECTOR('',#199,4.849091467987E0);
#201=CARTESIAN_POINT('',(-8.325E0,9.525E0,0.E0));
#202=LINE('',#201,#200);
#203=CURVE_STYLE('',#41,POSITIVE_LENGTH_MEASURE(2.E-2),#22);
#204=PRESENTATION_STYLE_ASSIGNMENT((#203));
#205=STYLED_ITEM('',(#204),#202);
#206=DIRECTION('',(0.E0,-1.908089953765E-1,-9.816271834477E-1));
#207=VECTOR('',#206,4.849091467987E0);
#208=CARTESIAN_POINT('',(8.325E0,9.525E0,0.E0));
#209=LINE('',#208,#207);
#210=CURVE_STYLE('',#41,POSITIVE_LENGTH_MEASURE(2.E-2),#22);
#211=PRESENTATION_STYLE_ASSIGNMENT((#210));
#212=STYLED_ITEM('',(#211),#209);
#213=CARTESIAN_POINT('',(-8.599749728504E0,8.325E0,-4.76E0));
#214=CARTESIAN_POINT('',(-8.325E0,8.599749728504E0,-4.76E0));
#215=VERTEX_POINT('',#213);
#216=VERTEX_POINT('',#214);
#217=CARTESIAN_POINT('',(-8.325E0,9.525E0,0.E0));
#218=VERTEX_POINT('',#217);
#219=CARTESIAN_POINT('',(-9.525E0,8.325E0,0.E0));
#220=VERTEX_POINT('',#219);
#221=CARTESIAN_POINT('',(-8.325E0,-8.599749728504E0,-4.76E0));
#222=CARTESIAN_POINT('',(-8.599749728504E0,-8.325E0,-4.76E0));
#223=VERTEX_POINT('',#221);
#224=VERTEX_POINT('',#222);
#225=CARTESIAN_POINT('',(-9.525E0,-8.325E0,0.E0));
#226=VERTEX_POINT('',#225);
#227=CARTESIAN_POINT('',(-8.325E0,-9.525E0,0.E0));
#228=VERTEX_POINT('',#227);
#229=CARTESIAN_POINT('',(8.599749728504E0,-8.325E0,-4.76E0));
#230=CARTESIAN_POINT('',(8.325E0,-8.599749728504E0,-4.76E0));
#231=VERTEX_POINT('',#229);
#232=VERTEX_POINT('',#230);
#233=CARTESIAN_POINT('',(8.325E0,-9.525E0,0.E0));
#234=VERTEX_POINT('',#233);
#235=CARTESIAN_POINT('',(9.525E0,-8.325E0,0.E0));
#236=VERTEX_POINT('',#235);
#237=CARTESIAN_POINT('',(8.325E0,8.599749728504E0,-4.76E0));
#238=CARTESIAN_POINT('',(8.599749728504E0,8.325E0,-4.76E0));
#239=VERTEX_POINT('',#237);
#240=VERTEX_POINT('',#238);
#241=CARTESIAN_POINT('',(9.525E0,8.325E0,0.E0));
#242=VERTEX_POINT('',#241);
#243=CARTESIAN_POINT('',(8.325E0,9.525E0,0.E0));
#244=VERTEX_POINT('',#243);
#245=CARTESIAN_POINT('',(0.E0,0.E0,0.E0));
#246=DIRECTION('',(0.E0,0.E0,1.E0));
#247=DIRECTION('',(1.E0,0.E0,0.E0));
#248=AXIS2_PLACEMENT_3D('',#245,#246,#247);
#249=PLANE('',#248);
#251=ORIENTED_EDGE('',*,*,#250,.F.);
#253=ORIENTED_EDGE('',*,*,#252,.F.);
#255=ORIENTED_EDGE('',*,*,#254,.F.);
#257=ORIENTED_EDGE('',*,*,#256,.F.);
#259=ORIENTED_EDGE('',*,*,#258,.F.);
#261=ORIENTED_EDGE('',*,*,#260,.F.);
#263=ORIENTED_EDGE('',*,*,#262,.F.);
#265=ORIENTED_EDGE('',*,*,#264,.F.);
#266=EDGE_LOOP('',(#251,#253,#255,#257,#259,#261,#263,#265));
#267=FACE_OUTER_BOUND('',#266,.F.);
#269=CARTESIAN_POINT('',(-8.325E0,8.325E0,-2.38E0));
#270=DIRECTION('',(0.E0,0.E0,1.E0));
#271=DIRECTION('',(1.E0,0.E0,0.E0));
#272=AXIS2_PLACEMENT_3D('',#269,#270,#271);
#273=CONICAL_SURFACE('',#272,7.373748642522E-1,1.1E1);
#275=ORIENTED_EDGE('',*,*,#274,.T.);
#277=ORIENTED_EDGE('',*,*,#276,.F.);
#278=ORIENTED_EDGE('',*,*,#250,.T.);
#280=ORIENTED_EDGE('',*,*,#279,.T.);
#281=EDGE_LOOP('',(#275,#277,#278,#280));
#282=FACE_OUTER_BOUND('',#281,.F.);
#284=CARTESIAN_POINT('',(0.E0,0.E0,-4.76E0));
#285=DIRECTION('',(0.E0,0.E0,1.E0));
#286=DIRECTION('',(1.E0,0.E0,0.E0));
#287=AXIS2_PLACEMENT_3D('',#284,#285,#286);
#288=PLANE('',#287);
#289=ORIENTED_EDGE('',*,*,#274,.F.);
#291=ORIENTED_EDGE('',*,*,#290,.T.);
#293=ORIENTED_EDGE('',*,*,#292,.F.);
#295=ORIENTED_EDGE('',*,*,#294,.T.);
#297=ORIENTED_EDGE('',*,*,#296,.F.);
#299=ORIENTED_EDGE('',*,*,#298,.T.);
#301=ORIENTED_EDGE('',*,*,#300,.F.);
#303=ORIENTED_EDGE('',*,*,#302,.T.);
#304=EDGE_LOOP('',(#289,#291,#293,#295,#297,#299,#301,#303));
#305=FACE_OUTER_BOUND('',#304,.F.);
#307=CARTESIAN_POINT('',(-9.525E0,1.064500480019E1,0.E0));
#308=DIRECTION('',(-9.816271834477E-1,0.E0,-1.908089953765E-1));
#309=DIRECTION('',(0.E0,-1.E0,0.E0));
#310=AXIS2_PLACEMENT_3D('',#307,#308,#309);
#311=PLANE('',#310);
#312=ORIENTED_EDGE('',*,*,#279,.F.);
#313=ORIENTED_EDGE('',*,*,#264,.T.);
#315=ORIENTED_EDGE('',*,*,#314,.T.);
#316=ORIENTED_EDGE('',*,*,#290,.F.);
#317=EDGE_LOOP('',(#312,#313,#315,#316));
#318=FACE_OUTER_BOUND('',#317,.F.);
#320=CARTESIAN_POINT('',(-8.325E0,-8.325E0,-2.38E0));
#321=DIRECTION('',(0.E0,0.E0,1.E0));
#322=DIRECTION('',(0.E0,1.E0,0.E0));
#323=AXIS2_PLACEMENT_3D('',#320,#321,#322);
#324=CONICAL_SURFACE('',#323,7.373748642522E-1,1.1E1);
#325=ORIENTED_EDGE('',*,*,#292,.T.);
#326=ORIENTED_EDGE('',*,*,#314,.F.);
#327=ORIENTED_EDGE('',*,*,#262,.T.);
#329=ORIENTED_EDGE('',*,*,#328,.T.);
#330=EDGE_LOOP('',(#325,#326,#327,#329));
#331=FACE_OUTER_BOUND('',#330,.F.);
#333=CARTESIAN_POINT('',(-1.064500480019E1,-9.525E0,0.E0));
#334=DIRECTION('',(0.E0,-9.816271834477E-1,-1.908089953765E-1));
#335=DIRECTION('',(1.E0,0.E0,0.E0));
#336=AXIS2_PLACEMENT_3D('',#333,#334,#335);
#337=PLANE('',#336);
#338=ORIENTED_EDGE('',*,*,#328,.F.);
#339=ORIENTED_EDGE('',*,*,#260,.T.);
#341=ORIENTED_EDGE('',*,*,#340,.T.);
#342=ORIENTED_EDGE('',*,*,#294,.F.);
#343=EDGE_LOOP('',(#338,#339,#341,#342));
#344=FACE_OUTER_BOUND('',#343,.F.);
#346=CARTESIAN_POINT('',(8.325E0,-8.325E0,-2.38E0));
#347=DIRECTION('',(0.E0,0.E0,1.E0));
#348=DIRECTION('',(-1.E0,0.E0,0.E0));
#349=AXIS2_PLACEMENT_3D('',#346,#347,#348);
#350=CONICAL_SURFACE('',#349,7.373748642522E-1,1.1E1);
#351=ORIENTED_EDGE('',*,*,#296,.T.);
#352=ORIENTED_EDGE('',*,*,#340,.F.);
#353=ORIENTED_EDGE('',*,*,#258,.T.);
#355=ORIENTED_EDGE('',*,*,#354,.T.);
#356=EDGE_LOOP('',(#351,#352,#353,#355));
#357=FACE_OUTER_BOUND('',#356,.F.);
#359=CARTESIAN_POINT('',(9.525E0,-1.064500480019E1,0.E0));
#360=DIRECTION('',(9.816271834477E-1,0.E0,-1.908089953765E-1));
#361=DIRECTION('',(0.E0,1.E0,0.E0));
#362=AXIS2_PLACEMENT_3D('',#359,#360,#361);
#363=PLANE('',#362);
#364=ORIENTED_EDGE('',*,*,#354,.F.);
#365=ORIENTED_EDGE('',*,*,#256,.T.);
#367=ORIENTED_EDGE('',*,*,#366,.T.);
#368=ORIENTED_EDGE('',*,*,#298,.F.);
#369=EDGE_LOOP('',(#364,#365,#367,#368));
#370=FACE_OUTER_BOUND('',#369,.F.);
#372=CARTESIAN_POINT('',(8.325E0,8.325E0,-2.38E0));
#373=DIRECTION('',(0.E0,0.E0,1.E0));
#374=DIRECTION('',(0.E0,-1.E0,0.E0));
#375=AXIS2_PLACEMENT_3D('',#372,#373,#374);
#376=CONICAL_SURFACE('',#375,7.373748642522E-1,1.1E1);
#377=ORIENTED_EDGE('',*,*,#300,.T.);
#378=ORIENTED_EDGE('',*,*,#366,.F.);
#379=ORIENTED_EDGE('',*,*,#254,.T.);
#381=ORIENTED_EDGE('',*,*,#380,.T.);
#382=EDGE_LOOP('',(#377,#378,#379,#381));
#383=FACE_OUTER_BOUND('',#382,.F.);
#385=CARTESIAN_POINT('',(1.064500480019E1,9.525E0,0.E0));
#386=DIRECTION('',(0.E0,9.816271834477E-1,-1.908089953765E-1));
#387=DIRECTION('',(-1.E0,0.E0,0.E0));
#388=AXIS2_PLACEMENT_3D('',#385,#386,#387);
#389=PLANE('',#388);
#390=ORIENTED_EDGE('',*,*,#276,.T.);
#391=ORIENTED_EDGE('',*,*,#302,.F.);
#392=ORIENTED_EDGE('',*,*,#380,.F.);
#393=ORIENTED_EDGE('',*,*,#252,.T.);
#394=EDGE_LOOP('',(#390,#391,#392,#393));
#395=FACE_OUTER_BOUND('',#394,.F.);
#399=FILL_AREA_STYLE_COLOUR('',#22);
#400=FILL_AREA_STYLE('',(#399));
#401=SURFACE_STYLE_FILL_AREA(#400);
#402=SURFACE_SIDE_STYLE('',(#401));
#403=SURFACE_STYLE_USAGE(.BOTH.,#402);
#404=PRESENTATION_STYLE_ASSIGNMENT((#403));
#35=STYLED_ITEM('',(#404),#398);
#405=CARTESIAN_POINT('',(0.E0,0.E0,0.E0));
#406=DIRECTION('',(0.E0,0.E0,1.E0));
#407=DIRECTION('',(1.E0,0.E0,0.E0));
#408=AXIS2_PLACEMENT_3D('MCS',#405,#406,#407);
#409=CURVE_STYLE('',#41,POSITIVE_LENGTH_MEASURE(2.E-2),#32);
#410=PRESENTATION_STYLE_ASSIGNMENT((#409));
#411=STYLED_ITEM('',(#410),#408);
#412=CARTESIAN_POINT('',(-9.525E0,-9.525E0,0.E0));
#413=DIRECTION('',(0.E0,0.E0,1.E0));
#414=DIRECTION('',(1.E0,0.E0,0.E0));
#415=AXIS2_PLACEMENT_3D('PCS',#412,#413,#414);
#416=CURVE_STYLE('',#41,POSITIVE_LENGTH_MEASURE(2.E-2),#32);
#417=PRESENTATION_STYLE_ASSIGNMENT((#416));
#418=STYLED_ITEM('',(#417),#415);
#419=DIRECTION('',(1.E0,0.E0,0.E0));
#420=VECTOR('',#419,1.665E1);
#421=CARTESIAN_POINT('',(-8.325E0,-9.525E0,0.E0));
#422=LINE('',#421,#420);
#424=CURVE_STYLE('',#41,POSITIVE_LENGTH_MEASURE(2.E-2),#2);
#425=PRESENTATION_STYLE_ASSIGNMENT((#424));
#426=STYLED_ITEM('',(#425),#423);
#428=CARTESIAN_POINT('',(8.325E0,-8.325E0,0.E0));
#429=DIRECTION('',(0.E0,0.E0,1.E0));
#430=DIRECTION('',(0.E0,-1.E0,0.E0));
#431=AXIS2_PLACEMENT_3D('',#428,#429,#430);
#434=CURVE_STYLE('',#41,POSITIVE_LENGTH_MEASURE(2.E-2),#2);
#435=PRESENTATION_STYLE_ASSIGNMENT((#434));
#436=STYLED_ITEM('',(#435),#433);
#438=DIRECTION('',(0.E0,1.E0,0.E0));
#439=VECTOR('',#438,1.665E1);
#440=CARTESIAN_POINT('',(9.525E0,-8.325E0,0.E0));
#441=LINE('',#440,#439);
#443=CURVE_STYLE('',#41,POSITIVE_LENGTH_MEASURE(2.E-2),#2);
#444=PRESENTATION_STYLE_ASSIGNMENT((#443));
#445=STYLED_ITEM('',(#444),#442);
#447=CARTESIAN_POINT('',(8.325E0,8.325E0,0.E0));
#448=DIRECTION('',(0.E0,0.E0,1.E0));
#449=DIRECTION('',(1.E0,0.E0,0.E0));
#450=AXIS2_PLACEMENT_3D('',#447,#448,#449);
#453=CURVE_STYLE('',#41,POSITIVE_LENGTH_MEASURE(2.E-2),#2);
#454=PRESENTATION_STYLE_ASSIGNMENT((#453));
#455=STYLED_ITEM('',(#454),#452);
#457=DIRECTION('',(-1.E0,0.E0,0.E0));
#458=VECTOR('',#457,1.665E1);
#459=CARTESIAN_POINT('',(8.325E0,9.525E0,0.E0));
#460=LINE('',#459,#458);
#462=CURVE_STYLE('',#41,POSITIVE_LENGTH_MEASURE(2.E-2),#2);
#463=PRESENTATION_STYLE_ASSIGNMENT((#462));
#464=STYLED_ITEM('',(#463),#461);
#466=CARTESIAN_POINT('',(-8.325E0,8.325E0,0.E0));
#467=DIRECTION('',(0.E0,0.E0,1.E0));
#468=DIRECTION('',(0.E0,1.E0,0.E0));
#469=AXIS2_PLACEMENT_3D('',#466,#467,#468);
#472=CURVE_STYLE('',#41,POSITIVE_LENGTH_MEASURE(2.E-2),#2);
#473=PRESENTATION_STYLE_ASSIGNMENT((#472));
#474=STYLED_ITEM('',(#473),#471);
#476=DIRECTION('',(0.E0,-1.E0,0.E0));
#477=VECTOR('',#476,1.665E1);
#478=CARTESIAN_POINT('',(-9.525E0,8.325E0,0.E0));
#479=LINE('',#478,#477);
#481=CURVE_STYLE('',#41,POSITIVE_LENGTH_MEASURE(2.E-2),#2);
#482=PRESENTATION_STYLE_ASSIGNMENT((#481));
#483=STYLED_ITEM('',(#482),#480);
#485=CARTESIAN_POINT('',(-8.325E0,-8.325E0,0.E0));
#486=DIRECTION('',(0.E0,0.E0,1.E0));
#487=DIRECTION('',(-1.E0,0.E0,0.E0));
#488=AXIS2_PLACEMENT_3D('',#485,#486,#487);
#491=CURVE_STYLE('',#41,POSITIVE_LENGTH_MEASURE(2.E-2),#2);
#492=PRESENTATION_STYLE_ASSIGNMENT((#491));
#493=STYLED_ITEM('',(#492),#490);
#497=PRESENTATION_LAYER_ASSIGNMENT('ALL_CSYS','',(#408,#415));
#498=PRESENTATION_LAYER_ASSIGNMENT('ALL_CURVES','',(#495));
#499=PRESENTATION_LAYER_ASSIGNMENT('ALL_FEATURES','',(#408,#415,#495));
#502=PLANE_ANGLE_MEASURE_WITH_UNIT(PLANE_ANGLE_MEASURE(1.745329251994E-2),#501);
#503=(CONVERSION_BASED_UNIT('DEGREE',#502)NAMED_UNIT(*)PLANE_ANGLE_UNIT());
#505=UNCERTAINTY_MEASURE_WITH_UNIT(LENGTH_MEASURE(1.E-3),#500,
'distance_accuracy_value',
'Maximum model space distance between geometric entities at asserted connectivities');
#496=GEOMETRIC_CURVE_SET('',(#495));
#510=CARTESIAN_POINT('',(0.E0,0.E0,0.E0));
#511=DIRECTION('',(0.E0,0.E0,1.E0));
#512=DIRECTION('',(1.E0,0.E0,0.E0));
#515=SHAPE_REPRESENTATION_RELATIONSHIP('','',#514,#507);
#516=SHAPE_REPRESENTATION_RELATIONSHIP('','',#514,#508);
#517=CONSTRUCTIVE_GEOMETRY_REPRESENTATION_RELATIONSHIP('','',#514,#509);
#518=MECHANICAL_DESIGN_GEOMETRIC_PRESENTATION_REPRESENTATION('',(#44,#51,#59,
#66,#74,#81,#89,#96,#104,#111,#119,#126,#134,#141,#149,#156,#163,#170,#177,#184,
#191,#198,#205,#212,#35,#411,#418,#426,#436,#445,#455,#464,#474,#483,#493),
#506);
#519=APPLICATION_CONTEXT('automotive_design');
#520=APPLICATION_PROTOCOL_DEFINITION('international standard',
'automotive_design',2001,#519);
#521=PRODUCT_DEFINITION_CONTEXT('part definition',#519,'design');
#522=PRODUCT_CONTEXT('',#519,'mechanical');
#523=PRODUCT('SP190412N','SP190412N','NOT SPECIFIED',(#522));
#524=PRODUCT_DEFINITION_FORMATION('3','LAST_VERSION',#523);
#532=DERIVED_UNIT_ELEMENT(#531,2.E0);
#533=DERIVED_UNIT((#532));
#534=MEASURE_REPRESENTATION_ITEM('surface area measure',AREA_MEASURE(
1.002840013646E3),#533);
#539=DERIVED_UNIT_ELEMENT(#538,3.E0);
#540=DERIVED_UNIT((#539));
#541=MEASURE_REPRESENTATION_ITEM('volume measure',VOLUME_MEASURE(
1.562536349461E3),#540);
#545=CARTESIAN_POINT('centre point',(0.E0,0.E0,-2.300357775976E0));
#550=DERIVED_UNIT_ELEMENT(#549,2.E0);
#551=DERIVED_UNIT((#550));
#552=MEASURE_REPRESENTATION_ITEM('surface area measure',AREA_MEASURE(
1.002840013646E3),#551);
#557=DERIVED_UNIT_ELEMENT(#556,3.E0);
#558=DERIVED_UNIT((#557));
#559=MEASURE_REPRESENTATION_ITEM('volume measure',VOLUME_MEASURE(
1.562536349461E3),#558);
#563=CARTESIAN_POINT('centre point',(0.E0,0.E0,-2.300357775976E0));
#568=PRODUCT_RELATED_PRODUCT_CATEGORY('part','',(#523));
#1=COLOUR_RGB('',0.E0,0.E0,2.E-1);
#2=DRAUGHTING_PRE_DEFINED_COLOUR('blue');
#3=COLOUR_RGB('',0.E0,9.490196078431E-1,1.E0);
#4=DRAUGHTING_PRE_DEFINED_COLOUR('green');
#5=COLOUR_RGB('',1.098039215686E-1,1.098039215686E-1,1.098039215686E-1);
#6=COLOUR_RGB('',2.E-1,2.E-1,6.E-1);
#7=COLOUR_RGB('',2.E-1,4.E-1,8.E-1);
#8=COLOUR_RGB('',2.745098039216E-1,1.960784313725E-1,3.921568627451E-1);
#9=COLOUR_RGB('',3.01961E-1,3.01961E-1,3.01961E-1);
#10=COLOUR_RGB('',3.921568627451E-1,1.176470588235E-2,1.176470588235E-2);
#11=COLOUR_RGB('',3.92157E-1,3.92157E-1,3.92157E-1);
#12=COLOUR_RGB('',4.117647058824E-1,0.E0,2.196078431373E-1);
#13=COLOUR_RGB('',4.117647058824E-1,2.627450980392E-1,1.137254901961E-1);
#14=COLOUR_RGB('',5.01961E-1,5.01961E-1,5.01961E-1);
#15=COLOUR_RGB('',5.058823529412E-1,1.568627450980E-2,1.568627450980E-2);
#16=COLOUR_RGB('',5.764705882353E-1,5.450980392157E-1,3.921568627451E-1);
#17=COLOUR_RGB('',6.E-1,4.E-1,2.E-1);
#18=COLOUR_RGB('',6.35294E-1,6.86275E-1,7.4902E-1);
#19=COLOUR_RGB('',6.392156862745E-1,6.392156862745E-1,6.392156862745E-1);
#20=COLOUR_RGB('',7.05882E-1,7.05882E-1,7.05882E-1);
#21=COLOUR_RGB('',7.84314E-1,5.29412E-1,7.84314E-1);
#22=COLOUR_RGB('',8.E-1,8.E-1,8.E-1);
#23=COLOUR_RGB('',8.23529E-1,8.23529E-1,8.23529E-1);
#24=COLOUR_RGB('',8.784313725490E-1,9.490196078431E-1,1.E0);
#25=COLOUR_RGB('',9.215686274510E-1,7.058823529412E-1,4.705882352941E-1);
#26=COLOUR_RGB('',9.80392E-1,9.80392E-1,9.80392E-1);
#27=DRAUGHTING_PRE_DEFINED_COLOUR('red');
#28=COLOUR_RGB('',1.E0,0.E0,2.E-1);
#29=COLOUR_RGB('',1.E0,6.66667E-1,0.E0);
#30=COLOUR_RGB('',1.E0,7.63913E-1,1.92109E-1);
#31=COLOUR_RGB('',1.E0,8.39216E-1,8.90196E-1);
#32=DRAUGHTING_PRE_DEFINED_COLOUR('yellow');
#33=COLOUR_RGB('',1.E0,1.E0,5.294117647059E-1);
#34=COLOUR_RGB('',1.E0,1.E0,9.41176E-1);
#40=CIRCLE('',#39,1.2E0);
#56=CIRCLE('',#55,1.2E0);
#71=CIRCLE('',#70,1.2E0);
#86=CIRCLE('',#85,1.2E0);
#101=CIRCLE('',#100,2.747497285045E-1);
#116=CIRCLE('',#115,2.747497285045E-1);
#131=CIRCLE('',#130,2.747497285045E-1);
#146=CIRCLE('',#145,2.747497285045E-1);
#250=EDGE_CURVE('',#218,#220,#40,.T.);
#252=EDGE_CURVE('',#244,#218,#48,.T.);
#254=EDGE_CURVE('',#242,#244,#56,.T.);
#256=EDGE_CURVE('',#236,#242,#63,.T.);
#258=EDGE_CURVE('',#234,#236,#71,.T.);
#260=EDGE_CURVE('',#228,#234,#78,.T.);
#262=EDGE_CURVE('',#226,#228,#86,.T.);
#264=EDGE_CURVE('',#220,#226,#93,.T.);
#268=ADVANCED_FACE('',(#267),#249,.T.);
#274=EDGE_CURVE('',#215,#216,#101,.T.);
#276=EDGE_CURVE('',#218,#216,#202,.T.);
#279=EDGE_CURVE('',#220,#215,#160,.T.);
#283=ADVANCED_FACE('',(#282),#273,.T.);
#290=EDGE_CURVE('',#215,#224,#108,.T.);
#292=EDGE_CURVE('',#223,#224,#116,.T.);
#294=EDGE_CURVE('',#223,#232,#123,.T.);
#296=EDGE_CURVE('',#231,#232,#131,.T.);
#298=EDGE_CURVE('',#231,#240,#138,.T.);
#300=EDGE_CURVE('',#239,#240,#146,.T.);
#302=EDGE_CURVE('',#239,#216,#153,.T.);
#306=ADVANCED_FACE('',(#305),#288,.F.);
#314=EDGE_CURVE('',#226,#224,#167,.T.);
#319=ADVANCED_FACE('',(#318),#311,.T.);
#328=EDGE_CURVE('',#228,#223,#174,.T.);
#332=ADVANCED_FACE('',(#331),#324,.T.);
#340=EDGE_CURVE('',#234,#232,#181,.T.);
#345=ADVANCED_FACE('',(#344),#337,.T.);
#354=EDGE_CURVE('',#236,#231,#188,.T.);
#358=ADVANCED_FACE('',(#357),#350,.T.);
#366=EDGE_CURVE('',#242,#240,#195,.T.);
#371=ADVANCED_FACE('',(#370),#363,.T.);
#380=EDGE_CURVE('',#244,#239,#209,.T.);
#384=ADVANCED_FACE('',(#383),#376,.T.);
#396=ADVANCED_FACE('',(#395),#389,.T.);
#397=CLOSED_SHELL('',(#268,#283,#306,#319,#332,#345,#358,#371,#384,#396));
#398=MANIFOLD_SOLID_BREP('',#397);
#423=TRIMMED_CURVE('',#422,(PARAMETER_VALUE(0.E0)),(PARAMETER_VALUE(1.E0)),.T.,
.UNSPECIFIED.);
#427=COMPOSITE_CURVE_SEGMENT(.CONTINUOUS.,.T.,#423);
#432=CIRCLE('',#431,1.2E0);
#433=TRIMMED_CURVE('',#432,(PARAMETER_VALUE(0.E0)),(PARAMETER_VALUE(9.E1)),.T.,
.UNSPECIFIED.);
#437=COMPOSITE_CURVE_SEGMENT(.CONTINUOUS.,.T.,#433);
#442=TRIMMED_CURVE('',#441,(PARAMETER_VALUE(0.E0)),(PARAMETER_VALUE(1.E0)),.T.,
.UNSPECIFIED.);
#446=COMPOSITE_CURVE_SEGMENT(.CONTINUOUS.,.T.,#442);
#451=CIRCLE('',#450,1.2E0);
#452=TRIMMED_CURVE('',#451,(PARAMETER_VALUE(0.E0)),(PARAMETER_VALUE(9.E1)),.T.,
.UNSPECIFIED.);
#456=COMPOSITE_CURVE_SEGMENT(.CONTINUOUS.,.T.,#452);
#461=TRIMMED_CURVE('',#460,(PARAMETER_VALUE(0.E0)),(PARAMETER_VALUE(1.E0)),.T.,
.UNSPECIFIED.);
#465=COMPOSITE_CURVE_SEGMENT(.CONTINUOUS.,.T.,#461);
#470=CIRCLE('',#469,1.2E0);
#471=TRIMMED_CURVE('',#470,(PARAMETER_VALUE(0.E0)),(PARAMETER_VALUE(9.E1)),.T.,
.UNSPECIFIED.);
#475=COMPOSITE_CURVE_SEGMENT(.CONTINUOUS.,.T.,#471);
#480=TRIMMED_CURVE('',#479,(PARAMETER_VALUE(0.E0)),(PARAMETER_VALUE(1.E0)),.T.,
.UNSPECIFIED.);
#484=COMPOSITE_CURVE_SEGMENT(.CONTINUOUS.,.T.,#480);
#489=CIRCLE('',#488,1.2E0);
#490=TRIMMED_CURVE('',#489,(PARAMETER_VALUE(0.E0)),(PARAMETER_VALUE(9.E1)),.T.,
.UNSPECIFIED.);
#494=COMPOSITE_CURVE_SEGMENT(.CONTINUOUS.,.T.,#490);
#495=COMPOSITE_CURVE('',(#427,#437,#446,#456,#465,#475,#484,#494),.F.);
#500=(LENGTH_UNIT()NAMED_UNIT(*)SI_UNIT(.MILLI.,.METRE.));
#501=(NAMED_UNIT(*)PLANE_ANGLE_UNIT()SI_UNIT($,.RADIAN.));
#504=(NAMED_UNIT(*)SI_UNIT($,.STERADIAN.)SOLID_ANGLE_UNIT());
#506=(GEOMETRIC_REPRESENTATION_CONTEXT(3)GLOBAL_UNCERTAINTY_ASSIGNED_CONTEXT((
#505))GLOBAL_UNIT_ASSIGNED_CONTEXT((#500,#503,#504))REPRESENTATION_CONTEXT
('ID1','3'));
#507=ADVANCED_BREP_SHAPE_REPRESENTATION('',(#398),#506);
#508=GEOMETRICALLY_BOUNDED_WIREFRAME_SHAPE_REPRESENTATION('',(#496),#506);
#509=CONSTRUCTIVE_GEOMETRY_REPRESENTATION('supplemental geometry',(#408,#415),
#506);
#513=AXIS2_PLACEMENT_3D('',#510,#511,#512);
#514=SHAPE_REPRESENTATION('',(#513),#506);
#525=PRODUCT_DEFINITION('part definition','',#524,#521);
#526=PRODUCT_DEFINITION_SHAPE('','SHAPE FOR SP190412N.',#525);
#527=SHAPE_ASPECT('','solid data associated with SP190412N',#526,.F.);
#528=PROPERTY_DEFINITION('',
'shape for solid data with which properties are associated',#527);
#529=SHAPE_REPRESENTATION('',(#398),#506);
#530=SHAPE_DEFINITION_REPRESENTATION(#528,#529);
#531=(LENGTH_UNIT()NAMED_UNIT(*)SI_UNIT(.MILLI.,.METRE.));
#535=PROPERTY_DEFINITION('geometric validation property','area of SP190412N',
#527);
#536=REPRESENTATION('surface area',(#534),#506);
#537=PROPERTY_DEFINITION_REPRESENTATION(#535,#536);
#538=(LENGTH_UNIT()NAMED_UNIT(*)SI_UNIT(.MILLI.,.METRE.));
#542=PROPERTY_DEFINITION('geometric validation property','volume of SP190412N',
#527);
#543=REPRESENTATION('volume',(#541),#506);
#544=PROPERTY_DEFINITION_REPRESENTATION(#542,#543);
#546=PROPERTY_DEFINITION('geometric validation property',
'centroid of SP190412N',#527);
#547=REPRESENTATION('centroid',(#545),#506);
#548=PROPERTY_DEFINITION_REPRESENTATION(#546,#547);
#549=(LENGTH_UNIT()NAMED_UNIT(*)SI_UNIT(.MILLI.,.METRE.));
#553=PROPERTY_DEFINITION('geometric validation property','area of SP190412N',
#526);
#554=REPRESENTATION('surface area',(#552),#506);
#555=PROPERTY_DEFINITION_REPRESENTATION(#553,#554);
#556=(LENGTH_UNIT()NAMED_UNIT(*)SI_UNIT(.MILLI.,.METRE.));
#560=PROPERTY_DEFINITION('geometric validation property','volume of SP190412N',
#526);
#561=REPRESENTATION('volume',(#559),#506);
#562=PROPERTY_DEFINITION_REPRESENTATION(#560,#561);
#564=PROPERTY_DEFINITION('geometric validation property',
'centroid of SP190412N',#526);
#565=REPRESENTATION('centroid',(#563),#506);
#566=PROPERTY_DEFINITION_REPRESENTATION(#564,#565);
#567=SHAPE_DEFINITION_REPRESENTATION(#526,#514);
ENDSEC;
END-ISO-10303-21;
