ISO-10303-21;
HEADER;
FILE_DESCRIPTION((''),'2;1');
FILE_NAME('SP190404N','2024-08-11T11:11:11',('tlyad09'),('PTC Japan'),
'CREO PARAMETRIC BY PTC INC, 2021424','CREO PARAMETRIC BY PTC INC, 2021424','');
FILE_SCHEMA(('AUTOMOTIVE_DESIGN { 1 0 10303 214 1 1 1 1 }'));
ENDSEC;
DATA;
#36=CARTESIAN_POINT('',(-9.125E0,9.125E0,0.E0));
#37=DIRECTION('',(0.E0,0.E0,1.E0));
#38=DIRECTION('',(0.E0,1.E0,0.E0));
#39=AXIS2_PLACEMENT_3D('',#36,#37,#38);
#41=DRAUGHTING_PRE_DEFINED_CURVE_FONT('continuous');
#42=CURVE_STYLE('',#41,POSITIVE_LENGTH_MEASURE(2.E-2),#22);
#43=PRESENTATION_STYLE_ASSIGNMENT((#42));
#44=STYLED_ITEM('',(#43),#40);
#45=DIRECTION('',(-1.E0,0.E0,0.E0));
#46=VECTOR('',#45,1.825E1);
#47=CARTESIAN_POINT('',(9.125E0,9.525E0,0.E0));
#48=LINE('',#47,#46);
#49=CURVE_STYLE('',#41,POSITIVE_LENGTH_MEASURE(2.E-2),#22);
#50=PRESENTATION_STYLE_ASSIGNMENT((#49));
#51=STYLED_ITEM('',(#50),#48);
#52=CARTESIAN_POINT('',(9.125E0,9.125E0,0.E0));
#53=DIRECTION('',(0.E0,0.E0,1.E0));
#54=DIRECTION('',(1.E0,0.E0,0.E0));
#55=AXIS2_PLACEMENT_3D('',#52,#53,#54);
#57=CURVE_STYLE('',#41,POSITIVE_LENGTH_MEASURE(2.E-2),#22);
#58=PRESENTATION_STYLE_ASSIGNMENT((#57));
#59=STYLED_ITEM('',(#58),#56);
#60=DIRECTION('',(0.E0,1.E0,0.E0));
#61=VECTOR('',#60,1.825E1);
#62=CARTESIAN_POINT('',(9.525E0,-9.125E0,0.E0));
#63=LINE('',#62,#61);
#64=CURVE_STYLE('',#41,POSITIVE_LENGTH_MEASURE(2.E-2),#22);
#65=PRESENTATION_STYLE_ASSIGNMENT((#64));
#66=STYLED_ITEM('',(#65),#63);
#67=CARTESIAN_POINT('',(9.125E0,-9.125E0,0.E0));
#68=DIRECTION('',(0.E0,0.E0,1.E0));
#69=DIRECTION('',(0.E0,-1.E0,0.E0));
#70=AXIS2_PLACEMENT_3D('',#67,#68,#69);
#72=CURVE_STYLE('',#41,POSITIVE_LENGTH_MEASURE(2.E-2),#22);
#73=PRESENTATION_STYLE_ASSIGNMENT((#72));
#74=STYLED_ITEM('',(#73),#71);
#75=DIRECTION('',(1.E0,0.E0,0.E0));
#76=VECTOR('',#75,1.825E1);
#77=CARTESIAN_POINT('',(-9.125E0,-9.525E0,0.E0));
#78=LINE('',#77,#76);
#79=CURVE_STYLE('',#41,POSITIVE_LENGTH_MEASURE(2.E-2),#22);
#80=PRESENTATION_STYLE_ASSIGNMENT((#79));
#81=STYLED_ITEM('',(#80),#78);
#82=CARTESIAN_POINT('',(-9.125E0,-9.125E0,0.E0));
#83=DIRECTION('',(0.E0,0.E0,1.E0));
#84=DIRECTION('',(-1.E0,0.E0,0.E0));
#85=AXIS2_PLACEMENT_3D('',#82,#83,#84);
#87=CURVE_STYLE('',#41,POSITIVE_LENGTH_MEASURE(2.E-2),#22);
#88=PRESENTATION_STYLE_ASSIGNMENT((#87));
#89=STYLED_ITEM('',(#88),#86);
#90=DIRECTION('',(0.E0,-1.E0,0.E0));
#91=VECTOR('',#90,1.825E1);
#92=CARTESIAN_POINT('',(-9.525E0,9.125E0,0.E0));
#93=LINE('',#92,#91);
#94=CURVE_STYLE('',#41,POSITIVE_LENGTH_MEASURE(2.E-2),#22);
#95=PRESENTATION_STYLE_ASSIGNMENT((#94));
#96=STYLED_ITEM('',(#95),#93);
#97=DIRECTION('',(1.908089953765E-1,0.E0,-9.816271834477E-1));
#98=VECTOR('',#97,2.096337225667E0);
#99=CARTESIAN_POINT('',(-9.525E0,9.125E0,0.E0));
#100=LINE('',#99,#98);
#101=CURVE_STYLE('',#41,POSITIVE_LENGTH_MEASURE(2.E-2),#22);
#102=PRESENTATION_STYLE_ASSIGNMENT((#101));
#103=STYLED_ITEM('',(#102),#100);
#104=DIRECTION('',(1.908089953765E-1,0.E0,-9.816271834477E-1));
#105=VECTOR('',#104,2.096337225667E0);
#106=CARTESIAN_POINT('',(-9.525E0,-9.125E0,0.E0));
#107=LINE('',#106,#105);
#108=CURVE_STYLE('',#41,POSITIVE_LENGTH_MEASURE(2.E-2),#22);
#109=PRESENTATION_STYLE_ASSIGNMENT((#108));
#110=STYLED_ITEM('',(#109),#107);
#111=DIRECTION('',(1.874275599919E-1,1.874275599919E-1,-9.642312064598E-1));
#112=VECTOR('',#111,2.802417486085E0);
#113=CARTESIAN_POINT('',(-9.125E0,-9.125E0,-2.057821606388E0));
#114=LINE('',#113,#112);
#115=CURVE_STYLE('',#41,POSITIVE_LENGTH_MEASURE(2.E-2),#22);
#116=PRESENTATION_STYLE_ASSIGNMENT((#115));
#117=STYLED_ITEM('',(#116),#114);
#118=DIRECTION('',(-1.E0,0.E0,0.E0));
#119=VECTOR('',#118,1.719949945701E1);
#120=CARTESIAN_POINT('',(8.599749728504E0,8.599749728504E0,-4.76E0));
#121=LINE('',#120,#119);
#122=CURVE_STYLE('',#41,POSITIVE_LENGTH_MEASURE(2.E-2),#22);
#123=PRESENTATION_STYLE_ASSIGNMENT((#122));
#124=STYLED_ITEM('',(#123),#121);
#125=DIRECTION('',(0.E0,-1.E0,0.E0));
#126=VECTOR('',#125,1.719949945701E1);
#127=CARTESIAN_POINT('',(-8.599749728504E0,8.599749728504E0,-4.76E0));
#128=LINE('',#127,#126);
#129=CURVE_STYLE('',#41,POSITIVE_LENGTH_MEASURE(2.E-2),#22);
#130=PRESENTATION_STYLE_ASSIGNMENT((#129));
#131=STYLED_ITEM('',(#130),#128);
#132=DIRECTION('',(1.E0,0.E0,0.E0));
#133=VECTOR('',#132,1.719949945701E1);
#134=CARTESIAN_POINT('',(-8.599749728504E0,-8.599749728504E0,-4.76E0));
#135=LINE('',#134,#133);
#136=CURVE_STYLE('',#41,POSITIVE_LENGTH_MEASURE(2.E-2),#22);
#137=PRESENTATION_STYLE_ASSIGNMENT((#136));
#138=STYLED_ITEM('',(#137),#135);
#139=DIRECTION('',(0.E0,1.E0,0.E0));
#140=VECTOR('',#139,1.719949945701E1);
#141=CARTESIAN_POINT('',(8.599749728504E0,-8.599749728504E0,-4.76E0));
#142=LINE('',#141,#140);
#143=CURVE_STYLE('',#41,POSITIVE_LENGTH_MEASURE(2.E-2),#22);
#144=PRESENTATION_STYLE_ASSIGNMENT((#143));
#145=STYLED_ITEM('',(#144),#142);
#146=DIRECTION('',(-1.874275599919E-1,-1.874275599919E-1,-9.642312064598E-1));
#147=VECTOR('',#146,2.802417486085E0);
#148=CARTESIAN_POINT('',(9.125E0,9.125E0,-2.057821606388E0));
#149=LINE('',#148,#147);
#150=CURVE_STYLE('',#41,POSITIVE_LENGTH_MEASURE(2.E-2),#22);
#151=PRESENTATION_STYLE_ASSIGNMENT((#150));
#152=STYLED_ITEM('',(#151),#149);
#153=DIRECTION('',(0.E0,-1.908089953765E-1,-9.816271834477E-1));
#154=VECTOR('',#153,2.096337225667E0);
#155=CARTESIAN_POINT('',(9.125E0,9.525E0,0.E0));
#156=LINE('',#155,#154);
#157=CURVE_STYLE('',#41,POSITIVE_LENGTH_MEASURE(2.E-2),#22);
#158=PRESENTATION_STYLE_ASSIGNMENT((#157));
#159=STYLED_ITEM('',(#158),#156);
#160=DIRECTION('',(0.E0,-1.908089953765E-1,-9.816271834477E-1));
#161=VECTOR('',#160,2.096337225667E0);
#162=CARTESIAN_POINT('',(-9.125E0,9.525E0,0.E0));
#163=LINE('',#162,#161);
#164=CURVE_STYLE('',#41,POSITIVE_LENGTH_MEASURE(2.E-2),#22);
#165=PRESENTATION_STYLE_ASSIGNMENT((#164));
#166=STYLED_ITEM('',(#165),#163);
#167=DIRECTION('',(1.874275599919E-1,-1.874275599919E-1,-9.642312064598E-1));
#168=VECTOR('',#167,2.802417486085E0);
#169=CARTESIAN_POINT('',(-9.125E0,9.125E0,-2.057821606388E0));
#170=LINE('',#169,#168);
#171=CURVE_STYLE('',#41,POSITIVE_LENGTH_MEASURE(2.E-2),#22);
#172=PRESENTATION_STYLE_ASSIGNMENT((#171));
#173=STYLED_ITEM('',(#172),#170);
#174=DIRECTION('',(-1.908089953765E-1,0.E0,-9.816271834477E-1));
#175=VECTOR('',#174,2.096337225667E0);
#176=CARTESIAN_POINT('',(9.525E0,-9.125E0,0.E0));
#177=LINE('',#176,#175);
#178=CURVE_STYLE('',#41,POSITIVE_LENGTH_MEASURE(2.E-2),#22);
#179=PRESENTATION_STYLE_ASSIGNMENT((#178));
#180=STYLED_ITEM('',(#179),#177);
#181=DIRECTION('',(-1.908089953765E-1,0.E0,-9.816271834477E-1));
#182=VECTOR('',#181,2.096337225667E0);
#183=CARTESIAN_POINT('',(9.525E0,9.125E0,0.E0));
#184=LINE('',#183,#182);
#185=CURVE_STYLE('',#41,POSITIVE_LENGTH_MEASURE(2.E-2),#22);
#186=PRESENTATION_STYLE_ASSIGNMENT((#185));
#187=STYLED_ITEM('',(#186),#184);
#188=DIRECTION('',(-1.874275599919E-1,1.874275599919E-1,-9.642312064598E-1));
#189=VECTOR('',#188,2.802417486085E0);
#190=CARTESIAN_POINT('',(9.125E0,-9.125E0,-2.057821606388E0));
#191=LINE('',#190,#189);
#192=CURVE_STYLE('',#41,POSITIVE_LENGTH_MEASURE(2.E-2),#22);
#193=PRESENTATION_STYLE_ASSIGNMENT((#192));
#194=STYLED_ITEM('',(#193),#191);
#195=DIRECTION('',(0.E0,1.908089953765E-1,-9.816271834477E-1));
#196=VECTOR('',#195,2.096337225667E0);
#197=CARTESIAN_POINT('',(-9.125E0,-9.525E0,0.E0));
#198=LINE('',#197,#196);
#199=CURVE_STYLE('',#41,POSITIVE_LENGTH_MEASURE(2.E-2),#22);
#200=PRESENTATION_STYLE_ASSIGNMENT((#199));
#201=STYLED_ITEM('',(#200),#198);
#202=DIRECTION('',(0.E0,1.908089953765E-1,-9.816271834477E-1));
#203=VECTOR('',#202,2.096337225667E0);
#204=CARTESIAN_POINT('',(9.125E0,-9.525E0,0.E0));
#205=LINE('',#204,#203);
#206=CURVE_STYLE('',#41,POSITIVE_LENGTH_MEASURE(2.E-2),#22);
#207=PRESENTATION_STYLE_ASSIGNMENT((#206));
#208=STYLED_ITEM('',(#207),#205);
#209=CARTESIAN_POINT('',(-9.125E0,9.525E0,0.E0));
#210=CARTESIAN_POINT('',(-9.525E0,9.125E0,0.E0));
#211=VERTEX_POINT('',#209);
#212=VERTEX_POINT('',#210);
#213=CARTESIAN_POINT('',(-9.525E0,-9.125E0,0.E0));
#214=CARTESIAN_POINT('',(-9.125E0,-9.525E0,0.E0));
#215=VERTEX_POINT('',#213);
#216=VERTEX_POINT('',#214);
#217=CARTESIAN_POINT('',(9.125E0,-9.525E0,0.E0));
#218=CARTESIAN_POINT('',(9.525E0,-9.125E0,0.E0));
#219=VERTEX_POINT('',#217);
#220=VERTEX_POINT('',#218);
#221=CARTESIAN_POINT('',(9.525E0,9.125E0,0.E0));
#222=CARTESIAN_POINT('',(9.125E0,9.525E0,0.E0));
#223=VERTEX_POINT('',#221);
#224=VERTEX_POINT('',#222);
#225=CARTESIAN_POINT('',(-9.125E0,9.125E0,-2.057821606388E0));
#226=VERTEX_POINT('',#225);
#227=CARTESIAN_POINT('',(-9.125E0,-9.125E0,-2.057821606388E0));
#228=VERTEX_POINT('',#227);
#229=CARTESIAN_POINT('',(9.125E0,-9.125E0,-2.057821606388E0));
#230=VERTEX_POINT('',#229);
#231=CARTESIAN_POINT('',(9.125E0,9.125E0,-2.057821606388E0));
#232=VERTEX_POINT('',#231);
#233=CARTESIAN_POINT('',(8.599749728504E0,8.599749728504E0,-4.76E0));
#234=CARTESIAN_POINT('',(-8.599749728504E0,8.599749728504E0,-4.76E0));
#235=VERTEX_POINT('',#233);
#236=VERTEX_POINT('',#234);
#237=CARTESIAN_POINT('',(8.599749728504E0,-8.599749728504E0,-4.76E0));
#238=VERTEX_POINT('',#237);
#239=CARTESIAN_POINT('',(-8.599749728504E0,-8.599749728504E0,-4.76E0));
#240=VERTEX_POINT('',#239);
#241=CARTESIAN_POINT('',(0.E0,0.E0,0.E0));
#242=DIRECTION('',(0.E0,0.E0,1.E0));
#243=DIRECTION('',(1.E0,0.E0,0.E0));
#244=AXIS2_PLACEMENT_3D('',#241,#242,#243);
#245=PLANE('',#244);
#247=ORIENTED_EDGE('',*,*,#246,.F.);
#249=ORIENTED_EDGE('',*,*,#248,.F.);
#251=ORIENTED_EDGE('',*,*,#250,.F.);
#253=ORIENTED_EDGE('',*,*,#252,.F.);
#255=ORIENTED_EDGE('',*,*,#254,.F.);
#257=ORIENTED_EDGE('',*,*,#256,.F.);
#259=ORIENTED_EDGE('',*,*,#258,.F.);
#261=ORIENTED_EDGE('',*,*,#260,.F.);
#262=EDGE_LOOP('',(#247,#249,#251,#253,#255,#257,#259,#261));
#263=FACE_OUTER_BOUND('',#262,.F.);
#265=CARTESIAN_POINT('',(-9.125E0,9.125E0,-1.008332587130E0));
#266=DIRECTION('',(0.E0,0.E0,1.E0));
#267=DIRECTION('',(1.E0,0.E0,0.E0));
#268=AXIS2_PLACEMENT_3D('',#265,#266,#267);
#269=CONICAL_SURFACE('',#268,2.04E-1,1.1E1);
#271=ORIENTED_EDGE('',*,*,#270,.T.);
#273=ORIENTED_EDGE('',*,*,#272,.F.);
#274=ORIENTED_EDGE('',*,*,#246,.T.);
#275=EDGE_LOOP('',(#271,#273,#274));
#276=FACE_OUTER_BOUND('',#275,.F.);
#278=CARTESIAN_POINT('',(-9.525E0,1.064500480019E1,0.E0));
#279=DIRECTION('',(-9.816271834477E-1,0.E0,-1.908089953765E-1));
#280=DIRECTION('',(0.E0,-1.E0,0.E0));
#281=AXIS2_PLACEMENT_3D('',#278,#279,#280);
#282=PLANE('',#281);
#284=ORIENTED_EDGE('',*,*,#283,.F.);
#286=ORIENTED_EDGE('',*,*,#285,.F.);
#287=ORIENTED_EDGE('',*,*,#270,.F.);
#288=ORIENTED_EDGE('',*,*,#260,.T.);
#290=ORIENTED_EDGE('',*,*,#289,.T.);
#292=ORIENTED_EDGE('',*,*,#291,.T.);
#293=EDGE_LOOP('',(#284,#286,#287,#288,#290,#292));
#294=FACE_OUTER_BOUND('',#293,.F.);
#296=CARTESIAN_POINT('',(0.E0,0.E0,-4.76E0));
#297=DIRECTION('',(0.E0,0.E0,1.E0));
#298=DIRECTION('',(1.E0,0.E0,0.E0));
#299=AXIS2_PLACEMENT_3D('',#296,#297,#298);
#300=PLANE('',#299);
#302=ORIENTED_EDGE('',*,*,#301,.T.);
#303=ORIENTED_EDGE('',*,*,#283,.T.);
#305=ORIENTED_EDGE('',*,*,#304,.T.);
#307=ORIENTED_EDGE('',*,*,#306,.T.);
#308=EDGE_LOOP('',(#302,#303,#305,#307));
#309=FACE_OUTER_BOUND('',#308,.F.);
#311=CARTESIAN_POINT('',(1.064500480019E1,9.525E0,0.E0));
#312=DIRECTION('',(0.E0,9.816271834477E-1,-1.908089953765E-1));
#313=DIRECTION('',(-1.E0,0.E0,0.E0));
#314=AXIS2_PLACEMENT_3D('',#311,#312,#313);
#315=PLANE('',#314);
#316=ORIENTED_EDGE('',*,*,#301,.F.);
#318=ORIENTED_EDGE('',*,*,#317,.F.);
#320=ORIENTED_EDGE('',*,*,#319,.F.);
#321=ORIENTED_EDGE('',*,*,#248,.T.);
#322=ORIENTED_EDGE('',*,*,#272,.T.);
#323=ORIENTED_EDGE('',*,*,#285,.T.);
#324=EDGE_LOOP('',(#316,#318,#320,#321,#322,#323));
#325=FACE_OUTER_BOUND('',#324,.F.);
#327=CARTESIAN_POINT('',(9.525E0,-1.064500480019E1,0.E0));
#328=DIRECTION('',(9.816271834477E-1,0.E0,-1.908089953765E-1));
#329=DIRECTION('',(0.E0,1.E0,0.E0));
#330=AXIS2_PLACEMENT_3D('',#327,#328,#329);
#331=PLANE('',#330);
#333=ORIENTED_EDGE('',*,*,#332,.F.);
#334=ORIENTED_EDGE('',*,*,#252,.T.);
#336=ORIENTED_EDGE('',*,*,#335,.T.);
#337=ORIENTED_EDGE('',*,*,#317,.T.);
#338=ORIENTED_EDGE('',*,*,#306,.F.);
#340=ORIENTED_EDGE('',*,*,#339,.F.);
#341=EDGE_LOOP('',(#333,#334,#336,#337,#338,#340));
#342=FACE_OUTER_BOUND('',#341,.F.);
#344=CARTESIAN_POINT('',(9.125E0,-9.125E0,-1.008332587130E0));
#345=DIRECTION('',(0.E0,0.E0,1.E0));
#346=DIRECTION('',(-1.E0,0.E0,0.E0));
#347=AXIS2_PLACEMENT_3D('',#344,#345,#346);
#348=CONICAL_SURFACE('',#347,2.04E-1,1.1E1);
#349=ORIENTED_EDGE('',*,*,#332,.T.);
#351=ORIENTED_EDGE('',*,*,#350,.F.);
#352=ORIENTED_EDGE('',*,*,#254,.T.);
#353=EDGE_LOOP('',(#349,#351,#352));
#354=FACE_OUTER_BOUND('',#353,.F.);
#356=CARTESIAN_POINT('',(-1.064500480019E1,-9.525E0,0.E0));
#357=DIRECTION('',(0.E0,-9.816271834477E-1,-1.908089953765E-1));
#358=DIRECTION('',(1.E0,0.E0,0.E0));
#359=AXIS2_PLACEMENT_3D('',#356,#357,#358);
#360=PLANE('',#359);
#362=ORIENTED_EDGE('',*,*,#361,.F.);
#363=ORIENTED_EDGE('',*,*,#256,.T.);
#364=ORIENTED_EDGE('',*,*,#350,.T.);
#365=ORIENTED_EDGE('',*,*,#339,.T.);
#366=ORIENTED_EDGE('',*,*,#304,.F.);
#367=ORIENTED_EDGE('',*,*,#291,.F.);
#368=EDGE_LOOP('',(#362,#363,#364,#365,#366,#367));
#369=FACE_OUTER_BOUND('',#368,.F.);
#371=CARTESIAN_POINT('',(-9.125E0,-9.125E0,-1.008332587130E0));
#372=DIRECTION('',(0.E0,0.E0,1.E0));
#373=DIRECTION('',(0.E0,1.E0,0.E0));
#374=AXIS2_PLACEMENT_3D('',#371,#372,#373);
#375=CONICAL_SURFACE('',#374,2.04E-1,1.1E1);
#376=ORIENTED_EDGE('',*,*,#361,.T.);
#377=ORIENTED_EDGE('',*,*,#289,.F.);
#378=ORIENTED_EDGE('',*,*,#258,.T.);
#379=EDGE_LOOP('',(#376,#377,#378));
#380=FACE_OUTER_BOUND('',#379,.F.);
#382=CARTESIAN_POINT('',(9.125E0,9.125E0,-1.008332587130E0));
#383=DIRECTION('',(0.E0,0.E0,1.E0));
#384=DIRECTION('',(0.E0,-1.E0,0.E0));
#385=AXIS2_PLACEMENT_3D('',#382,#383,#384);
#386=CONICAL_SURFACE('',#385,2.04E-1,1.1E1);
#387=ORIENTED_EDGE('',*,*,#319,.T.);
#388=ORIENTED_EDGE('',*,*,#335,.F.);
#389=ORIENTED_EDGE('',*,*,#250,.T.);
#390=EDGE_LOOP('',(#387,#388,#389));
#391=FACE_OUTER_BOUND('',#390,.F.);
#395=FILL_AREA_STYLE_COLOUR('',#22);
#396=FILL_AREA_STYLE('',(#395));
#397=SURFACE_STYLE_FILL_AREA(#396);
#398=SURFACE_SIDE_STYLE('',(#397));
#399=SURFACE_STYLE_USAGE(.BOTH.,#398);
#400=PRESENTATION_STYLE_ASSIGNMENT((#399));
#35=STYLED_ITEM('',(#400),#394);
#401=CARTESIAN_POINT('',(0.E0,0.E0,0.E0));
#402=DIRECTION('',(0.E0,0.E0,1.E0));
#403=DIRECTION('',(1.E0,0.E0,0.E0));
#404=AXIS2_PLACEMENT_3D('MCS',#401,#402,#403);
#405=CURVE_STYLE('',#41,POSITIVE_LENGTH_MEASURE(2.E-2),#32);
#406=PRESENTATION_STYLE_ASSIGNMENT((#405));
#407=STYLED_ITEM('',(#406),#404);
#408=CARTESIAN_POINT('',(-9.525E0,-9.525E0,0.E0));
#409=DIRECTION('',(0.E0,0.E0,1.E0));
#410=DIRECTION('',(1.E0,0.E0,0.E0));
#411=AXIS2_PLACEMENT_3D('PCS',#408,#409,#410);
#412=CURVE_STYLE('',#41,POSITIVE_LENGTH_MEASURE(2.E-2),#32);
#413=PRESENTATION_STYLE_ASSIGNMENT((#412));
#414=STYLED_ITEM('',(#413),#411);
#415=DIRECTION('',(1.E0,0.E0,0.E0));
#416=VECTOR('',#415,1.825E1);
#417=CARTESIAN_POINT('',(-9.125E0,-9.525E0,0.E0));
#418=LINE('',#417,#416);
#420=CURVE_STYLE('',#41,POSITIVE_LENGTH_MEASURE(2.E-2),#2);
#421=PRESENTATION_STYLE_ASSIGNMENT((#420));
#422=STYLED_ITEM('',(#421),#419);
#424=CARTESIAN_POINT('',(9.125E0,-9.125E0,0.E0));
#425=DIRECTION('',(0.E0,0.E0,1.E0));
#426=DIRECTION('',(0.E0,-1.E0,0.E0));
#427=AXIS2_PLACEMENT_3D('',#424,#425,#426);
#430=CURVE_STYLE('',#41,POSITIVE_LENGTH_MEASURE(2.E-2),#2);
#431=PRESENTATION_STYLE_ASSIGNMENT((#430));
#432=STYLED_ITEM('',(#431),#429);
#434=DIRECTION('',(0.E0,1.E0,0.E0));
#435=VECTOR('',#434,1.825E1);
#436=CARTESIAN_POINT('',(9.525E0,-9.125E0,0.E0));
#437=LINE('',#436,#435);
#439=CURVE_STYLE('',#41,POSITIVE_LENGTH_MEASURE(2.E-2),#2);
#440=PRESENTATION_STYLE_ASSIGNMENT((#439));
#441=STYLED_ITEM('',(#440),#438);
#443=CARTESIAN_POINT('',(9.125E0,9.125E0,0.E0));
#444=DIRECTION('',(0.E0,0.E0,1.E0));
#445=DIRECTION('',(1.E0,0.E0,0.E0));
#446=AXIS2_PLACEMENT_3D('',#443,#444,#445);
#449=CURVE_STYLE('',#41,POSITIVE_LENGTH_MEASURE(2.E-2),#2);
#450=PRESENTATION_STYLE_ASSIGNMENT((#449));
#451=STYLED_ITEM('',(#450),#448);
#453=DIRECTION('',(-1.E0,0.E0,0.E0));
#454=VECTOR('',#453,1.825E1);
#455=CARTESIAN_POINT('',(9.125E0,9.525E0,0.E0));
#456=LINE('',#455,#454);
#458=CURVE_STYLE('',#41,POSITIVE_LENGTH_MEASURE(2.E-2),#2);
#459=PRESENTATION_STYLE_ASSIGNMENT((#458));
#460=STYLED_ITEM('',(#459),#457);
#462=CARTESIAN_POINT('',(-9.125E0,9.125E0,0.E0));
#463=DIRECTION('',(0.E0,0.E0,1.E0));
#464=DIRECTION('',(0.E0,1.E0,0.E0));
#465=AXIS2_PLACEMENT_3D('',#462,#463,#464);
#468=CURVE_STYLE('',#41,POSITIVE_LENGTH_MEASURE(2.E-2),#2);
#469=PRESENTATION_STYLE_ASSIGNMENT((#468));
#470=STYLED_ITEM('',(#469),#467);
#472=DIRECTION('',(0.E0,-1.E0,0.E0));
#473=VECTOR('',#472,1.825E1);
#474=CARTESIAN_POINT('',(-9.525E0,9.125E0,0.E0));
#475=LINE('',#474,#473);
#477=CURVE_STYLE('',#41,POSITIVE_LENGTH_MEASURE(2.E-2),#2);
#478=PRESENTATION_STYLE_ASSIGNMENT((#477));
#479=STYLED_ITEM('',(#478),#476);
#481=CARTESIAN_POINT('',(-9.125E0,-9.125E0,0.E0));
#482=DIRECTION('',(0.E0,0.E0,1.E0));
#483=DIRECTION('',(-1.E0,0.E0,0.E0));
#484=AXIS2_PLACEMENT_3D('',#481,#482,#483);
#487=CURVE_STYLE('',#41,POSITIVE_LENGTH_MEASURE(2.E-2),#2);
#488=PRESENTATION_STYLE_ASSIGNMENT((#487));
#489=STYLED_ITEM('',(#488),#486);
#493=PRESENTATION_LAYER_ASSIGNMENT('ALL_CSYS','',(#404,#411));
#494=PRESENTATION_LAYER_ASSIGNMENT('ALL_CURVES','',(#491));
#495=PRESENTATION_LAYER_ASSIGNMENT('ALL_FEATURES','',(#404,#411,#491));
#498=PLANE_ANGLE_MEASURE_WITH_UNIT(PLANE_ANGLE_MEASURE(1.745329251994E-2),#497);
#499=(CONVERSION_BASED_UNIT('DEGREE',#498)NAMED_UNIT(*)PLANE_ANGLE_UNIT());
#501=UNCERTAINTY_MEASURE_WITH_UNIT(LENGTH_MEASURE(1.E-3),#496,
'distance_accuracy_value',
'Maximum model space distance between geometric entities at asserted connectivities');
#492=GEOMETRIC_CURVE_SET('',(#491));
#506=CARTESIAN_POINT('',(0.E0,0.E0,0.E0));
#507=DIRECTION('',(0.E0,0.E0,1.E0));
#508=DIRECTION('',(1.E0,0.E0,0.E0));
#511=SHAPE_REPRESENTATION_RELATIONSHIP('','',#510,#503);
#512=SHAPE_REPRESENTATION_RELATIONSHIP('','',#510,#504);
#513=CONSTRUCTIVE_GEOMETRY_REPRESENTATION_RELATIONSHIP('','',#510,#505);
#514=MECHANICAL_DESIGN_GEOMETRIC_PRESENTATION_REPRESENTATION('',(#44,#51,#59,
#66,#74,#81,#89,#96,#103,#110,#117,#124,#131,#138,#145,#152,#159,#166,#173,#180,
#187,#194,#201,#208,#35,#407,#414,#422,#432,#441,#451,#460,#470,#479,#489),
#502);
#515=APPLICATION_CONTEXT('automotive_design');
#516=APPLICATION_PROTOCOL_DEFINITION('international standard',
'automotive_design',2001,#515);
#517=PRODUCT_DEFINITION_CONTEXT('part definition',#515,'design');
#518=PRODUCT_CONTEXT('',#515,'mechanical');
#519=PRODUCT('SP190404N','SP190404N','NOT SPECIFIED',(#518));
#520=PRODUCT_DEFINITION_FORMATION('1','LAST_VERSION',#519);
#528=DERIVED_UNIT_ELEMENT(#527,2.E0);
#529=DERIVED_UNIT((#528));
#530=MEASURE_REPRESENTATION_ITEM('surface area measure',AREA_MEASURE(
1.009422408948E3),#529);
#535=DERIVED_UNIT_ELEMENT(#534,3.E0);
#536=DERIVED_UNIT((#535));
#537=MEASURE_REPRESENTATION_ITEM('volume measure',VOLUME_MEASURE(
1.564955304311E3),#536);
#541=CARTESIAN_POINT('centre point',(0.E0,0.E0,-2.299179995226E0));
#546=DERIVED_UNIT_ELEMENT(#545,2.E0);
#547=DERIVED_UNIT((#546));
#548=MEASURE_REPRESENTATION_ITEM('surface area measure',AREA_MEASURE(
1.009422408948E3),#547);
#553=DERIVED_UNIT_ELEMENT(#552,3.E0);
#554=DERIVED_UNIT((#553));
#555=MEASURE_REPRESENTATION_ITEM('volume measure',VOLUME_MEASURE(
1.564955304311E3),#554);
#559=CARTESIAN_POINT('centre point',(0.E0,0.E0,-2.299179995226E0));
#564=PRODUCT_RELATED_PRODUCT_CATEGORY('part','',(#519));
#1=COLOUR_RGB('',0.E0,0.E0,2.E-1);
#2=DRAUGHTING_PRE_DEFINED_COLOUR('blue');
#3=COLOUR_RGB('',0.E0,9.490196078431E-1,1.E0);
#4=DRAUGHTING_PRE_DEFINED_COLOUR('green');
#5=COLOUR_RGB('',1.098039215686E-1,1.098039215686E-1,1.098039215686E-1);
#6=COLOUR_RGB('',2.E-1,2.E-1,6.E-1);
#7=COLOUR_RGB('',2.E-1,4.E-1,8.E-1);
#8=COLOUR_RGB('',2.745098039216E-1,1.960784313725E-1,3.921568627451E-1);
#9=COLOUR_RGB('',3.01961E-1,3.01961E-1,3.01961E-1);
#10=COLOUR_RGB('',3.921568627451E-1,1.176470588235E-2,1.176470588235E-2);
#11=COLOUR_RGB('',3.92157E-1,3.92157E-1,3.92157E-1);
#12=COLOUR_RGB('',4.117647058824E-1,0.E0,2.196078431373E-1);
#13=COLOUR_RGB('',4.117647058824E-1,2.627450980392E-1,1.137254901961E-1);
#14=COLOUR_RGB('',5.01961E-1,5.01961E-1,5.01961E-1);
#15=COLOUR_RGB('',5.058823529412E-1,1.568627450980E-2,1.568627450980E-2);
#16=COLOUR_RGB('',5.764705882353E-1,5.450980392157E-1,3.921568627451E-1);
#17=COLOUR_RGB('',6.E-1,4.E-1,2.E-1);
#18=COLOUR_RGB('',6.35294E-1,6.86275E-1,7.4902E-1);
#19=COLOUR_RGB('',6.392156862745E-1,6.392156862745E-1,6.392156862745E-1);
#20=COLOUR_RGB('',7.05882E-1,7.05882E-1,7.05882E-1);
#21=COLOUR_RGB('',7.84314E-1,5.29412E-1,7.84314E-1);
#22=COLOUR_RGB('',8.E-1,8.E-1,8.E-1);
#23=COLOUR_RGB('',8.23529E-1,8.23529E-1,8.23529E-1);
#24=COLOUR_RGB('',8.784313725490E-1,9.490196078431E-1,1.E0);
#25=COLOUR_RGB('',9.215686274510E-1,7.058823529412E-1,4.705882352941E-1);
#26=COLOUR_RGB('',9.80392E-1,9.80392E-1,9.80392E-1);
#27=DRAUGHTING_PRE_DEFINED_COLOUR('red');
#28=COLOUR_RGB('',1.E0,0.E0,2.E-1);
#29=COLOUR_RGB('',1.E0,6.66667E-1,0.E0);
#30=COLOUR_RGB('',1.E0,7.63913E-1,1.92109E-1);
#31=COLOUR_RGB('',1.E0,8.39216E-1,8.90196E-1);
#32=DRAUGHTING_PRE_DEFINED_COLOUR('yellow');
#33=COLOUR_RGB('',1.E0,1.E0,5.294117647059E-1);
#34=COLOUR_RGB('',1.E0,1.E0,9.41176E-1);
#40=CIRCLE('',#39,4.E-1);
#56=CIRCLE('',#55,4.E-1);
#71=CIRCLE('',#70,4.E-1);
#86=CIRCLE('',#85,4.E-1);
#246=EDGE_CURVE('',#211,#212,#40,.T.);
#248=EDGE_CURVE('',#224,#211,#48,.T.);
#250=EDGE_CURVE('',#223,#224,#56,.T.);
#252=EDGE_CURVE('',#220,#223,#63,.T.);
#254=EDGE_CURVE('',#219,#220,#71,.T.);
#256=EDGE_CURVE('',#216,#219,#78,.T.);
#258=EDGE_CURVE('',#215,#216,#86,.T.);
#260=EDGE_CURVE('',#212,#215,#93,.T.);
#264=ADVANCED_FACE('',(#263),#245,.T.);
#270=EDGE_CURVE('',#212,#226,#100,.T.);
#272=EDGE_CURVE('',#211,#226,#163,.T.);
#277=ADVANCED_FACE('',(#276),#269,.T.);
#283=EDGE_CURVE('',#236,#240,#128,.T.);
#285=EDGE_CURVE('',#226,#236,#170,.T.);
#289=EDGE_CURVE('',#215,#228,#107,.T.);
#291=EDGE_CURVE('',#228,#240,#114,.T.);
#295=ADVANCED_FACE('',(#294),#282,.T.);
#301=EDGE_CURVE('',#235,#236,#121,.T.);
#304=EDGE_CURVE('',#240,#238,#135,.T.);
#306=EDGE_CURVE('',#238,#235,#142,.T.);
#310=ADVANCED_FACE('',(#309),#300,.F.);
#317=EDGE_CURVE('',#232,#235,#149,.T.);
#319=EDGE_CURVE('',#224,#232,#156,.T.);
#326=ADVANCED_FACE('',(#325),#315,.T.);
#332=EDGE_CURVE('',#220,#230,#177,.T.);
#335=EDGE_CURVE('',#223,#232,#184,.T.);
#339=EDGE_CURVE('',#230,#238,#191,.T.);
#343=ADVANCED_FACE('',(#342),#331,.T.);
#350=EDGE_CURVE('',#219,#230,#205,.T.);
#355=ADVANCED_FACE('',(#354),#348,.T.);
#361=EDGE_CURVE('',#216,#228,#198,.T.);
#370=ADVANCED_FACE('',(#369),#360,.T.);
#381=ADVANCED_FACE('',(#380),#375,.T.);
#392=ADVANCED_FACE('',(#391),#386,.T.);
#393=CLOSED_SHELL('',(#264,#277,#295,#310,#326,#343,#355,#370,#381,#392));
#394=MANIFOLD_SOLID_BREP('',#393);
#419=TRIMMED_CURVE('',#418,(PARAMETER_VALUE(0.E0)),(PARAMETER_VALUE(1.E0)),.T.,
.UNSPECIFIED.);
#423=COMPOSITE_CURVE_SEGMENT(.CONTINUOUS.,.T.,#419);
#428=CIRCLE('',#427,4.E-1);
#429=TRIMMED_CURVE('',#428,(PARAMETER_VALUE(0.E0)),(PARAMETER_VALUE(9.E1)),.T.,
.UNSPECIFIED.);
#433=COMPOSITE_CURVE_SEGMENT(.CONTINUOUS.,.T.,#429);
#438=TRIMMED_CURVE('',#437,(PARAMETER_VALUE(0.E0)),(PARAMETER_VALUE(1.E0)),.T.,
.UNSPECIFIED.);
#442=COMPOSITE_CURVE_SEGMENT(.CONTINUOUS.,.T.,#438);
#447=CIRCLE('',#446,4.E-1);
#448=TRIMMED_CURVE('',#447,(PARAMETER_VALUE(0.E0)),(PARAMETER_VALUE(9.E1)),.T.,
.UNSPECIFIED.);
#452=COMPOSITE_CURVE_SEGMENT(.CONTINUOUS.,.T.,#448);
#457=TRIMMED_CURVE('',#456,(PARAMETER_VALUE(0.E0)),(PARAMETER_VALUE(1.E0)),.T.,
.UNSPECIFIED.);
#461=COMPOSITE_CURVE_SEGMENT(.CONTINUOUS.,.T.,#457);
#466=CIRCLE('',#465,4.E-1);
#467=TRIMMED_CURVE('',#466,(PARAMETER_VALUE(0.E0)),(PARAMETER_VALUE(9.E1)),.T.,
.UNSPECIFIED.);
#471=COMPOSITE_CURVE_SEGMENT(.CONTINUOUS.,.T.,#467);
#476=TRIMMED_CURVE('',#475,(PARAMETER_VALUE(0.E0)),(PARAMETER_VALUE(1.E0)),.T.,
.UNSPECIFIED.);
#480=COMPOSITE_CURVE_SEGMENT(.CONTINUOUS.,.T.,#476);
#485=CIRCLE('',#484,4.E-1);
#486=TRIMMED_CURVE('',#485,(PARAMETER_VALUE(0.E0)),(PARAMETER_VALUE(9.E1)),.T.,
.UNSPECIFIED.);
#490=COMPOSITE_CURVE_SEGMENT(.CONTINUOUS.,.T.,#486);
#491=COMPOSITE_CURVE('',(#423,#433,#442,#452,#461,#471,#480,#490),.F.);
#496=(LENGTH_UNIT()NAMED_UNIT(*)SI_UNIT(.MILLI.,.METRE.));
#497=(NAMED_UNIT(*)PLANE_ANGLE_UNIT()SI_UNIT($,.RADIAN.));
#500=(NAMED_UNIT(*)SI_UNIT($,.STERADIAN.)SOLID_ANGLE_UNIT());
#502=(GEOMETRIC_REPRESENTATION_CONTEXT(3)GLOBAL_UNCERTAINTY_ASSIGNED_CONTEXT((
#501))GLOBAL_UNIT_ASSIGNED_CONTEXT((#496,#499,#500))REPRESENTATION_CONTEXT
('ID1','3'));
#503=ADVANCED_BREP_SHAPE_REPRESENTATION('',(#394),#502);
#504=GEOMETRICALLY_BOUNDED_WIREFRAME_SHAPE_REPRESENTATION('',(#492),#502);
#505=CONSTRUCTIVE_GEOMETRY_REPRESENTATION('supplemental geometry',(#404,#411),
#502);
#509=AXIS2_PLACEMENT_3D('',#506,#507,#508);
#510=SHAPE_REPRESENTATION('',(#509),#502);
#521=PRODUCT_DEFINITION('part definition','',#520,#517);
#522=PRODUCT_DEFINITION_SHAPE('','SHAPE FOR SP190404N.',#521);
#523=SHAPE_ASPECT('','solid data associated with SP190404N',#522,.F.);
#524=PROPERTY_DEFINITION('',
'shape for solid data with which properties are associated',#523);
#525=SHAPE_REPRESENTATION('',(#394),#502);
#526=SHAPE_DEFINITION_REPRESENTATION(#524,#525);
#527=(LENGTH_UNIT()NAMED_UNIT(*)SI_UNIT(.MILLI.,.METRE.));
#531=PROPERTY_DEFINITION('geometric validation property','area of SP190404N',
#523);
#532=REPRESENTATION('surface area',(#530),#502);
#533=PROPERTY_DEFINITION_REPRESENTATION(#531,#532);
#534=(LENGTH_UNIT()NAMED_UNIT(*)SI_UNIT(.MILLI.,.METRE.));
#538=PROPERTY_DEFINITION('geometric validation property','volume of SP190404N',
#523);
#539=REPRESENTATION('volume',(#537),#502);
#540=PROPERTY_DEFINITION_REPRESENTATION(#538,#539);
#542=PROPERTY_DEFINITION('geometric validation property',
'centroid of SP190404N',#523);
#543=REPRESENTATION('centroid',(#541),#502);
#544=PROPERTY_DEFINITION_REPRESENTATION(#542,#543);
#545=(LENGTH_UNIT()NAMED_UNIT(*)SI_UNIT(.MILLI.,.METRE.));
#549=PROPERTY_DEFINITION('geometric validation property','area of SP190404N',
#522);
#550=REPRESENTATION('surface area',(#548),#502);
#551=PROPERTY_DEFINITION_REPRESENTATION(#549,#550);
#552=(LENGTH_UNIT()NAMED_UNIT(*)SI_UNIT(.MILLI.,.METRE.));
#556=PROPERTY_DEFINITION('geometric validation property','volume of SP190404N',
#522);
#557=REPRESENTATION('volume',(#555),#502);
#558=PROPERTY_DEFINITION_REPRESENTATION(#556,#557);
#560=PROPERTY_DEFINITION('geometric validation property',
'centroid of SP190404N',#522);
#561=REPRESENTATION('centroid',(#559),#502);
#562=PROPERTY_DEFINITION_REPRESENTATION(#560,#561);
#563=SHAPE_DEFINITION_REPRESENTATION(#522,#510);
ENDSEC;
END-ISO-10303-21;
