ISO-10303-21;
HEADER;
/* Generated by software containing ST-Developer
 * from STEP Tools, Inc. (www.steptools.com) 
 */
/* OPTION: using custom schema-name function */

FILE_DESCRIPTION(
/* description */ (''),
/* implementation_level */ '2;1');

FILE_NAME(
/* name */ 'SPMN120308.stp',
/* time_stamp */ '2021-12-22T08:51:10+09:00',
/* author */ (''),
/* organization */ (''),
/* preprocessor_version */ 'ST-DEVELOPER v16',
/* originating_system */ 'SIEMENS PLM Software NX 10.0',
/* authorisation */ '');

FILE_SCHEMA (('AUTOMOTIVE_DESIGN { 1 0 10303 214 3 1 1 1 }'));
ENDSEC;

DATA;
#10=CONSTRUCTIVE_GEOMETRY_REPRESENTATION_RELATIONSHIP(
'supplemental geometry','',#26,#11);
#11=CONSTRUCTIVE_GEOMETRY_REPRESENTATION('supplemental geometry',(#288,
#289,#290),#446);
#12=GEOMETRICALLY_BOUNDED_WIREFRAME_SHAPE_REPRESENTATION(
'SPMN120308-None',(#27),#446);
#13=SHAPE_REPRESENTATION_RELATIONSHIP('None',
'relationship between SPMN120308-None and SPMN120308-None',#26,#15);
#14=SHAPE_REPRESENTATION_RELATIONSHIP('None',
'relationship between SPMN120308-None and SPMN120308-None',#26,#12);
#15=ADVANCED_BREP_SHAPE_REPRESENTATION('SPMN120308-None',(#33),#446);
#16=SHAPE_DEFINITION_REPRESENTATION(#17,#26);
#17=PRODUCT_DEFINITION_SHAPE('','',#18);
#18=PRODUCT_DEFINITION('part definition','',#20,#19);
#19=PRODUCT_DEFINITION_CONTEXT('part definition',#25,'design');
#20=PRODUCT_DEFINITION_FORMATION_WITH_SPECIFIED_SOURCE(' ',' ',#22,
 .NOT_KNOWN.);
#21=PRODUCT_RELATED_PRODUCT_CATEGORY('part','',(#22));
#22=PRODUCT('SPMN120308','SPMN120308','NOT SPECIFIED',(#23));
#23=PRODUCT_CONTEXT('',#25,'mechanical');
#24=APPLICATION_PROTOCOL_DEFINITION('international standard',
'automotive_design',2010,#25);
#25=APPLICATION_CONTEXT(
'core data for automotive mechanical design processes');
#26=SHAPE_REPRESENTATION('SPMN120308-None',(#283),#446);
#27=GEOMETRIC_CURVE_SET('None',(#382,#383,#199,#200,#201,#202,#203,#204,
#205,#206));
#28=SURFACE_STYLE_USAGE(.BOTH.,#29);
#29=SURFACE_SIDE_STYLE('',(#30));
#30=SURFACE_STYLE_FILL_AREA(#31);
#31=FILL_AREA_STYLE('',(#32));
#32=FILL_AREA_STYLE_COLOUR('',#164);
#33=MANIFOLD_SOLID_BREP('',#34);
#34=CLOSED_SHELL('',(#39,#40,#41,#42,#43,#44,#45,#46,#47,#48));
#35=CONICAL_SURFACE('',#297,0.490935308471,11.);
#36=CONICAL_SURFACE('',#300,0.490935308471,11.);
#37=CONICAL_SURFACE('',#303,0.490935308471,11.);
#38=CONICAL_SURFACE('',#306,0.490935308471,11.);
#39=ADVANCED_FACE('',(#55),#49,.T.);
#40=ADVANCED_FACE('',(#56),#35,.T.);
#41=ADVANCED_FACE('',(#57),#50,.T.);
#42=ADVANCED_FACE('',(#58),#36,.T.);
#43=ADVANCED_FACE('',(#59),#51,.T.);
#44=ADVANCED_FACE('',(#60),#37,.T.);
#45=ADVANCED_FACE('',(#61),#52,.T.);
#46=ADVANCED_FACE('',(#62),#38,.T.);
#47=ADVANCED_FACE('',(#63),#53,.T.);
#48=ADVANCED_FACE('',(#64),#54,.F.);
#49=PLANE('',#295);
#50=PLANE('',#298);
#51=PLANE('',#301);
#52=PLANE('',#304);
#53=PLANE('',#307);
#54=PLANE('',#308);
#55=FACE_OUTER_BOUND('',#65,.T.);
#56=FACE_OUTER_BOUND('',#66,.T.);
#57=FACE_OUTER_BOUND('',#67,.T.);
#58=FACE_OUTER_BOUND('',#68,.T.);
#59=FACE_OUTER_BOUND('',#69,.T.);
#60=FACE_OUTER_BOUND('',#70,.T.);
#61=FACE_OUTER_BOUND('',#71,.T.);
#62=FACE_OUTER_BOUND('',#72,.T.);
#63=FACE_OUTER_BOUND('',#73,.T.);
#64=FACE_OUTER_BOUND('',#74,.T.);
#65=EDGE_LOOP('',(#75,#76,#77,#78,#79,#80,#81,#82));
#66=EDGE_LOOP('',(#83,#84,#85,#86));
#67=EDGE_LOOP('',(#87,#88,#89,#90));
#68=EDGE_LOOP('',(#91,#92,#93,#94));
#69=EDGE_LOOP('',(#95,#96,#97,#98));
#70=EDGE_LOOP('',(#99,#100,#101,#102));
#71=EDGE_LOOP('',(#103,#104,#105,#106));
#72=EDGE_LOOP('',(#107,#108,#109,#110));
#73=EDGE_LOOP('',(#111,#112,#113,#114));
#74=EDGE_LOOP('',(#115,#116,#117,#118,#119,#120,#121,#122));
#75=ORIENTED_EDGE('',*,*,#139,.T.);
#76=ORIENTED_EDGE('',*,*,#140,.F.);
#77=ORIENTED_EDGE('',*,*,#141,.T.);
#78=ORIENTED_EDGE('',*,*,#142,.F.);
#79=ORIENTED_EDGE('',*,*,#143,.T.);
#80=ORIENTED_EDGE('',*,*,#144,.F.);
#81=ORIENTED_EDGE('',*,*,#145,.T.);
#82=ORIENTED_EDGE('',*,*,#146,.F.);
#83=ORIENTED_EDGE('',*,*,#147,.F.);
#84=ORIENTED_EDGE('',*,*,#148,.T.);
#85=ORIENTED_EDGE('',*,*,#149,.F.);
#86=ORIENTED_EDGE('',*,*,#146,.T.);
#87=ORIENTED_EDGE('',*,*,#149,.T.);
#88=ORIENTED_EDGE('',*,*,#150,.F.);
#89=ORIENTED_EDGE('',*,*,#151,.T.);
#90=ORIENTED_EDGE('',*,*,#139,.F.);
#91=ORIENTED_EDGE('',*,*,#151,.F.);
#92=ORIENTED_EDGE('',*,*,#152,.T.);
#93=ORIENTED_EDGE('',*,*,#153,.F.);
#94=ORIENTED_EDGE('',*,*,#140,.T.);
#95=ORIENTED_EDGE('',*,*,#153,.T.);
#96=ORIENTED_EDGE('',*,*,#154,.F.);
#97=ORIENTED_EDGE('',*,*,#155,.T.);
#98=ORIENTED_EDGE('',*,*,#141,.F.);
#99=ORIENTED_EDGE('',*,*,#155,.F.);
#100=ORIENTED_EDGE('',*,*,#156,.T.);
#101=ORIENTED_EDGE('',*,*,#157,.F.);
#102=ORIENTED_EDGE('',*,*,#142,.T.);
#103=ORIENTED_EDGE('',*,*,#157,.T.);
#104=ORIENTED_EDGE('',*,*,#158,.F.);
#105=ORIENTED_EDGE('',*,*,#159,.T.);
#106=ORIENTED_EDGE('',*,*,#143,.F.);
#107=ORIENTED_EDGE('',*,*,#159,.F.);
#108=ORIENTED_EDGE('',*,*,#160,.T.);
#109=ORIENTED_EDGE('',*,*,#161,.F.);
#110=ORIENTED_EDGE('',*,*,#144,.T.);
#111=ORIENTED_EDGE('',*,*,#161,.T.);
#112=ORIENTED_EDGE('',*,*,#162,.F.);
#113=ORIENTED_EDGE('',*,*,#147,.T.);
#114=ORIENTED_EDGE('',*,*,#145,.F.);
#115=ORIENTED_EDGE('',*,*,#150,.T.);
#116=ORIENTED_EDGE('',*,*,#148,.F.);
#117=ORIENTED_EDGE('',*,*,#162,.T.);
#118=ORIENTED_EDGE('',*,*,#160,.F.);
#119=ORIENTED_EDGE('',*,*,#158,.T.);
#120=ORIENTED_EDGE('',*,*,#156,.F.);
#121=ORIENTED_EDGE('',*,*,#154,.T.);
#122=ORIENTED_EDGE('',*,*,#152,.F.);
#123=VERTEX_POINT('',#396);
#124=VERTEX_POINT('',#397);
#125=VERTEX_POINT('',#399);
#126=VERTEX_POINT('',#401);
#127=VERTEX_POINT('',#403);
#128=VERTEX_POINT('',#405);
#129=VERTEX_POINT('',#407);
#130=VERTEX_POINT('',#409);
#131=VERTEX_POINT('',#413);
#132=VERTEX_POINT('',#415);
#133=VERTEX_POINT('',#419);
#134=VERTEX_POINT('',#423);
#135=VERTEX_POINT('',#427);
#136=VERTEX_POINT('',#431);
#137=VERTEX_POINT('',#435);
#138=VERTEX_POINT('',#439);
#139=EDGE_CURVE('',#123,#124,#211,.T.);
#140=EDGE_CURVE('',#125,#124,#169,.T.);
#141=EDGE_CURVE('',#125,#126,#212,.T.);
#142=EDGE_CURVE('',#127,#126,#170,.T.);
#143=EDGE_CURVE('',#127,#128,#213,.T.);
#144=EDGE_CURVE('',#129,#128,#171,.T.);
#145=EDGE_CURVE('',#129,#130,#214,.T.);
#146=EDGE_CURVE('',#123,#130,#172,.T.);
#147=EDGE_CURVE('',#131,#130,#215,.T.);
#148=EDGE_CURVE('',#131,#132,#173,.T.);
#149=EDGE_CURVE('',#123,#132,#216,.T.);
#150=EDGE_CURVE('',#133,#132,#217,.T.);
#151=EDGE_CURVE('',#133,#124,#218,.T.);
#152=EDGE_CURVE('',#133,#134,#174,.T.);
#153=EDGE_CURVE('',#125,#134,#219,.T.);
#154=EDGE_CURVE('',#135,#134,#220,.T.);
#155=EDGE_CURVE('',#135,#126,#221,.T.);
#156=EDGE_CURVE('',#135,#136,#175,.T.);
#157=EDGE_CURVE('',#127,#136,#222,.T.);
#158=EDGE_CURVE('',#137,#136,#223,.T.);
#159=EDGE_CURVE('',#137,#128,#224,.T.);
#160=EDGE_CURVE('',#137,#138,#176,.T.);
#161=EDGE_CURVE('',#129,#138,#225,.T.);
#162=EDGE_CURVE('',#131,#138,#226,.T.);
#163=COLOUR_RGB('Strong Stone',0.576470588235294,0.54508278019379,0.392156862745098);
#164=COLOUR_RGB('cutting part',0.8,0.8,0.8);
#165=CIRCLE('',#284,0.8);
#166=CIRCLE('',#285,0.8);
#167=CIRCLE('',#286,0.8);
#168=CIRCLE('',#287,0.8);
#169=CIRCLE('',#291,0.8);
#170=CIRCLE('',#292,0.8);
#171=CIRCLE('',#293,0.8);
#172=CIRCLE('',#294,0.8);
#173=CIRCLE('',#296,0.181870616942);
#174=CIRCLE('',#299,0.181870616942);
#175=CIRCLE('',#302,0.181870616942);
#176=CIRCLE('',#305,0.181870616942);
#177=CURVE_STYLE('',#188,POSITIVE_LENGTH_MEASURE(0.18),#282);
#178=CURVE_STYLE('',#189,POSITIVE_LENGTH_MEASURE(0.18),#282);
#179=CURVE_STYLE('',#190,POSITIVE_LENGTH_MEASURE(0.18),#282);
#180=CURVE_STYLE('',#191,POSITIVE_LENGTH_MEASURE(0.18),#282);
#181=CURVE_STYLE('',#192,POSITIVE_LENGTH_MEASURE(0.18),#282);
#182=CURVE_STYLE('',#193,POSITIVE_LENGTH_MEASURE(0.18),#282);
#183=CURVE_STYLE('',#194,POSITIVE_LENGTH_MEASURE(0.18),#282);
#184=CURVE_STYLE('',#195,POSITIVE_LENGTH_MEASURE(0.18),#282);
#185=CURVE_STYLE('',#196,POSITIVE_LENGTH_MEASURE(0.13),#281);
#186=CURVE_STYLE('',#197,POSITIVE_LENGTH_MEASURE(0.13),#281);
#187=CURVE_STYLE('',#198,POSITIVE_LENGTH_MEASURE(0.13),#163);
#188=DRAUGHTING_PRE_DEFINED_CURVE_FONT('continuous');
#189=DRAUGHTING_PRE_DEFINED_CURVE_FONT('continuous');
#190=DRAUGHTING_PRE_DEFINED_CURVE_FONT('continuous');
#191=DRAUGHTING_PRE_DEFINED_CURVE_FONT('continuous');
#192=DRAUGHTING_PRE_DEFINED_CURVE_FONT('continuous');
#193=DRAUGHTING_PRE_DEFINED_CURVE_FONT('continuous');
#194=DRAUGHTING_PRE_DEFINED_CURVE_FONT('continuous');
#195=DRAUGHTING_PRE_DEFINED_CURVE_FONT('continuous');
#196=DRAUGHTING_PRE_DEFINED_CURVE_FONT('continuous');
#197=DRAUGHTING_PRE_DEFINED_CURVE_FONT('continuous');
#198=DRAUGHTING_PRE_DEFINED_CURVE_FONT('continuous');
#199=TRIMMED_CURVE('',#207,(PARAMETER_VALUE(0.)),(PARAMETER_VALUE(1.)),
 .T.,.PARAMETER.);
#200=TRIMMED_CURVE('',#208,(PARAMETER_VALUE(0.)),(PARAMETER_VALUE(1.)),
 .T.,.PARAMETER.);
#201=TRIMMED_CURVE('',#209,(PARAMETER_VALUE(0.)),(PARAMETER_VALUE(1.)),
 .T.,.PARAMETER.);
#202=TRIMMED_CURVE('',#210,(PARAMETER_VALUE(0.)),(PARAMETER_VALUE(1.)),
 .T.,.PARAMETER.);
#203=TRIMMED_CURVE('',#165,(PARAMETER_VALUE(0.)),(PARAMETER_VALUE(90.)),
 .T.,.PARAMETER.);
#204=TRIMMED_CURVE('',#166,(PARAMETER_VALUE(0.)),(PARAMETER_VALUE(90.)),
 .T.,.PARAMETER.);
#205=TRIMMED_CURVE('',#167,(PARAMETER_VALUE(0.)),(PARAMETER_VALUE(90.)),
 .T.,.PARAMETER.);
#206=TRIMMED_CURVE('',#168,(PARAMETER_VALUE(0.)),(PARAMETER_VALUE(90.)),
 .T.,.PARAMETER.);
#207=LINE('',#384,#227);
#208=LINE('',#385,#228);
#209=LINE('',#386,#229);
#210=LINE('',#387,#230);
#211=LINE('',#395,#231);
#212=LINE('',#400,#232);
#213=LINE('',#404,#233);
#214=LINE('',#408,#234);
#215=LINE('',#412,#235);
#216=LINE('',#416,#236);
#217=LINE('',#418,#237);
#218=LINE('',#420,#238);
#219=LINE('',#424,#239);
#220=LINE('',#426,#240);
#221=LINE('',#428,#241);
#222=LINE('',#432,#242);
#223=LINE('',#434,#243);
#224=LINE('',#436,#244);
#225=LINE('',#440,#245);
#226=LINE('',#442,#246);
#227=VECTOR('',#311,11.1);
#228=VECTOR('',#312,11.1);
#229=VECTOR('',#313,11.1);
#230=VECTOR('',#314,11.1);
#231=VECTOR('',#329,1.);
#232=VECTOR('',#332,1.);
#233=VECTOR('',#335,1.);
#234=VECTOR('',#338,1.);
#235=VECTOR('',#343,1.);
#236=VECTOR('',#346,1.);
#237=VECTOR('',#349,1.);
#238=VECTOR('',#350,1.);
#239=VECTOR('',#355,1.);
#240=VECTOR('',#358,1.);
#241=VECTOR('',#359,1.);
#242=VECTOR('',#364,1.);
#243=VECTOR('',#367,1.);
#244=VECTOR('',#368,1.);
#245=VECTOR('',#373,1.);
#246=VECTOR('',#376,1.);
#247=PRESENTATION_LAYER_ASSIGNMENT('1','Layer 1',(#382,#383,#288,#289,#290,
#33));
#248=PRESENTATION_LAYER_ASSIGNMENT('2','Layer 2',(#199,#200,#201,#202,#203,
#204,#205,#206));
#249=STYLED_ITEM('',(#263),#382);
#250=STYLED_ITEM('',(#264),#383);
#251=STYLED_ITEM('',(#265),#199);
#252=STYLED_ITEM('',(#266),#200);
#253=STYLED_ITEM('',(#267),#201);
#254=STYLED_ITEM('',(#268),#202);
#255=STYLED_ITEM('',(#269),#203);
#256=STYLED_ITEM('',(#270),#204);
#257=STYLED_ITEM('',(#271),#205);
#258=STYLED_ITEM('',(#272),#206);
#259=STYLED_ITEM('',(#273),#288);
#260=STYLED_ITEM('',(#274),#289);
#261=STYLED_ITEM('',(#275),#290);
#262=STYLED_ITEM('',(#276),#33);
#263=PRESENTATION_STYLE_ASSIGNMENT((#277));
#264=PRESENTATION_STYLE_ASSIGNMENT((#278));
#265=PRESENTATION_STYLE_ASSIGNMENT((#177));
#266=PRESENTATION_STYLE_ASSIGNMENT((#178));
#267=PRESENTATION_STYLE_ASSIGNMENT((#179));
#268=PRESENTATION_STYLE_ASSIGNMENT((#180));
#269=PRESENTATION_STYLE_ASSIGNMENT((#181));
#270=PRESENTATION_STYLE_ASSIGNMENT((#182));
#271=PRESENTATION_STYLE_ASSIGNMENT((#183));
#272=PRESENTATION_STYLE_ASSIGNMENT((#184));
#273=PRESENTATION_STYLE_ASSIGNMENT((#185));
#274=PRESENTATION_STYLE_ASSIGNMENT((#186));
#275=PRESENTATION_STYLE_ASSIGNMENT((#187));
#276=PRESENTATION_STYLE_ASSIGNMENT((#28));
#277=POINT_STYLE('',#279,POSITIVE_LENGTH_MEASURE(3.),#281);
#278=POINT_STYLE('',#280,POSITIVE_LENGTH_MEASURE(3.),#281);
#279=PRE_DEFINED_POINT_MARKER_SYMBOL('plus');
#280=PRE_DEFINED_POINT_MARKER_SYMBOL('plus');
#281=DRAUGHTING_PRE_DEFINED_COLOUR('yellow');
#282=DRAUGHTING_PRE_DEFINED_COLOUR('blue');
#283=AXIS2_PLACEMENT_3D('',#381,#309,#310);
#284=AXIS2_PLACEMENT_3D('',#388,#315,#316);
#285=AXIS2_PLACEMENT_3D('',#389,#317,#318);
#286=AXIS2_PLACEMENT_3D('',#390,#319,#320);
#287=AXIS2_PLACEMENT_3D('',#391,#321,#322);
#288=AXIS2_PLACEMENT_3D('MCS',#392,#323,#324);
#289=AXIS2_PLACEMENT_3D('PCS',#393,#325,#326);
#290=AXIS2_PLACEMENT_3D('',#394,#327,#328);
#291=AXIS2_PLACEMENT_3D('',#398,#330,#331);
#292=AXIS2_PLACEMENT_3D('',#402,#333,#334);
#293=AXIS2_PLACEMENT_3D('',#406,#336,#337);
#294=AXIS2_PLACEMENT_3D('',#410,#339,#340);
#295=AXIS2_PLACEMENT_3D('',#411,#341,#342);
#296=AXIS2_PLACEMENT_3D('',#414,#344,#345);
#297=AXIS2_PLACEMENT_3D('',#417,#347,#348);
#298=AXIS2_PLACEMENT_3D('',#421,#351,#352);
#299=AXIS2_PLACEMENT_3D('',#422,#353,#354);
#300=AXIS2_PLACEMENT_3D('',#425,#356,#357);
#301=AXIS2_PLACEMENT_3D('',#429,#360,#361);
#302=AXIS2_PLACEMENT_3D('',#430,#362,#363);
#303=AXIS2_PLACEMENT_3D('',#433,#365,#366);
#304=AXIS2_PLACEMENT_3D('',#437,#369,#370);
#305=AXIS2_PLACEMENT_3D('',#438,#371,#372);
#306=AXIS2_PLACEMENT_3D('',#441,#374,#375);
#307=AXIS2_PLACEMENT_3D('',#443,#377,#378);
#308=AXIS2_PLACEMENT_3D('',#444,#379,#380);
#309=DIRECTION('',(0.,0.,1.));
#310=DIRECTION('',(1.,0.,0.));
#311=DIRECTION('',(-1.,0.,0.));
#312=DIRECTION('',(0.,-1.,0.));
#313=DIRECTION('',(1.,0.,0.));
#314=DIRECTION('',(0.,1.,0.));
#315=DIRECTION('',(0.,0.,1.));
#316=DIRECTION('',(1.,0.,0.));
#317=DIRECTION('',(0.,0.,1.));
#318=DIRECTION('',(0.,1.,0.));
#319=DIRECTION('',(0.,0.,1.));
#320=DIRECTION('',(-1.,0.,0.));
#321=DIRECTION('',(0.,0.,1.));
#322=DIRECTION('',(0.,-1.,0.));
#323=DIRECTION('',(0.,0.,1.));
#324=DIRECTION('',(1.,0.,0.));
#325=DIRECTION('',(0.,0.,1.));
#326=DIRECTION('',(1.,0.,0.));
#327=DIRECTION('',(0.,0.,1.));
#328=DIRECTION('',(1.,0.,0.));
#329=DIRECTION('',(-1.,0.,0.));
#330=DIRECTION('',(0.,0.,-1.));
#331=DIRECTION('',(-1.,0.,0.));
#332=DIRECTION('',(0.,-1.,0.));
#333=DIRECTION('',(0.,0.,-1.));
#334=DIRECTION('',(0.,-1.,0.));
#335=DIRECTION('',(1.,0.,0.));
#336=DIRECTION('',(0.,0.,-1.));
#337=DIRECTION('',(1.,0.,0.));
#338=DIRECTION('',(0.,1.,0.));
#339=DIRECTION('',(0.,0.,-1.));
#340=DIRECTION('',(0.,1.,0.));
#341=DIRECTION('',(0.,0.,1.));
#342=DIRECTION('',(0.,1.,0.));
#343=DIRECTION('',(0.190808995376495,-9.04760460926576E-14,0.981627183447674));
#344=DIRECTION('',(0.,0.,1.));
#345=DIRECTION('',(0.999999999999999,4.83111266325366E-12,0.));
#346=DIRECTION('',(9.07502159292976E-14,-0.190808995376495,-0.981627183447674));
#347=DIRECTION('',(0.,0.,1.));
#348=DIRECTION('',(0.,1.,1.01259062594456E-16));
#349=DIRECTION('',(1.,0.,0.));
#350=DIRECTION('',(9.04760460926576E-14,0.190808995376495,0.981627183447674));
#351=DIRECTION('',(0.,0.981627183447674,-0.190808995376495));
#352=DIRECTION('',(-1.,0.,0.));
#353=DIRECTION('',(0.,0.,1.));
#354=DIRECTION('',(-4.83111266325366E-12,0.999999999999999,0.));
#355=DIRECTION('',(0.190808995376495,9.07502159292976E-14,-0.981627183447674));
#356=DIRECTION('',(0.,0.,1.));
#357=DIRECTION('',(0.,1.,1.01259062594456E-16));
#358=DIRECTION('',(0.,1.,0.));
#359=DIRECTION('',(-0.190808995376495,9.04760460926576E-14,0.981627183447674));
#360=DIRECTION('',(-0.981627183447674,0.,-0.190808995376495));
#361=DIRECTION('',(0.,-1.,0.));
#362=DIRECTION('',(0.,0.,1.));
#363=DIRECTION('',(-0.999999999999999,-4.83111266325366E-12,0.));
#364=DIRECTION('',(-9.07502159292976E-14,0.190808995376495,-0.981627183447674));
#365=DIRECTION('',(0.,0.,1.));
#366=DIRECTION('',(0.,1.,1.01259062594456E-16));
#367=DIRECTION('',(-1.,0.,0.));
#368=DIRECTION('',(-9.04760460926576E-14,-0.190808995376495,0.981627183447674));
#369=DIRECTION('',(0.,-0.981627183447674,-0.190808995376495));
#370=DIRECTION('',(1.,0.,0.));
#371=DIRECTION('',(0.,0.,1.));
#372=DIRECTION('',(4.83111266325366E-12,-0.999999999999999,0.));
#373=DIRECTION('',(-0.190808995376495,-9.07502159292976E-14,-0.981627183447674));
#374=DIRECTION('',(0.,0.,1.));
#375=DIRECTION('',(0.,1.,1.01259062594456E-16));
#376=DIRECTION('',(0.,-1.,0.));
#377=DIRECTION('',(0.981627183447674,0.,-0.190808995376495));
#378=DIRECTION('',(0.,1.,0.));
#379=DIRECTION('',(0.,0.,1.));
#380=DIRECTION('',(0.,1.,0.));
#381=CARTESIAN_POINT('',(0.,0.,0.));
#382=CARTESIAN_POINT('',(0.,0.,0.));
#383=CARTESIAN_POINT('',(-6.35,-6.35,0.));
#384=CARTESIAN_POINT('',(5.55,6.35,0.));
#385=CARTESIAN_POINT('',(-6.35,5.55,0.));
#386=CARTESIAN_POINT('',(-5.55,-6.35,0.));
#387=CARTESIAN_POINT('',(6.35,-5.55,0.));
#388=CARTESIAN_POINT('',(5.55,5.55,0.));
#389=CARTESIAN_POINT('',(-5.55,5.55,0.));
#390=CARTESIAN_POINT('',(-5.55,-5.55,0.));
#391=CARTESIAN_POINT('',(5.55,-5.55,0.));
#392=CARTESIAN_POINT('',(0.,0.,0.));
#393=CARTESIAN_POINT('',(-6.35,-6.35,0.));
#394=CARTESIAN_POINT('',(0.,0.,0.));
#395=CARTESIAN_POINT('',(5.55,6.35,0.));
#396=CARTESIAN_POINT('',(5.55,6.35,0.));
#397=CARTESIAN_POINT('',(-5.55,6.35,0.));
#398=CARTESIAN_POINT('',(-5.55,5.55,0.));
#399=CARTESIAN_POINT('',(-6.35,5.55,0.));
#400=CARTESIAN_POINT('',(-6.35,5.55,0.));
#401=CARTESIAN_POINT('',(-6.35,-5.55,0.));
#402=CARTESIAN_POINT('',(-5.55,-5.55,0.));
#403=CARTESIAN_POINT('',(-5.55,-6.35,0.));
#404=CARTESIAN_POINT('',(-5.55,-6.35,0.));
#405=CARTESIAN_POINT('',(5.55,-6.35,0.));
#406=CARTESIAN_POINT('',(5.55,-5.55,0.));
#407=CARTESIAN_POINT('',(6.35,-5.55,0.));
#408=CARTESIAN_POINT('',(6.35,-5.55,0.));
#409=CARTESIAN_POINT('',(6.35,5.55,0.));
#410=CARTESIAN_POINT('',(5.55,5.55,0.));
#411=CARTESIAN_POINT('',(0.,0.,0.));
#412=CARTESIAN_POINT('',(5.731870616942,5.55,-3.18));
#413=CARTESIAN_POINT('',(5.731870616942,5.550000000001,-3.18));
#414=CARTESIAN_POINT('',(5.55,5.55,-3.18));
#415=CARTESIAN_POINT('',(5.55,5.731870616942,-3.18));
#416=CARTESIAN_POINT('',(5.55,6.35,0.));
#417=CARTESIAN_POINT('',(5.55,5.55,-1.59));
#418=CARTESIAN_POINT('',(-5.55,5.731870616942,-3.18));
#419=CARTESIAN_POINT('',(-5.55,5.731870616942,-3.18));
#420=CARTESIAN_POINT('',(-5.55,5.731870616942,-3.18));
#421=CARTESIAN_POINT('',(5.55,6.35,0.));
#422=CARTESIAN_POINT('',(-5.55,5.55,-3.18));
#423=CARTESIAN_POINT('',(-5.731870616942,5.55,-3.18));
#424=CARTESIAN_POINT('',(-6.35,5.55,0.));
#425=CARTESIAN_POINT('',(-5.55,5.55,-1.59));
#426=CARTESIAN_POINT('',(-5.731870616942,-5.55,-3.18));
#427=CARTESIAN_POINT('',(-5.731870616942,-5.55,-3.18));
#428=CARTESIAN_POINT('',(-5.731870616942,-5.55,-3.18));
#429=CARTESIAN_POINT('',(-6.35,5.55,0.));
#430=CARTESIAN_POINT('',(-5.55,-5.55,-3.18));
#431=CARTESIAN_POINT('',(-5.55,-5.731870616942,-3.18));
#432=CARTESIAN_POINT('',(-5.55,-6.35,0.));
#433=CARTESIAN_POINT('',(-5.55,-5.55,-1.59));
#434=CARTESIAN_POINT('',(5.55,-5.731870616942,-3.18));
#435=CARTESIAN_POINT('',(5.55,-5.731870616942,-3.18));
#436=CARTESIAN_POINT('',(5.55,-5.731870616942,-3.18));
#437=CARTESIAN_POINT('',(-5.55,-6.35,0.));
#438=CARTESIAN_POINT('',(5.55,-5.55,-3.18));
#439=CARTESIAN_POINT('',(5.731870616942,-5.55,-3.18));
#440=CARTESIAN_POINT('',(6.35,-5.55,0.));
#441=CARTESIAN_POINT('',(5.55,-5.55,-1.59));
#442=CARTESIAN_POINT('',(5.731870616942,5.55,-3.18));
#443=CARTESIAN_POINT('',(6.35,-5.55,0.));
#444=CARTESIAN_POINT('',(0.,0.,-3.18));
#445=MECHANICAL_DESIGN_GEOMETRIC_PRESENTATION_REPRESENTATION('',(#249,#250,
#251,#252,#253,#254,#255,#256,#257,#258,#259,#260,#261,#262),#446);
#446=(
GEOMETRIC_REPRESENTATION_CONTEXT(3)
GLOBAL_UNCERTAINTY_ASSIGNED_CONTEXT((#447))
GLOBAL_UNIT_ASSIGNED_CONTEXT((#453,#449,#448))
REPRESENTATION_CONTEXT('SPMN120308','TOP_LEVEL_ASSEMBLY_PART')
);
#447=UNCERTAINTY_MEASURE_WITH_UNIT(LENGTH_MEASURE(2.E-5),#453,
'DISTANCE_ACCURACY_VALUE','Maximum Tolerance applied to model');
#448=(
NAMED_UNIT(*)
SI_UNIT($,.STERADIAN.)
SOLID_ANGLE_UNIT()
);
#449=(
CONVERSION_BASED_UNIT('DEGREE',#451)
NAMED_UNIT(#450)
PLANE_ANGLE_UNIT()
);
#450=DIMENSIONAL_EXPONENTS(0.,0.,0.,0.,0.,0.,0.);
#451=PLANE_ANGLE_MEASURE_WITH_UNIT(PLANE_ANGLE_MEASURE(0.0174532925),#452);
#452=(
NAMED_UNIT(*)
PLANE_ANGLE_UNIT()
SI_UNIT($,.RADIAN.)
);
#453=(
LENGTH_UNIT()
NAMED_UNIT(*)
SI_UNIT(.MILLI.,.METRE.)
);
ENDSEC;
END-ISO-10303-21;
