ISO-10303-21;
HEADER;
/* Generated by software containing ST-Developer
 * from STEP Tools, Inc. (www.steptools.com) 
 */
/* OPTION: using custom schema-name function */

FILE_DESCRIPTION(
/* description */ (''),
/* implementation_level */ '2;1');

FILE_NAME(
/* name */ 'VC130302N.stp',
/* time_stamp */ '2023-10-12T15:40:08+09:00',
/* author */ (''),
/* organization */ (''),
/* preprocessor_version */ 'ST-DEVELOPER v16',
/* originating_system */ 'SIEMENS PLM Software NX 10.0',
/* authorisation */ '');

FILE_SCHEMA (('AUTOMOTIVE_DESIGN { 1 0 10303 214 3 1 1 1 }'));
ENDSEC;

DATA;
#10=CONSTRUCTIVE_GEOMETRY_REPRESENTATION_RELATIONSHIP(
'supplemental geometry','',#26,#11);
#11=CONSTRUCTIVE_GEOMETRY_REPRESENTATION('supplemental geometry',(#390,
#391,#392),#620);
#12=GEOMETRICALLY_BOUNDED_WIREFRAME_SHAPE_REPRESENTATION(
'VC130302N-None',(#27),#620);
#13=SHAPE_REPRESENTATION_RELATIONSHIP('None',
'relationship between VC130302N-None and VC130302N-None',#26,#15);
#14=SHAPE_REPRESENTATION_RELATIONSHIP('None',
'relationship between VC130302N-None and VC130302N-None',#26,#12);
#15=ADVANCED_BREP_SHAPE_REPRESENTATION('VC130302N-None',(#33),#620);
#16=SHAPE_DEFINITION_REPRESENTATION(#17,#26);
#17=PRODUCT_DEFINITION_SHAPE('','',#18);
#18=PRODUCT_DEFINITION('part definition','',#20,#19);
#19=PRODUCT_DEFINITION_CONTEXT('part definition',#25,'design');
#20=PRODUCT_DEFINITION_FORMATION_WITH_SPECIFIED_SOURCE(' ',' ',#22,
 .NOT_KNOWN.);
#21=PRODUCT_RELATED_PRODUCT_CATEGORY('part','',(#22));
#22=PRODUCT('VC130302N','VC130302N','NOT SPECIFIED',(#23));
#23=PRODUCT_CONTEXT('',#25,'mechanical');
#24=APPLICATION_PROTOCOL_DEFINITION('international standard',
'automotive_design',2010,#25);
#25=APPLICATION_CONTEXT(
'core data for automotive mechanical design processes');
#26=SHAPE_REPRESENTATION('VC130302N-None',(#385),#620);
#27=GEOMETRIC_CURVE_SET('None',(#528,#529,#284,#285,#286,#287,#288,#289,
#290,#291));
#28=SURFACE_STYLE_USAGE(.BOTH.,#29);
#29=SURFACE_SIDE_STYLE('',(#30));
#30=SURFACE_STYLE_FILL_AREA(#31);
#31=FILL_AREA_STYLE('',(#32));
#32=FILL_AREA_STYLE_COLOUR('',#272);
#33=MANIFOLD_SOLID_BREP('',#34);
#34=CLOSED_SHELL('',(#59,#60,#61,#62,#63,#64,#65,#66,#67,#68,#69,#70,#71,
#72,#73,#74));
#35=TOROIDAL_SURFACE('',#412,4.2,2.5);
#36=TOROIDAL_SURFACE('',#414,4.2,2.5);
#37=CYLINDRICAL_SURFACE('',#406,1.7);
#38=CYLINDRICAL_SURFACE('',#408,1.7);
#39=CYLINDRICAL_SURFACE('',#415,2.25);
#40=CYLINDRICAL_SURFACE('',#416,2.25);
#41=CONICAL_SURFACE('',#400,0.102,7.);
#42=CONICAL_SURFACE('',#420,0.102,7.);
#43=CONICAL_SURFACE('',#421,0.102,7.);
#44=CONICAL_SURFACE('',#422,0.102,7.);
#45=FACE_OUTER_BOUND('',#87,.T.);
#46=FACE_OUTER_BOUND('',#88,.T.);
#47=FACE_OUTER_BOUND('',#91,.T.);
#48=FACE_OUTER_BOUND('',#92,.T.);
#49=FACE_OUTER_BOUND('',#93,.T.);
#50=FACE_OUTER_BOUND('',#94,.T.);
#51=FACE_OUTER_BOUND('',#95,.T.);
#52=FACE_OUTER_BOUND('',#96,.T.);
#53=FACE_OUTER_BOUND('',#97,.T.);
#54=FACE_OUTER_BOUND('',#98,.T.);
#55=FACE_OUTER_BOUND('',#99,.T.);
#56=FACE_OUTER_BOUND('',#100,.T.);
#57=FACE_OUTER_BOUND('',#101,.T.);
#58=FACE_OUTER_BOUND('',#102,.T.);
#59=ADVANCED_FACE('',(#81,#82),#75,.T.);
#60=ADVANCED_FACE('',(#45),#41,.T.);
#61=ADVANCED_FACE('',(#46),#76,.T.);
#62=ADVANCED_FACE('',(#83,#84),#77,.F.);
#63=ADVANCED_FACE('',(#47),#37,.F.);
#64=ADVANCED_FACE('',(#48),#38,.F.);
#65=ADVANCED_FACE('',(#49),#35,.T.);
#66=ADVANCED_FACE('',(#50),#36,.T.);
#67=ADVANCED_FACE('',(#51),#39,.F.);
#68=ADVANCED_FACE('',(#52),#40,.F.);
#69=ADVANCED_FACE('',(#53),#78,.T.);
#70=ADVANCED_FACE('',(#54),#79,.T.);
#71=ADVANCED_FACE('',(#55),#80,.T.);
#72=ADVANCED_FACE('',(#56),#42,.T.);
#73=ADVANCED_FACE('',(#57),#43,.T.);
#74=ADVANCED_FACE('',(#58),#44,.T.);
#75=PLANE('',#399);
#76=PLANE('',#401);
#77=PLANE('',#404);
#78=PLANE('',#417);
#79=PLANE('',#418);
#80=PLANE('',#419);
#81=FACE_BOUND('',#85,.T.);
#82=FACE_BOUND('',#86,.T.);
#83=FACE_BOUND('',#89,.T.);
#84=FACE_BOUND('',#90,.T.);
#85=EDGE_LOOP('',(#103,#104,#105,#106,#107,#108,#109,#110));
#86=EDGE_LOOP('',(#111,#112));
#87=EDGE_LOOP('',(#113,#114,#115));
#88=EDGE_LOOP('',(#116,#117,#118,#119,#120,#121));
#89=EDGE_LOOP('',(#122,#123,#124,#125));
#90=EDGE_LOOP('',(#126,#127));
#91=EDGE_LOOP('',(#128,#129,#130,#131));
#92=EDGE_LOOP('',(#132,#133,#134,#135));
#93=EDGE_LOOP('',(#136,#137,#138,#139));
#94=EDGE_LOOP('',(#140,#141,#142,#143));
#95=EDGE_LOOP('',(#144,#145,#146,#147));
#96=EDGE_LOOP('',(#148,#149,#150,#151));
#97=EDGE_LOOP('',(#152,#153,#154,#155,#156,#157));
#98=EDGE_LOOP('',(#158,#159,#160,#161,#162,#163));
#99=EDGE_LOOP('',(#164,#165,#166,#167,#168,#169));
#100=EDGE_LOOP('',(#170,#171,#172));
#101=EDGE_LOOP('',(#173,#174,#175));
#102=EDGE_LOOP('',(#176,#177,#178));
#103=ORIENTED_EDGE('',*,*,#203,.T.);
#104=ORIENTED_EDGE('',*,*,#204,.T.);
#105=ORIENTED_EDGE('',*,*,#205,.T.);
#106=ORIENTED_EDGE('',*,*,#206,.T.);
#107=ORIENTED_EDGE('',*,*,#207,.T.);
#108=ORIENTED_EDGE('',*,*,#208,.T.);
#109=ORIENTED_EDGE('',*,*,#209,.T.);
#110=ORIENTED_EDGE('',*,*,#210,.T.);
#111=ORIENTED_EDGE('',*,*,#211,.T.);
#112=ORIENTED_EDGE('',*,*,#212,.T.);
#113=ORIENTED_EDGE('',*,*,#213,.F.);
#114=ORIENTED_EDGE('',*,*,#210,.F.);
#115=ORIENTED_EDGE('',*,*,#214,.T.);
#116=ORIENTED_EDGE('',*,*,#215,.T.);
#117=ORIENTED_EDGE('',*,*,#214,.F.);
#118=ORIENTED_EDGE('',*,*,#209,.F.);
#119=ORIENTED_EDGE('',*,*,#216,.T.);
#120=ORIENTED_EDGE('',*,*,#217,.T.);
#121=ORIENTED_EDGE('',*,*,#218,.F.);
#122=ORIENTED_EDGE('',*,*,#219,.T.);
#123=ORIENTED_EDGE('',*,*,#220,.T.);
#124=ORIENTED_EDGE('',*,*,#218,.T.);
#125=ORIENTED_EDGE('',*,*,#221,.T.);
#126=ORIENTED_EDGE('',*,*,#222,.F.);
#127=ORIENTED_EDGE('',*,*,#223,.F.);
#128=ORIENTED_EDGE('',*,*,#224,.T.);
#129=ORIENTED_EDGE('',*,*,#225,.F.);
#130=ORIENTED_EDGE('',*,*,#226,.F.);
#131=ORIENTED_EDGE('',*,*,#223,.T.);
#132=ORIENTED_EDGE('',*,*,#226,.T.);
#133=ORIENTED_EDGE('',*,*,#227,.T.);
#134=ORIENTED_EDGE('',*,*,#224,.F.);
#135=ORIENTED_EDGE('',*,*,#222,.T.);
#136=ORIENTED_EDGE('',*,*,#228,.T.);
#137=ORIENTED_EDGE('',*,*,#229,.T.);
#138=ORIENTED_EDGE('',*,*,#227,.F.);
#139=ORIENTED_EDGE('',*,*,#230,.F.);
#140=ORIENTED_EDGE('',*,*,#225,.T.);
#141=ORIENTED_EDGE('',*,*,#229,.F.);
#142=ORIENTED_EDGE('',*,*,#231,.F.);
#143=ORIENTED_EDGE('',*,*,#230,.T.);
#144=ORIENTED_EDGE('',*,*,#232,.F.);
#145=ORIENTED_EDGE('',*,*,#231,.T.);
#146=ORIENTED_EDGE('',*,*,#233,.T.);
#147=ORIENTED_EDGE('',*,*,#212,.F.);
#148=ORIENTED_EDGE('',*,*,#233,.F.);
#149=ORIENTED_EDGE('',*,*,#228,.F.);
#150=ORIENTED_EDGE('',*,*,#232,.T.);
#151=ORIENTED_EDGE('',*,*,#211,.F.);
#152=ORIENTED_EDGE('',*,*,#217,.F.);
#153=ORIENTED_EDGE('',*,*,#234,.F.);
#154=ORIENTED_EDGE('',*,*,#207,.F.);
#155=ORIENTED_EDGE('',*,*,#235,.T.);
#156=ORIENTED_EDGE('',*,*,#236,.F.);
#157=ORIENTED_EDGE('',*,*,#221,.F.);
#158=ORIENTED_EDGE('',*,*,#236,.T.);
#159=ORIENTED_EDGE('',*,*,#237,.F.);
#160=ORIENTED_EDGE('',*,*,#205,.F.);
#161=ORIENTED_EDGE('',*,*,#238,.T.);
#162=ORIENTED_EDGE('',*,*,#239,.T.);
#163=ORIENTED_EDGE('',*,*,#219,.F.);
#164=ORIENTED_EDGE('',*,*,#239,.F.);
#165=ORIENTED_EDGE('',*,*,#240,.F.);
#166=ORIENTED_EDGE('',*,*,#203,.F.);
#167=ORIENTED_EDGE('',*,*,#213,.T.);
#168=ORIENTED_EDGE('',*,*,#215,.F.);
#169=ORIENTED_EDGE('',*,*,#220,.F.);
#170=ORIENTED_EDGE('',*,*,#238,.F.);
#171=ORIENTED_EDGE('',*,*,#204,.F.);
#172=ORIENTED_EDGE('',*,*,#240,.T.);
#173=ORIENTED_EDGE('',*,*,#235,.F.);
#174=ORIENTED_EDGE('',*,*,#206,.F.);
#175=ORIENTED_EDGE('',*,*,#237,.T.);
#176=ORIENTED_EDGE('',*,*,#216,.F.);
#177=ORIENTED_EDGE('',*,*,#208,.F.);
#178=ORIENTED_EDGE('',*,*,#234,.T.);
#179=VERTEX_POINT('',#542);
#180=VERTEX_POINT('',#543);
#181=VERTEX_POINT('',#545);
#182=VERTEX_POINT('',#547);
#183=VERTEX_POINT('',#549);
#184=VERTEX_POINT('',#551);
#185=VERTEX_POINT('',#553);
#186=VERTEX_POINT('',#555);
#187=VERTEX_POINT('',#558);
#188=VERTEX_POINT('',#559);
#189=VERTEX_POINT('',#563);
#190=VERTEX_POINT('',#567);
#191=VERTEX_POINT('',#569);
#192=VERTEX_POINT('',#571);
#193=VERTEX_POINT('',#575);
#194=VERTEX_POINT('',#576);
#195=VERTEX_POINT('',#580);
#196=VERTEX_POINT('',#581);
#197=VERTEX_POINT('',#585);
#198=VERTEX_POINT('',#587);
#199=VERTEX_POINT('',#593);
#200=VERTEX_POINT('',#594);
#201=VERTEX_POINT('',#606);
#202=VERTEX_POINT('',#611);
#203=EDGE_CURVE('',#179,#180,#296,.T.);
#204=EDGE_CURVE('',#180,#181,#245,.T.);
#205=EDGE_CURVE('',#181,#182,#297,.T.);
#206=EDGE_CURVE('',#182,#183,#246,.T.);
#207=EDGE_CURVE('',#183,#184,#298,.T.);
#208=EDGE_CURVE('',#184,#185,#247,.T.);
#209=EDGE_CURVE('',#185,#186,#299,.T.);
#210=EDGE_CURVE('',#186,#179,#248,.T.);
#211=EDGE_CURVE('',#187,#188,#249,.T.);
#212=EDGE_CURVE('',#188,#187,#250,.T.);
#213=EDGE_CURVE('',#179,#189,#300,.T.);
#214=EDGE_CURVE('',#186,#189,#301,.T.);
#215=EDGE_CURVE('',#190,#189,#302,.T.);
#216=EDGE_CURVE('',#185,#191,#303,.T.);
#217=EDGE_CURVE('',#191,#192,#304,.T.);
#218=EDGE_CURVE('',#190,#192,#305,.T.);
#219=EDGE_CURVE('',#193,#194,#306,.T.);
#220=EDGE_CURVE('',#194,#190,#307,.T.);
#221=EDGE_CURVE('',#192,#193,#308,.T.);
#222=EDGE_CURVE('',#195,#196,#251,.T.);
#223=EDGE_CURVE('',#196,#195,#252,.T.);
#224=EDGE_CURVE('',#195,#197,#309,.T.);
#225=EDGE_CURVE('',#198,#197,#253,.T.);
#226=EDGE_CURVE('',#196,#198,#310,.T.);
#227=EDGE_CURVE('',#198,#197,#254,.T.);
#228=EDGE_CURVE('',#199,#200,#255,.T.);
#229=EDGE_CURVE('',#200,#197,#256,.T.);
#230=EDGE_CURVE('',#199,#198,#257,.T.);
#231=EDGE_CURVE('',#199,#200,#258,.T.);
#232=EDGE_CURVE('',#199,#188,#311,.T.);
#233=EDGE_CURVE('',#200,#187,#312,.T.);
#234=EDGE_CURVE('',#184,#191,#313,.T.);
#235=EDGE_CURVE('',#183,#201,#314,.T.);
#236=EDGE_CURVE('',#193,#201,#315,.T.);
#237=EDGE_CURVE('',#182,#201,#316,.T.);
#238=EDGE_CURVE('',#181,#202,#317,.T.);
#239=EDGE_CURVE('',#202,#194,#318,.T.);
#240=EDGE_CURVE('',#180,#202,#319,.T.);
#241=CIRCLE('',#386,0.2);
#242=CIRCLE('',#387,0.2);
#243=CIRCLE('',#388,0.2);
#244=CIRCLE('',#389,0.2);
#245=CIRCLE('',#393,0.2);
#246=CIRCLE('',#394,0.2);
#247=CIRCLE('',#395,0.2);
#248=CIRCLE('',#396,0.2);
#249=CIRCLE('',#397,2.25);
#250=CIRCLE('',#398,2.25);
#251=CIRCLE('',#402,1.7);
#252=CIRCLE('',#403,1.7);
#253=CIRCLE('',#405,1.7);
#254=CIRCLE('',#407,1.7);
#255=CIRCLE('',#409,2.25);
#256=CIRCLE('',#410,2.5);
#257=CIRCLE('',#411,2.5);
#258=CIRCLE('',#413,2.25);
#259=CURVE_STYLE('',#273,POSITIVE_LENGTH_MEASURE(0.18),#270);
#260=CURVE_STYLE('',#274,POSITIVE_LENGTH_MEASURE(0.18),#270);
#261=CURVE_STYLE('',#275,POSITIVE_LENGTH_MEASURE(0.18),#270);
#262=CURVE_STYLE('',#276,POSITIVE_LENGTH_MEASURE(0.18),#270);
#263=CURVE_STYLE('',#277,POSITIVE_LENGTH_MEASURE(0.18),#270);
#264=CURVE_STYLE('',#278,POSITIVE_LENGTH_MEASURE(0.18),#270);
#265=CURVE_STYLE('',#279,POSITIVE_LENGTH_MEASURE(0.18),#270);
#266=CURVE_STYLE('',#280,POSITIVE_LENGTH_MEASURE(0.18),#270);
#267=CURVE_STYLE('',#281,POSITIVE_LENGTH_MEASURE(0.13),#384);
#268=CURVE_STYLE('',#282,POSITIVE_LENGTH_MEASURE(0.13),#384);
#269=CURVE_STYLE('',#283,POSITIVE_LENGTH_MEASURE(0.13),#271);
#270=COLOUR_RGB('Medium Royal',0.2,0.4,0.8);
#271=COLOUR_RGB('Strong Stone',0.576470588235294,0.54508278019379,0.392156862745098);
#272=COLOUR_RGB('cutting part',0.8,0.8,0.8);
#273=DRAUGHTING_PRE_DEFINED_CURVE_FONT('continuous');
#274=DRAUGHTING_PRE_DEFINED_CURVE_FONT('continuous');
#275=DRAUGHTING_PRE_DEFINED_CURVE_FONT('continuous');
#276=DRAUGHTING_PRE_DEFINED_CURVE_FONT('continuous');
#277=DRAUGHTING_PRE_DEFINED_CURVE_FONT('continuous');
#278=DRAUGHTING_PRE_DEFINED_CURVE_FONT('continuous');
#279=DRAUGHTING_PRE_DEFINED_CURVE_FONT('continuous');
#280=DRAUGHTING_PRE_DEFINED_CURVE_FONT('continuous');
#281=DRAUGHTING_PRE_DEFINED_CURVE_FONT('continuous');
#282=DRAUGHTING_PRE_DEFINED_CURVE_FONT('continuous');
#283=DRAUGHTING_PRE_DEFINED_CURVE_FONT('continuous');
#284=TRIMMED_CURVE('',#292,(PARAMETER_VALUE(0.)),(PARAMETER_VALUE(1.)),
 .T.,.PARAMETER.);
#285=TRIMMED_CURVE('',#293,(PARAMETER_VALUE(0.)),(PARAMETER_VALUE(1.)),
 .T.,.PARAMETER.);
#286=TRIMMED_CURVE('',#294,(PARAMETER_VALUE(0.)),(PARAMETER_VALUE(1.)),
 .T.,.PARAMETER.);
#287=TRIMMED_CURVE('',#295,(PARAMETER_VALUE(0.)),(PARAMETER_VALUE(1.)),
 .T.,.PARAMETER.);
#288=TRIMMED_CURVE('',#241,(PARAMETER_VALUE(0.)),(PARAMETER_VALUE(35.)),
 .T.,.PARAMETER.);
#289=TRIMMED_CURVE('',#242,(PARAMETER_VALUE(0.)),(PARAMETER_VALUE(145.)),
 .T.,.PARAMETER.);
#290=TRIMMED_CURVE('',#243,(PARAMETER_VALUE(0.)),(PARAMETER_VALUE(35.)),
 .T.,.PARAMETER.);
#291=TRIMMED_CURVE('',#244,(PARAMETER_VALUE(0.)),(PARAMETER_VALUE(145.)),
 .T.,.PARAMETER.);
#292=LINE('',#530,#320);
#293=LINE('',#531,#321);
#294=LINE('',#532,#322);
#295=LINE('',#533,#323);
#296=LINE('',#541,#324);
#297=LINE('',#546,#325);
#298=LINE('',#550,#326);
#299=LINE('',#554,#327);
#300=LINE('',#562,#328);
#301=LINE('',#564,#329);
#302=LINE('',#566,#330);
#303=LINE('',#568,#331);
#304=LINE('',#570,#332);
#305=LINE('',#572,#333);
#306=LINE('',#574,#334);
#307=LINE('',#577,#335);
#308=LINE('',#578,#336);
#309=LINE('',#584,#337);
#310=LINE('',#588,#338);
#311=LINE('',#600,#339);
#312=LINE('',#601,#340);
#313=LINE('',#604,#341);
#314=LINE('',#605,#342);
#315=LINE('',#607,#343);
#316=LINE('',#609,#344);
#317=LINE('',#610,#345);
#318=LINE('',#612,#346);
#319=LINE('',#614,#347);
#320=VECTOR('',#425,13.1455888389797);
#321=VECTOR('',#426,13.14558883898);
#322=VECTOR('',#427,13.1455888389797);
#323=VECTOR('',#428,13.14558883898);
#324=VECTOR('',#443,1.);
#325=VECTOR('',#446,1.);
#326=VECTOR('',#449,1.);
#327=VECTOR('',#452,1.);
#328=VECTOR('',#461,1.);
#329=VECTOR('',#462,1.);
#330=VECTOR('',#465,1.);
#331=VECTOR('',#466,1.);
#332=VECTOR('',#467,1.);
#333=VECTOR('',#468,1.);
#334=VECTOR('',#471,1.);
#335=VECTOR('',#472,1.);
#336=VECTOR('',#473,1.);
#337=VECTOR('',#480,1.);
#338=VECTOR('',#483,1.);
#339=VECTOR('',#502,1.);
#340=VECTOR('',#503,1.);
#341=VECTOR('',#508,1.);
#342=VECTOR('',#509,1.);
#343=VECTOR('',#510,1.);
#344=VECTOR('',#513,1.);
#345=VECTOR('',#514,1.);
#346=VECTOR('',#515,1.);
#347=VECTOR('',#518,1.);
#348=PRESENTATION_LAYER_ASSIGNMENT('2','Layer 2',(#528,#390));
#349=PRESENTATION_LAYER_ASSIGNMENT('5','Layer 5',(#529,#391));
#350=PRESENTATION_LAYER_ASSIGNMENT('3','Layer 3',(#284,#285,#286,#287,#288,
#289,#290,#291));
#351=PRESENTATION_LAYER_ASSIGNMENT('1','Layer 1',(#392,#33));
#352=STYLED_ITEM('',(#366),#528);
#353=STYLED_ITEM('',(#367),#529);
#354=STYLED_ITEM('',(#368),#284);
#355=STYLED_ITEM('',(#369),#285);
#356=STYLED_ITEM('',(#370),#286);
#357=STYLED_ITEM('',(#371),#287);
#358=STYLED_ITEM('',(#372),#288);
#359=STYLED_ITEM('',(#373),#289);
#360=STYLED_ITEM('',(#374),#290);
#361=STYLED_ITEM('',(#375),#291);
#362=STYLED_ITEM('',(#376),#390);
#363=STYLED_ITEM('',(#377),#391);
#364=STYLED_ITEM('',(#378),#392);
#365=STYLED_ITEM('',(#379),#33);
#366=PRESENTATION_STYLE_ASSIGNMENT((#380));
#367=PRESENTATION_STYLE_ASSIGNMENT((#381));
#368=PRESENTATION_STYLE_ASSIGNMENT((#259));
#369=PRESENTATION_STYLE_ASSIGNMENT((#260));
#370=PRESENTATION_STYLE_ASSIGNMENT((#261));
#371=PRESENTATION_STYLE_ASSIGNMENT((#262));
#372=PRESENTATION_STYLE_ASSIGNMENT((#263));
#373=PRESENTATION_STYLE_ASSIGNMENT((#264));
#374=PRESENTATION_STYLE_ASSIGNMENT((#265));
#375=PRESENTATION_STYLE_ASSIGNMENT((#266));
#376=PRESENTATION_STYLE_ASSIGNMENT((#267));
#377=PRESENTATION_STYLE_ASSIGNMENT((#268));
#378=PRESENTATION_STYLE_ASSIGNMENT((#269));
#379=PRESENTATION_STYLE_ASSIGNMENT((#28));
#380=POINT_STYLE('',#382,POSITIVE_LENGTH_MEASURE(3.),#384);
#381=POINT_STYLE('',#383,POSITIVE_LENGTH_MEASURE(3.),#384);
#382=PRE_DEFINED_POINT_MARKER_SYMBOL('plus');
#383=PRE_DEFINED_POINT_MARKER_SYMBOL('plus');
#384=DRAUGHTING_PRE_DEFINED_COLOUR('yellow');
#385=AXIS2_PLACEMENT_3D('',#527,#423,#424);
#386=AXIS2_PLACEMENT_3D('',#534,#429,#430);
#387=AXIS2_PLACEMENT_3D('',#535,#431,#432);
#388=AXIS2_PLACEMENT_3D('',#536,#433,#434);
#389=AXIS2_PLACEMENT_3D('',#537,#435,#436);
#390=AXIS2_PLACEMENT_3D('MCS',#538,#437,#438);
#391=AXIS2_PLACEMENT_3D('PCS',#539,#439,#440);
#392=AXIS2_PLACEMENT_3D('',#540,#441,#442);
#393=AXIS2_PLACEMENT_3D('',#544,#444,#445);
#394=AXIS2_PLACEMENT_3D('',#548,#447,#448);
#395=AXIS2_PLACEMENT_3D('',#552,#450,#451);
#396=AXIS2_PLACEMENT_3D('',#556,#453,#454);
#397=AXIS2_PLACEMENT_3D('',#557,#455,#456);
#398=AXIS2_PLACEMENT_3D('',#560,#457,#458);
#399=AXIS2_PLACEMENT_3D('',#561,#459,#460);
#400=AXIS2_PLACEMENT_3D('',#565,#463,#464);
#401=AXIS2_PLACEMENT_3D('',#573,#469,#470);
#402=AXIS2_PLACEMENT_3D('',#579,#474,#475);
#403=AXIS2_PLACEMENT_3D('',#582,#476,#477);
#404=AXIS2_PLACEMENT_3D('',#583,#478,#479);
#405=AXIS2_PLACEMENT_3D('',#586,#481,#482);
#406=AXIS2_PLACEMENT_3D('',#589,#484,#485);
#407=AXIS2_PLACEMENT_3D('',#590,#486,#487);
#408=AXIS2_PLACEMENT_3D('',#591,#488,#489);
#409=AXIS2_PLACEMENT_3D('',#592,#490,#491);
#410=AXIS2_PLACEMENT_3D('',#595,#492,#493);
#411=AXIS2_PLACEMENT_3D('',#596,#494,#495);
#412=AXIS2_PLACEMENT_3D('',#597,#496,#497);
#413=AXIS2_PLACEMENT_3D('',#598,#498,#499);
#414=AXIS2_PLACEMENT_3D('',#599,#500,#501);
#415=AXIS2_PLACEMENT_3D('',#602,#504,#505);
#416=AXIS2_PLACEMENT_3D('',#603,#506,#507);
#417=AXIS2_PLACEMENT_3D('',#608,#511,#512);
#418=AXIS2_PLACEMENT_3D('',#613,#516,#517);
#419=AXIS2_PLACEMENT_3D('',#615,#519,#520);
#420=AXIS2_PLACEMENT_3D('',#616,#521,#522);
#421=AXIS2_PLACEMENT_3D('',#617,#523,#524);
#422=AXIS2_PLACEMENT_3D('',#618,#525,#526);
#423=DIRECTION('',(0.,0.,1.));
#424=DIRECTION('',(1.,0.,0.));
#425=DIRECTION('',(0.819152044289016,0.573576436351011,0.));
#426=DIRECTION('',(-1.,0.,0.));
#427=DIRECTION('',(-0.819152044289016,-0.573576436351011,0.));
#428=DIRECTION('',(1.,0.,0.));
#429=DIRECTION('',(0.,0.,1.));
#430=DIRECTION('',(0.,-1.,0.));
#431=DIRECTION('',(0.,0.,1.));
#432=DIRECTION('',(0.57357643635101,-0.819152044289017,0.));
#433=DIRECTION('',(0.,0.,1.));
#434=DIRECTION('',(0.,1.,0.));
#435=DIRECTION('',(0.,0.,1.));
#436=DIRECTION('',(-0.57357643635101,0.819152044289017,0.));
#437=DIRECTION('',(0.,0.,1.));
#438=DIRECTION('',(1.,0.,0.));
#439=DIRECTION('',(0.,0.,1.));
#440=DIRECTION('',(1.,0.,0.));
#441=DIRECTION('',(0.,0.,1.));
#442=DIRECTION('',(1.,0.,0.));
#443=DIRECTION('',(0.819152044289016,0.573576436351011,0.));
#444=DIRECTION('',(0.,0.,1.));
#445=DIRECTION('',(0.57357643635101,-0.819152044289016,0.));
#446=DIRECTION('',(-1.,0.,0.));
#447=DIRECTION('',(0.,0.,1.));
#448=DIRECTION('',(0.,0.999999999999998,0.));
#449=DIRECTION('',(-0.819152044289016,-0.573576436351011,0.));
#450=DIRECTION('',(0.,0.,1.));
#451=DIRECTION('',(-0.57357643635101,0.819152044289016,0.));
#452=DIRECTION('',(1.,0.,0.));
#453=DIRECTION('',(0.,0.,1.));
#454=DIRECTION('',(0.,-0.999999999999998,0.));
#455=DIRECTION('',(0.,0.,-1.));
#456=DIRECTION('',(-0.953716950748217,-0.300705799504305,0.));
#457=DIRECTION('',(0.,0.,-1.));
#458=DIRECTION('',(0.953716950748217,0.300705799504305,0.));
#459=DIRECTION('',(0.,0.,1.));
#460=DIRECTION('',(-0.300705799504305,0.953716950748217,0.));
#461=DIRECTION('',(-0.0699013836907715,0.0998295217864822,-0.992546151641322));
#462=DIRECTION('',(0.,0.121869343405103,-0.992546151641327));
#463=DIRECTION('',(0.,0.,1.));
#464=DIRECTION('',(-0.300705799504305,0.953716950748217,-3.43206484092348E-16));
#465=DIRECTION('',(0.0383969203001182,-0.121779472850594,0.991814214711454));
#466=DIRECTION('',(0.,0.121869343405103,-0.992546151641327));
#467=DIRECTION('',(0.360526322965501,0.11367351299,-0.925796469475601));
#468=DIRECTION('',(-1.,0.,0.));
#469=DIRECTION('',(0.,-0.992546151641327,-0.121869343405103));
#470=DIRECTION('',(-1.,0.,0.));
#471=DIRECTION('',(1.,0.,0.));
#472=DIRECTION('',(-0.819152044289016,-0.573576436351011,0.));
#473=DIRECTION('',(0.819152044289016,0.573576436351011,0.));
#474=DIRECTION('',(0.,0.,-1.));
#475=DIRECTION('',(-0.953716950748217,-0.300705799504305,0.));
#476=DIRECTION('',(0.,0.,-1.));
#477=DIRECTION('',(0.953716950748217,0.300705799504305,0.));
#478=DIRECTION('',(0.,0.,1.));
#479=DIRECTION('',(-0.300705799504305,0.953716950748217,0.));
#480=DIRECTION('',(0.,0.,1.));
#481=DIRECTION('',(0.,0.,-1.));
#482=DIRECTION('',(0.953716950748217,0.300705799504305,0.));
#483=DIRECTION('',(0.,0.,1.));
#484=DIRECTION('',(0.,0.,-1.));
#485=DIRECTION('',(0.953716950748217,0.300705799504305,0.));
#486=DIRECTION('',(0.,0.,1.));
#487=DIRECTION('',(0.953716950748217,0.300705799504305,0.));
#488=DIRECTION('',(0.,0.,-1.));
#489=DIRECTION('',(0.953716950748217,0.300705799504305,0.));
#490=DIRECTION('',(0.,0.,1.));
#491=DIRECTION('',(0.953716950748217,0.300705799504305,0.));
#492=DIRECTION('',(-0.300705799504305,0.953716950748217,0.));
#493=DIRECTION('',(0.953716950748217,0.300705799504305,0.));
#494=DIRECTION('',(0.300705799504305,-0.953716950748217,0.));
#495=DIRECTION('',(-0.953716950748217,-0.300705799504305,0.));
#496=DIRECTION('',(0.,0.,-1.));
#497=DIRECTION('',(0.953716950748217,0.300705799504305,0.));
#498=DIRECTION('',(0.,0.,-1.));
#499=DIRECTION('',(0.953716950748217,0.300705799504305,0.));
#500=DIRECTION('',(0.,0.,-1.));
#501=DIRECTION('',(0.953716950748217,0.300705799504305,0.));
#502=DIRECTION('',(0.,0.,1.));
#503=DIRECTION('',(0.,0.,1.));
#504=DIRECTION('',(0.,0.,-1.));
#505=DIRECTION('',(0.953716950748217,0.300705799504305,0.));
#506=DIRECTION('',(0.,0.,-1.));
#507=DIRECTION('',(0.953716950748217,0.300705799504305,0.));
#508=DIRECTION('',(0.0699013836907715,-0.0998295217864822,-0.992546151641322));
#509=DIRECTION('',(0.0699013836907715,-0.0998295217864822,-0.992546151641322));
#510=DIRECTION('',(-0.0383969203001182,0.121779472850594,0.991814214711454));
#511=DIRECTION('',(-0.569301084572377,0.813046209168167,-0.121869343405095));
#512=DIRECTION('',(0.819152044288993,0.573576436351044,-4.92499829801212E-15));
#513=DIRECTION('',(0.,-0.121869343405103,-0.992546151641327));
#514=DIRECTION('',(0.,-0.121869343405103,-0.992546151641327));
#515=DIRECTION('',(-0.360526322965501,-0.11367351299,-0.925796469475601));
#516=DIRECTION('',(0.,0.992546151641327,-0.121869343405103));
#517=DIRECTION('',(1.,0.,0.));
#518=DIRECTION('',(-0.0699013836907715,0.0998295217864822,-0.992546151641322));
#519=DIRECTION('',(0.569301084572377,-0.813046209168167,-0.121869343405095));
#520=DIRECTION('',(-0.819152044288993,-0.573576436351044,-4.92499829801212E-15));
#521=DIRECTION('',(0.,0.,1.));
#522=DIRECTION('',(-0.300705799504305,0.953716950748217,-3.43206484092348E-16));
#523=DIRECTION('',(0.,0.,1.));
#524=DIRECTION('',(-0.300705799504305,0.953716950748217,-3.43206484092348E-16));
#525=DIRECTION('',(0.,0.,1.));
#526=DIRECTION('',(-0.300705799504305,0.953716950748217,-3.43206484092348E-16));
#527=CARTESIAN_POINT('',(0.,0.,0.));
#528=CARTESIAN_POINT('',(0.,0.,0.));
#529=CARTESIAN_POINT('',(-12.59123136538,-3.97,0.));
#530=CARTESIAN_POINT('',(1.303391721344,-3.933830408858,0.));
#531=CARTESIAN_POINT('',(11.95691240491,3.97,0.));
#532=CARTESIAN_POINT('',(-1.303391721344,3.933830408858,0.));
#533=CARTESIAN_POINT('',(-11.95691240491,-3.97,0.));
#534=CARTESIAN_POINT('',(1.188676434074,-3.77,0.));
#535=CARTESIAN_POINT('',(11.95691240491,3.77,0.));
#536=CARTESIAN_POINT('',(-1.188676434074,3.77,0.));
#537=CARTESIAN_POINT('',(-11.95691240491,-3.77,0.));
#538=CARTESIAN_POINT('',(0.,0.,0.));
#539=CARTESIAN_POINT('',(-12.59123136538,-3.97,0.));
#540=CARTESIAN_POINT('',(0.,0.,0.));
#541=CARTESIAN_POINT('',(1.303391721344,-3.933830408858,0.));
#542=CARTESIAN_POINT('',(1.303391721344,-3.933830408858,0.));
#543=CARTESIAN_POINT('',(12.07162769218,3.606169591142,0.));
#544=CARTESIAN_POINT('',(11.95691240491,3.77,0.));
#545=CARTESIAN_POINT('',(11.95691240491,3.97,0.));
#546=CARTESIAN_POINT('',(11.95691240491,3.97,0.));
#547=CARTESIAN_POINT('',(-1.188676434074,3.97,0.));
#548=CARTESIAN_POINT('',(-1.188676434074,3.77,0.));
#549=CARTESIAN_POINT('',(-1.303391721344,3.933830408858,0.));
#550=CARTESIAN_POINT('',(-1.303391721344,3.933830408858,0.));
#551=CARTESIAN_POINT('',(-12.07162769218,-3.606169591142,0.));
#552=CARTESIAN_POINT('',(-11.95691240491,-3.77,0.));
#553=CARTESIAN_POINT('',(-11.95691240491,-3.97,0.));
#554=CARTESIAN_POINT('',(-11.95691240491,-3.97,0.));
#555=CARTESIAN_POINT('',(1.188676434074,-3.97,0.));
#556=CARTESIAN_POINT('',(1.188676434074,-3.77,0.));
#557=CARTESIAN_POINT('',(0.,0.,0.));
#558=CARTESIAN_POINT('',(-2.145863139184,-0.6765880488846,0.));
#559=CARTESIAN_POINT('',(2.145863139184,0.6765880488846,0.));
#560=CARTESIAN_POINT('',(0.,0.,0.));
#561=CARTESIAN_POINT('',(0.,0.,0.));
#562=CARTESIAN_POINT('',(1.303391721344,-3.933830408858,0.));
#563=CARTESIAN_POINT('',(1.188676434074,-3.77,-1.628869285595));
#564=CARTESIAN_POINT('',(1.188676434074,-3.97,0.));
#565=CARTESIAN_POINT('',(1.188676434074,-3.77,-0.7981459499415));
#566=CARTESIAN_POINT('',(1.12862623361,-3.579545096329,-3.18));
#567=CARTESIAN_POINT('',(1.12862623361,-3.579545096329,-3.18));
#568=CARTESIAN_POINT('',(-11.95691240491,-3.97,0.));
#569=CARTESIAN_POINT('',(-11.95691240491,-3.77,-1.628869285595));
#570=CARTESIAN_POINT('',(-11.95691240491,-3.77,-1.628869285595));
#571=CARTESIAN_POINT('',(-11.35286662234,-3.579545096329,-3.18));
#572=CARTESIAN_POINT('',(1.12862623361,-3.579545096329,-3.18));
#573=CARTESIAN_POINT('',(-13.0769172051,-3.97,0.));
#574=CARTESIAN_POINT('',(-1.12862623361,3.579545096329,-3.18));
#575=CARTESIAN_POINT('',(-1.12862623361,3.579545096329,-3.18));
#576=CARTESIAN_POINT('',(11.35286662234,3.579545096329,-3.18));
#577=CARTESIAN_POINT('',(11.35286662234,3.579545096329,-3.18));
#578=CARTESIAN_POINT('',(-11.35286662234,-3.579545096329,-3.18));
#579=CARTESIAN_POINT('',(0.,0.,-3.18));
#580=CARTESIAN_POINT('',(-1.621318816272,-0.5111998591573,-3.18));
#581=CARTESIAN_POINT('',(1.621318816272,0.5111998591573,-3.18));
#582=CARTESIAN_POINT('',(0.,0.,-3.18));
#583=CARTESIAN_POINT('',(0.,0.,-3.18));
#584=CARTESIAN_POINT('',(-1.621318816272,-0.5111998591573,-3.18));
#585=CARTESIAN_POINT('',(-1.621318816272,-0.5111998591573,-2.264448784716));
#586=CARTESIAN_POINT('',(0.,0.,-2.264448784716));
#587=CARTESIAN_POINT('',(1.621318816272,0.5111998591573,-2.264448784716));
#588=CARTESIAN_POINT('',(1.621318816272,0.5111998591573,-3.18));
#589=CARTESIAN_POINT('',(0.,0.,0.159));
#590=CARTESIAN_POINT('',(0.,0.,-2.264448784716));
#591=CARTESIAN_POINT('',(0.,0.,0.159));
#592=CARTESIAN_POINT('',(0.,0.,-0.7));
#593=CARTESIAN_POINT('',(2.145863139184,0.6765880488846,-0.7));
#594=CARTESIAN_POINT('',(-2.145863139184,-0.6765880488846,-0.7));
#595=CARTESIAN_POINT('',(-4.005611193143,-1.262964357918,-2.264448784716));
#596=CARTESIAN_POINT('',(4.005611193143,1.262964357918,-2.264448784716));
#597=CARTESIAN_POINT('',(0.,0.,-2.264448784716));
#598=CARTESIAN_POINT('',(0.,0.,-0.7));
#599=CARTESIAN_POINT('',(0.,0.,-2.264448784716));
#600=CARTESIAN_POINT('',(2.145863139184,0.6765880488846,-0.7));
#601=CARTESIAN_POINT('',(-2.145863139184,-0.6765880488846,-0.7));
#602=CARTESIAN_POINT('',(0.,0.,0.159));
#603=CARTESIAN_POINT('',(0.,0.,0.159));
#604=CARTESIAN_POINT('',(-12.07162769218,-3.606169591142,0.));
#605=CARTESIAN_POINT('',(-1.303391721344,3.933830408858,0.));
#606=CARTESIAN_POINT('',(-1.188676434074,3.77,-1.628869285595));
#607=CARTESIAN_POINT('',(-1.12862623361,3.579545096329,-3.18));
#608=CARTESIAN_POINT('',(-0.3859374996532,4.576238770848,0.));
#609=CARTESIAN_POINT('',(-1.188676434074,3.97,0.));
#610=CARTESIAN_POINT('',(11.95691240491,3.97,0.));
#611=CARTESIAN_POINT('',(11.95691240491,3.77,-1.628869285595));
#612=CARTESIAN_POINT('',(11.95691240491,3.77,-1.628869285595));
#613=CARTESIAN_POINT('',(13.0769172051,3.97,0.));
#614=CARTESIAN_POINT('',(12.07162769218,3.606169591142,0.));
#615=CARTESIAN_POINT('',(0.3859374996532,-4.576238770848,0.));
#616=CARTESIAN_POINT('',(11.95691240491,3.77,-0.7981459499415));
#617=CARTESIAN_POINT('',(-1.188676434074,3.77,-0.7981459499415));
#618=CARTESIAN_POINT('',(-11.95691240491,-3.77,-0.7981459499415));
#619=MECHANICAL_DESIGN_GEOMETRIC_PRESENTATION_REPRESENTATION('',(#352,#353,
#354,#355,#356,#357,#358,#359,#360,#361,#362,#363,#364,#365),#620);
#620=(
GEOMETRIC_REPRESENTATION_CONTEXT(3)
GLOBAL_UNCERTAINTY_ASSIGNED_CONTEXT((#621))
GLOBAL_UNIT_ASSIGNED_CONTEXT((#627,#623,#622))
REPRESENTATION_CONTEXT('VC130302N','TOP_LEVEL_ASSEMBLY_PART')
);
#621=UNCERTAINTY_MEASURE_WITH_UNIT(LENGTH_MEASURE(2.E-5),#627,
'DISTANCE_ACCURACY_VALUE','Maximum Tolerance applied to model');
#622=(
NAMED_UNIT(*)
SI_UNIT($,.STERADIAN.)
SOLID_ANGLE_UNIT()
);
#623=(
CONVERSION_BASED_UNIT('DEGREE',#625)
NAMED_UNIT(#624)
PLANE_ANGLE_UNIT()
);
#624=DIMENSIONAL_EXPONENTS(0.,0.,0.,0.,0.,0.,0.);
#625=PLANE_ANGLE_MEASURE_WITH_UNIT(PLANE_ANGLE_MEASURE(0.0174532925),#626);
#626=(
NAMED_UNIT(*)
PLANE_ANGLE_UNIT()
SI_UNIT($,.RADIAN.)
);
#627=(
LENGTH_UNIT()
NAMED_UNIT(*)
SI_UNIT(.MILLI.,.METRE.)
);
ENDSEC;
END-ISO-10303-21;
