ISO-10303-21;
HEADER;
/* Generated by software containing ST-Developer
 * from STEP Tools, Inc. (www.steptools.com) 
 */
/* OPTION: using custom schema-name function */

FILE_DESCRIPTION(
/* description */ (''),
/* implementation_level */ '2;1');

FILE_NAME(
/* name */ 'VC110301N.stp',
/* time_stamp */ '2021-12-22T08:51:05+09:00',
/* author */ (''),
/* organization */ (''),
/* preprocessor_version */ 'ST-DEVELOPER v16',
/* originating_system */ 'SIEMENS PLM Software NX 10.0',
/* authorisation */ '');

FILE_SCHEMA (('AUTOMOTIVE_DESIGN { 1 0 10303 214 3 1 1 1 }'));
ENDSEC;

DATA;
#10=CONSTRUCTIVE_GEOMETRY_REPRESENTATION_RELATIONSHIP(
'supplemental geometry','',#26,#11);
#11=CONSTRUCTIVE_GEOMETRY_REPRESENTATION('supplemental geometry',(#407,
#408,#409),#583);
#12=GEOMETRICALLY_BOUNDED_WIREFRAME_SHAPE_REPRESENTATION(
'VC110301N-None',(#27),#583);
#13=SHAPE_REPRESENTATION_RELATIONSHIP('None',
'relationship between VC110301N-None and VC110301N-None',#26,#15);
#14=SHAPE_REPRESENTATION_RELATIONSHIP('None',
'relationship between VC110301N-None and VC110301N-None',#26,#12);
#15=ADVANCED_BREP_SHAPE_REPRESENTATION('VC110301N-None',(#105),#583);
#16=SHAPE_DEFINITION_REPRESENTATION(#17,#26);
#17=PRODUCT_DEFINITION_SHAPE('','',#18);
#18=PRODUCT_DEFINITION('part definition','',#20,#19);
#19=PRODUCT_DEFINITION_CONTEXT('part definition',#25,'design');
#20=PRODUCT_DEFINITION_FORMATION_WITH_SPECIFIED_SOURCE(' ',' ',#22,
 .NOT_KNOWN.);
#21=PRODUCT_RELATED_PRODUCT_CATEGORY('part','',(#22));
#22=PRODUCT('VCGW110301','VCGW110301','NOT SPECIFIED',(#23));
#23=PRODUCT_CONTEXT('',#25,'mechanical');
#24=APPLICATION_PROTOCOL_DEFINITION('international standard',
'automotive_design',2010,#25);
#25=APPLICATION_CONTEXT(
'core data for automotive mechanical design processes');
#26=SHAPE_REPRESENTATION('VC110301N-None',(#402),#583);
#27=GEOMETRIC_CURVE_SET('None',(#511,#512,#298,#299,#300,#301,#302,#303,
#304,#305));
#28=OVER_RIDING_STYLED_ITEM('',(#384),#121,#369);
#29=OVER_RIDING_STYLED_ITEM('',(#385),#122,#369);
#30=OVER_RIDING_STYLED_ITEM('',(#386),#123,#369);
#31=OVER_RIDING_STYLED_ITEM('',(#387),#124,#369);
#32=OVER_RIDING_STYLED_ITEM('',(#388),#125,#369);
#33=OVER_RIDING_STYLED_ITEM('',(#389),#126,#369);
#34=OVER_RIDING_STYLED_ITEM('',(#390),#127,#369);
#35=OVER_RIDING_STYLED_ITEM('',(#391),#128,#369);
#36=OVER_RIDING_STYLED_ITEM('',(#392),#129,#369);
#37=OVER_RIDING_STYLED_ITEM('',(#393),#130,#369);
#38=OVER_RIDING_STYLED_ITEM('',(#394),#131,#369);
#39=OVER_RIDING_STYLED_ITEM('',(#395),#132,#369);
#40=SURFACE_STYLE_USAGE(.BOTH.,#53);
#41=SURFACE_STYLE_USAGE(.BOTH.,#54);
#42=SURFACE_STYLE_USAGE(.BOTH.,#55);
#43=SURFACE_STYLE_USAGE(.BOTH.,#56);
#44=SURFACE_STYLE_USAGE(.BOTH.,#57);
#45=SURFACE_STYLE_USAGE(.BOTH.,#58);
#46=SURFACE_STYLE_USAGE(.BOTH.,#59);
#47=SURFACE_STYLE_USAGE(.BOTH.,#60);
#48=SURFACE_STYLE_USAGE(.BOTH.,#61);
#49=SURFACE_STYLE_USAGE(.BOTH.,#62);
#50=SURFACE_STYLE_USAGE(.BOTH.,#63);
#51=SURFACE_STYLE_USAGE(.BOTH.,#64);
#52=SURFACE_STYLE_USAGE(.BOTH.,#65);
#53=SURFACE_SIDE_STYLE('',(#66));
#54=SURFACE_SIDE_STYLE('',(#67));
#55=SURFACE_SIDE_STYLE('',(#68));
#56=SURFACE_SIDE_STYLE('',(#69));
#57=SURFACE_SIDE_STYLE('',(#70));
#58=SURFACE_SIDE_STYLE('',(#71));
#59=SURFACE_SIDE_STYLE('',(#72));
#60=SURFACE_SIDE_STYLE('',(#73));
#61=SURFACE_SIDE_STYLE('',(#74));
#62=SURFACE_SIDE_STYLE('',(#75));
#63=SURFACE_SIDE_STYLE('',(#76));
#64=SURFACE_SIDE_STYLE('',(#77));
#65=SURFACE_SIDE_STYLE('',(#78));
#66=SURFACE_STYLE_FILL_AREA(#79);
#67=SURFACE_STYLE_FILL_AREA(#80);
#68=SURFACE_STYLE_FILL_AREA(#81);
#69=SURFACE_STYLE_FILL_AREA(#82);
#70=SURFACE_STYLE_FILL_AREA(#83);
#71=SURFACE_STYLE_FILL_AREA(#84);
#72=SURFACE_STYLE_FILL_AREA(#85);
#73=SURFACE_STYLE_FILL_AREA(#86);
#74=SURFACE_STYLE_FILL_AREA(#87);
#75=SURFACE_STYLE_FILL_AREA(#88);
#76=SURFACE_STYLE_FILL_AREA(#89);
#77=SURFACE_STYLE_FILL_AREA(#90);
#78=SURFACE_STYLE_FILL_AREA(#91);
#79=FILL_AREA_STYLE('',(#92));
#80=FILL_AREA_STYLE('',(#93));
#81=FILL_AREA_STYLE('',(#94));
#82=FILL_AREA_STYLE('',(#95));
#83=FILL_AREA_STYLE('',(#96));
#84=FILL_AREA_STYLE('',(#97));
#85=FILL_AREA_STYLE('',(#98));
#86=FILL_AREA_STYLE('',(#99));
#87=FILL_AREA_STYLE('',(#100));
#88=FILL_AREA_STYLE('',(#101));
#89=FILL_AREA_STYLE('',(#102));
#90=FILL_AREA_STYLE('',(#103));
#91=FILL_AREA_STYLE('',(#104));
#92=FILL_AREA_STYLE_COLOUR('',#262);
#93=FILL_AREA_STYLE_COLOUR('',#263);
#94=FILL_AREA_STYLE_COLOUR('',#263);
#95=FILL_AREA_STYLE_COLOUR('',#263);
#96=FILL_AREA_STYLE_COLOUR('',#263);
#97=FILL_AREA_STYLE_COLOUR('',#263);
#98=FILL_AREA_STYLE_COLOUR('',#263);
#99=FILL_AREA_STYLE_COLOUR('',#263);
#100=FILL_AREA_STYLE_COLOUR('',#263);
#101=FILL_AREA_STYLE_COLOUR('',#263);
#102=FILL_AREA_STYLE_COLOUR('',#263);
#103=FILL_AREA_STYLE_COLOUR('',#263);
#104=FILL_AREA_STYLE_COLOUR('',#263);
#105=MANIFOLD_SOLID_BREP('',#106);
#106=CLOSED_SHELL('',(#121,#122,#123,#124,#125,#126,#127,#128,#129,#130,
#131,#132));
#107=CONICAL_SURFACE('',#421,0.05189750940383,7.);
#108=CONICAL_SURFACE('',#422,0.05189750940383,7.);
#109=CONICAL_SURFACE('',#426,0.05189750940383,7.);
#110=CONICAL_SURFACE('',#427,0.05189750940383,7.);
#111=PLANE('',#420);
#112=PLANE('',#423);
#113=PLANE('',#424);
#114=PLANE('',#425);
#115=PLANE('',#428);
#116=PLANE('',#429);
#117=FACE_BOUND('',#147,.T.);
#118=FACE_BOUND('',#148,.T.);
#119=FACE_BOUND('',#157,.T.);
#120=FACE_BOUND('',#158,.T.);
#121=ADVANCED_FACE('',(#135),#133,.F.);
#122=ADVANCED_FACE('',(#136),#134,.F.);
#123=ADVANCED_FACE('',(#117,#118),#111,.T.);
#124=ADVANCED_FACE('',(#137),#107,.T.);
#125=ADVANCED_FACE('',(#138),#108,.T.);
#126=ADVANCED_FACE('',(#139),#112,.T.);
#127=ADVANCED_FACE('',(#140),#113,.T.);
#128=ADVANCED_FACE('',(#141),#114,.T.);
#129=ADVANCED_FACE('',(#142),#109,.T.);
#130=ADVANCED_FACE('',(#143),#110,.T.);
#131=ADVANCED_FACE('',(#144),#115,.T.);
#132=ADVANCED_FACE('',(#119,#120),#116,.F.);
#133=CYLINDRICAL_SURFACE('',#412,1.4);
#134=CYLINDRICAL_SURFACE('',#415,1.4);
#135=FACE_OUTER_BOUND('',#145,.T.);
#136=FACE_OUTER_BOUND('',#146,.T.);
#137=FACE_OUTER_BOUND('',#149,.T.);
#138=FACE_OUTER_BOUND('',#150,.T.);
#139=FACE_OUTER_BOUND('',#151,.T.);
#140=FACE_OUTER_BOUND('',#152,.T.);
#141=FACE_OUTER_BOUND('',#153,.T.);
#142=FACE_OUTER_BOUND('',#154,.T.);
#143=FACE_OUTER_BOUND('',#155,.T.);
#144=FACE_OUTER_BOUND('',#156,.T.);
#145=EDGE_LOOP('',(#159,#160,#161,#162));
#146=EDGE_LOOP('',(#163,#164,#165,#166));
#147=EDGE_LOOP('',(#167,#168,#169,#170,#171,#172,#173,#174));
#148=EDGE_LOOP('',(#175,#176));
#149=EDGE_LOOP('',(#177,#178,#179));
#150=EDGE_LOOP('',(#180,#181,#182));
#151=EDGE_LOOP('',(#183,#184,#185,#186,#187));
#152=EDGE_LOOP('',(#188,#189,#190,#191,#192));
#153=EDGE_LOOP('',(#193,#194,#195,#196,#197));
#154=EDGE_LOOP('',(#198,#199,#200));
#155=EDGE_LOOP('',(#201,#202,#203));
#156=EDGE_LOOP('',(#204,#205,#206,#207,#208));
#157=EDGE_LOOP('',(#209,#210,#211,#212));
#158=EDGE_LOOP('',(#213,#214));
#159=ORIENTED_EDGE('',*,*,#233,.F.);
#160=ORIENTED_EDGE('',*,*,#234,.T.);
#161=ORIENTED_EDGE('',*,*,#235,.F.);
#162=ORIENTED_EDGE('',*,*,#236,.T.);
#163=ORIENTED_EDGE('',*,*,#237,.F.);
#164=ORIENTED_EDGE('',*,*,#234,.F.);
#165=ORIENTED_EDGE('',*,*,#238,.F.);
#166=ORIENTED_EDGE('',*,*,#236,.F.);
#167=ORIENTED_EDGE('',*,*,#239,.T.);
#168=ORIENTED_EDGE('',*,*,#240,.F.);
#169=ORIENTED_EDGE('',*,*,#241,.T.);
#170=ORIENTED_EDGE('',*,*,#242,.T.);
#171=ORIENTED_EDGE('',*,*,#243,.T.);
#172=ORIENTED_EDGE('',*,*,#244,.F.);
#173=ORIENTED_EDGE('',*,*,#245,.T.);
#174=ORIENTED_EDGE('',*,*,#246,.T.);
#175=ORIENTED_EDGE('',*,*,#233,.T.);
#176=ORIENTED_EDGE('',*,*,#238,.T.);
#177=ORIENTED_EDGE('',*,*,#247,.T.);
#178=ORIENTED_EDGE('',*,*,#246,.F.);
#179=ORIENTED_EDGE('',*,*,#248,.F.);
#180=ORIENTED_EDGE('',*,*,#245,.F.);
#181=ORIENTED_EDGE('',*,*,#249,.F.);
#182=ORIENTED_EDGE('',*,*,#248,.T.);
#183=ORIENTED_EDGE('',*,*,#244,.T.);
#184=ORIENTED_EDGE('',*,*,#250,.F.);
#185=ORIENTED_EDGE('',*,*,#251,.F.);
#186=ORIENTED_EDGE('',*,*,#252,.F.);
#187=ORIENTED_EDGE('',*,*,#249,.T.);
#188=ORIENTED_EDGE('',*,*,#252,.T.);
#189=ORIENTED_EDGE('',*,*,#253,.F.);
#190=ORIENTED_EDGE('',*,*,#254,.T.);
#191=ORIENTED_EDGE('',*,*,#239,.F.);
#192=ORIENTED_EDGE('',*,*,#247,.F.);
#193=ORIENTED_EDGE('',*,*,#240,.T.);
#194=ORIENTED_EDGE('',*,*,#254,.F.);
#195=ORIENTED_EDGE('',*,*,#255,.F.);
#196=ORIENTED_EDGE('',*,*,#256,.F.);
#197=ORIENTED_EDGE('',*,*,#257,.T.);
#198=ORIENTED_EDGE('',*,*,#241,.F.);
#199=ORIENTED_EDGE('',*,*,#257,.F.);
#200=ORIENTED_EDGE('',*,*,#258,.T.);
#201=ORIENTED_EDGE('',*,*,#259,.T.);
#202=ORIENTED_EDGE('',*,*,#242,.F.);
#203=ORIENTED_EDGE('',*,*,#258,.F.);
#204=ORIENTED_EDGE('',*,*,#256,.T.);
#205=ORIENTED_EDGE('',*,*,#260,.F.);
#206=ORIENTED_EDGE('',*,*,#250,.T.);
#207=ORIENTED_EDGE('',*,*,#243,.F.);
#208=ORIENTED_EDGE('',*,*,#259,.F.);
#209=ORIENTED_EDGE('',*,*,#253,.T.);
#210=ORIENTED_EDGE('',*,*,#251,.T.);
#211=ORIENTED_EDGE('',*,*,#260,.T.);
#212=ORIENTED_EDGE('',*,*,#255,.T.);
#213=ORIENTED_EDGE('',*,*,#235,.T.);
#214=ORIENTED_EDGE('',*,*,#237,.T.);
#215=VERTEX_POINT('',#525);
#216=VERTEX_POINT('',#526);
#217=VERTEX_POINT('',#528);
#218=VERTEX_POINT('',#530);
#219=VERTEX_POINT('',#537);
#220=VERTEX_POINT('',#538);
#221=VERTEX_POINT('',#540);
#222=VERTEX_POINT('',#542);
#223=VERTEX_POINT('',#544);
#224=VERTEX_POINT('',#546);
#225=VERTEX_POINT('',#548);
#226=VERTEX_POINT('',#550);
#227=VERTEX_POINT('',#554);
#228=VERTEX_POINT('',#560);
#229=VERTEX_POINT('',#562);
#230=VERTEX_POINT('',#566);
#231=VERTEX_POINT('',#570);
#232=VERTEX_POINT('',#572);
#233=EDGE_CURVE('',#215,#216,#268,.T.);
#234=EDGE_CURVE('',#215,#217,#310,.T.);
#235=EDGE_CURVE('',#218,#217,#269,.T.);
#236=EDGE_CURVE('',#218,#216,#311,.T.);
#237=EDGE_CURVE('',#217,#218,#270,.T.);
#238=EDGE_CURVE('',#216,#215,#271,.T.);
#239=EDGE_CURVE('',#219,#220,#312,.T.);
#240=EDGE_CURVE('',#221,#220,#313,.T.);
#241=EDGE_CURVE('',#221,#222,#272,.T.);
#242=EDGE_CURVE('',#222,#223,#273,.T.);
#243=EDGE_CURVE('',#223,#224,#314,.T.);
#244=EDGE_CURVE('',#225,#224,#315,.T.);
#245=EDGE_CURVE('',#225,#226,#274,.T.);
#246=EDGE_CURVE('',#226,#219,#275,.T.);
#247=EDGE_CURVE('',#227,#219,#316,.T.);
#248=EDGE_CURVE('',#227,#226,#317,.T.);
#249=EDGE_CURVE('',#227,#225,#318,.T.);
#250=EDGE_CURVE('',#228,#224,#319,.T.);
#251=EDGE_CURVE('',#229,#228,#320,.T.);
#252=EDGE_CURVE('',#227,#229,#321,.T.);
#253=EDGE_CURVE('',#230,#229,#322,.T.);
#254=EDGE_CURVE('',#230,#220,#323,.T.);
#255=EDGE_CURVE('',#231,#230,#324,.T.);
#256=EDGE_CURVE('',#232,#231,#325,.T.);
#257=EDGE_CURVE('',#232,#221,#326,.T.);
#258=EDGE_CURVE('',#232,#222,#327,.T.);
#259=EDGE_CURVE('',#232,#223,#328,.T.);
#260=EDGE_CURVE('',#228,#231,#329,.T.);
#261=COLOUR_RGB('Strong Stone',0.576470588235294,0.54508278019379,0.392156862745098);
#262=COLOUR_RGB('Medium Steel',0.596063172350652,0.666666666666667,0.686259250782025);
#263=COLOUR_RGB('cutting part',0.8,0.8,0.8);
#264=CIRCLE('',#403,0.1);
#265=CIRCLE('',#404,0.1);
#266=CIRCLE('',#405,0.1);
#267=CIRCLE('',#406,0.1);
#268=CIRCLE('',#410,1.4);
#269=CIRCLE('',#411,1.4);
#270=CIRCLE('',#413,1.4);
#271=CIRCLE('',#414,1.4);
#272=CIRCLE('',#416,0.1);
#273=CIRCLE('',#417,0.1);
#274=CIRCLE('',#418,0.1);
#275=CIRCLE('',#419,0.1);
#276=CURVE_STYLE('',#287,POSITIVE_LENGTH_MEASURE(0.18),#401);
#277=CURVE_STYLE('',#288,POSITIVE_LENGTH_MEASURE(0.18),#401);
#278=CURVE_STYLE('',#289,POSITIVE_LENGTH_MEASURE(0.18),#401);
#279=CURVE_STYLE('',#290,POSITIVE_LENGTH_MEASURE(0.18),#401);
#280=CURVE_STYLE('',#291,POSITIVE_LENGTH_MEASURE(0.18),#401);
#281=CURVE_STYLE('',#292,POSITIVE_LENGTH_MEASURE(0.18),#401);
#282=CURVE_STYLE('',#293,POSITIVE_LENGTH_MEASURE(0.18),#401);
#283=CURVE_STYLE('',#294,POSITIVE_LENGTH_MEASURE(0.18),#401);
#284=CURVE_STYLE('',#295,POSITIVE_LENGTH_MEASURE(0.13),#400);
#285=CURVE_STYLE('',#296,POSITIVE_LENGTH_MEASURE(0.13),#400);
#286=CURVE_STYLE('',#297,POSITIVE_LENGTH_MEASURE(0.13),#261);
#287=DRAUGHTING_PRE_DEFINED_CURVE_FONT('continuous');
#288=DRAUGHTING_PRE_DEFINED_CURVE_FONT('continuous');
#289=DRAUGHTING_PRE_DEFINED_CURVE_FONT('continuous');
#290=DRAUGHTING_PRE_DEFINED_CURVE_FONT('continuous');
#291=DRAUGHTING_PRE_DEFINED_CURVE_FONT('continuous');
#292=DRAUGHTING_PRE_DEFINED_CURVE_FONT('continuous');
#293=DRAUGHTING_PRE_DEFINED_CURVE_FONT('continuous');
#294=DRAUGHTING_PRE_DEFINED_CURVE_FONT('continuous');
#295=DRAUGHTING_PRE_DEFINED_CURVE_FONT('continuous');
#296=DRAUGHTING_PRE_DEFINED_CURVE_FONT('continuous');
#297=DRAUGHTING_PRE_DEFINED_CURVE_FONT('continuous');
#298=TRIMMED_CURVE('',#306,(PARAMETER_VALUE(0.)),(PARAMETER_VALUE(1.)),
 .T.,.PARAMETER.);
#299=TRIMMED_CURVE('',#307,(PARAMETER_VALUE(0.)),(PARAMETER_VALUE(1.)),
 .T.,.PARAMETER.);
#300=TRIMMED_CURVE('',#308,(PARAMETER_VALUE(0.)),(PARAMETER_VALUE(1.)),
 .T.,.PARAMETER.);
#301=TRIMMED_CURVE('',#309,(PARAMETER_VALUE(0.)),(PARAMETER_VALUE(1.)),
 .T.,.PARAMETER.);
#302=TRIMMED_CURVE('',#264,(PARAMETER_VALUE(0.)),(PARAMETER_VALUE(72.49999999998)),
 .T.,.PARAMETER.);
#303=TRIMMED_CURVE('',#265,(PARAMETER_VALUE(0.)),(PARAMETER_VALUE(72.5)),
 .T.,.PARAMETER.);
#304=TRIMMED_CURVE('',#266,(PARAMETER_VALUE(0.)),(PARAMETER_VALUE(72.49999999998)),
 .T.,.PARAMETER.);
#305=TRIMMED_CURVE('',#267,(PARAMETER_VALUE(0.)),(PARAMETER_VALUE(72.5)),
 .T.,.PARAMETER.);
#306=LINE('',#513,#330);
#307=LINE('',#514,#331);
#308=LINE('',#515,#332);
#309=LINE('',#516,#333);
#310=LINE('',#527,#334);
#311=LINE('',#531,#335);
#312=LINE('',#536,#336);
#313=LINE('',#539,#337);
#314=LINE('',#545,#338);
#315=LINE('',#547,#339);
#316=LINE('',#553,#340);
#317=LINE('',#555,#341);
#318=LINE('',#557,#342);
#319=LINE('',#559,#343);
#320=LINE('',#561,#344);
#321=LINE('',#563,#345);
#322=LINE('',#565,#346);
#323=LINE('',#567,#347);
#324=LINE('',#569,#348);
#325=LINE('',#571,#349);
#326=LINE('',#573,#350);
#327=LINE('',#575,#351);
#328=LINE('',#577,#352);
#329=LINE('',#579,#353);
#330=VECTOR('',#432,10.75372767195);
#331=VECTOR('',#433,10.7537276719398);
#332=VECTOR('',#434,10.75372767195);
#333=VECTOR('',#435,10.7537276719398);
#334=VECTOR('',#452,1.);
#335=VECTOR('',#455,1.);
#336=VECTOR('',#464,1.);
#337=VECTOR('',#465,1.);
#338=VECTOR('',#470,1.);
#339=VECTOR('',#471,1.);
#340=VECTOR('',#478,1.);
#341=VECTOR('',#479,1.);
#342=VECTOR('',#482,1.);
#343=VECTOR('',#485,1.);
#344=VECTOR('',#486,1.);
#345=VECTOR('',#487,1.);
#346=VECTOR('',#490,1.);
#347=VECTOR('',#491,1.);
#348=VECTOR('',#494,1.);
#349=VECTOR('',#495,1.);
#350=VECTOR('',#496,1.);
#351=VECTOR('',#499,1.);
#352=VECTOR('',#502,1.);
#353=VECTOR('',#505,1.);
#354=PRESENTATION_LAYER_ASSIGNMENT('1','Layer 1',(#511,#512,#298,#299,#300,
#301,#302,#303,#304,#305,#407,#408,#409));
#355=PRESENTATION_LAYER_ASSIGNMENT('9','Layer 9',(#105));
#356=STYLED_ITEM('',(#370),#511);
#357=STYLED_ITEM('',(#371),#512);
#358=STYLED_ITEM('',(#372),#298);
#359=STYLED_ITEM('',(#373),#299);
#360=STYLED_ITEM('',(#374),#300);
#361=STYLED_ITEM('',(#375),#301);
#362=STYLED_ITEM('',(#376),#302);
#363=STYLED_ITEM('',(#377),#303);
#364=STYLED_ITEM('',(#378),#304);
#365=STYLED_ITEM('',(#379),#305);
#366=STYLED_ITEM('',(#380),#407);
#367=STYLED_ITEM('',(#381),#408);
#368=STYLED_ITEM('',(#382),#409);
#369=STYLED_ITEM('',(#383),#105);
#370=PRESENTATION_STYLE_ASSIGNMENT((#396));
#371=PRESENTATION_STYLE_ASSIGNMENT((#397));
#372=PRESENTATION_STYLE_ASSIGNMENT((#276));
#373=PRESENTATION_STYLE_ASSIGNMENT((#277));
#374=PRESENTATION_STYLE_ASSIGNMENT((#278));
#375=PRESENTATION_STYLE_ASSIGNMENT((#279));
#376=PRESENTATION_STYLE_ASSIGNMENT((#280));
#377=PRESENTATION_STYLE_ASSIGNMENT((#281));
#378=PRESENTATION_STYLE_ASSIGNMENT((#282));
#379=PRESENTATION_STYLE_ASSIGNMENT((#283));
#380=PRESENTATION_STYLE_ASSIGNMENT((#284));
#381=PRESENTATION_STYLE_ASSIGNMENT((#285));
#382=PRESENTATION_STYLE_ASSIGNMENT((#286));
#383=PRESENTATION_STYLE_ASSIGNMENT((#40));
#384=PRESENTATION_STYLE_ASSIGNMENT((#41));
#385=PRESENTATION_STYLE_ASSIGNMENT((#42));
#386=PRESENTATION_STYLE_ASSIGNMENT((#43));
#387=PRESENTATION_STYLE_ASSIGNMENT((#44));
#388=PRESENTATION_STYLE_ASSIGNMENT((#45));
#389=PRESENTATION_STYLE_ASSIGNMENT((#46));
#390=PRESENTATION_STYLE_ASSIGNMENT((#47));
#391=PRESENTATION_STYLE_ASSIGNMENT((#48));
#392=PRESENTATION_STYLE_ASSIGNMENT((#49));
#393=PRESENTATION_STYLE_ASSIGNMENT((#50));
#394=PRESENTATION_STYLE_ASSIGNMENT((#51));
#395=PRESENTATION_STYLE_ASSIGNMENT((#52));
#396=POINT_STYLE('',#398,POSITIVE_LENGTH_MEASURE(3.),#400);
#397=POINT_STYLE('',#399,POSITIVE_LENGTH_MEASURE(3.),#400);
#398=PRE_DEFINED_POINT_MARKER_SYMBOL('plus');
#399=PRE_DEFINED_POINT_MARKER_SYMBOL('plus');
#400=DRAUGHTING_PRE_DEFINED_COLOUR('yellow');
#401=DRAUGHTING_PRE_DEFINED_COLOUR('blue');
#402=AXIS2_PLACEMENT_3D('',#510,#430,#431);
#403=AXIS2_PLACEMENT_3D('',#517,#436,#437);
#404=AXIS2_PLACEMENT_3D('',#518,#438,#439);
#405=AXIS2_PLACEMENT_3D('',#519,#440,#441);
#406=AXIS2_PLACEMENT_3D('',#520,#442,#443);
#407=AXIS2_PLACEMENT_3D('MCS',#521,#444,#445);
#408=AXIS2_PLACEMENT_3D('PCS',#522,#446,#447);
#409=AXIS2_PLACEMENT_3D('',#523,#448,#449);
#410=AXIS2_PLACEMENT_3D('',#524,#450,#451);
#411=AXIS2_PLACEMENT_3D('',#529,#453,#454);
#412=AXIS2_PLACEMENT_3D('',#532,#456,#457);
#413=AXIS2_PLACEMENT_3D('',#533,#458,#459);
#414=AXIS2_PLACEMENT_3D('',#534,#460,#461);
#415=AXIS2_PLACEMENT_3D('',#535,#462,#463);
#416=AXIS2_PLACEMENT_3D('',#541,#466,#467);
#417=AXIS2_PLACEMENT_3D('',#543,#468,#469);
#418=AXIS2_PLACEMENT_3D('',#549,#472,#473);
#419=AXIS2_PLACEMENT_3D('',#551,#474,#475);
#420=AXIS2_PLACEMENT_3D('',#552,#476,#477);
#421=AXIS2_PLACEMENT_3D('',#556,#480,#481);
#422=AXIS2_PLACEMENT_3D('',#558,#483,#484);
#423=AXIS2_PLACEMENT_3D('',#564,#488,#489);
#424=AXIS2_PLACEMENT_3D('',#568,#492,#493);
#425=AXIS2_PLACEMENT_3D('',#574,#497,#498);
#426=AXIS2_PLACEMENT_3D('',#576,#500,#501);
#427=AXIS2_PLACEMENT_3D('',#578,#503,#504);
#428=AXIS2_PLACEMENT_3D('',#580,#506,#507);
#429=AXIS2_PLACEMENT_3D('',#581,#508,#509);
#430=DIRECTION('',(0.,0.,1.));
#431=DIRECTION('',(1.,0.,0.));
#432=DIRECTION('',(1.,0.,0.));
#433=DIRECTION('',(0.819152044289016,0.573576436351011,0.));
#434=DIRECTION('',(-1.,0.,0.));
#435=DIRECTION('',(-0.819152044289016,-0.573576436351011,0.));
#436=DIRECTION('',(0.,0.,1.));
#437=DIRECTION('',(-0.953716950748216,-0.300705799504308,0.));
#438=DIRECTION('',(0.,0.,1.));
#439=DIRECTION('',(0.573576436351011,-0.819152044289016,0.));
#440=DIRECTION('',(0.,0.,1.));
#441=DIRECTION('',(0.953716950748216,0.300705799504308,0.));
#442=DIRECTION('',(0.,0.,1.));
#443=DIRECTION('',(-0.573576436351078,0.819152044288969,0.));
#444=DIRECTION('',(0.,0.,1.));
#445=DIRECTION('',(1.,0.,0.));
#446=DIRECTION('',(0.,0.,1.));
#447=DIRECTION('',(1.,0.,0.));
#448=DIRECTION('',(0.,0.,1.));
#449=DIRECTION('',(1.,0.,0.));
#450=DIRECTION('',(0.,0.,-1.));
#451=DIRECTION('',(-0.300705799504305,0.953716950748217,0.));
#452=DIRECTION('',(0.,0.,-1.));
#453=DIRECTION('',(0.,0.,1.));
#454=DIRECTION('',(0.300705799504305,-0.953716950748217,0.));
#455=DIRECTION('',(0.,0.,1.));
#456=DIRECTION('',(0.,0.,1.));
#457=DIRECTION('',(0.300705799504305,-0.953716950748217,0.));
#458=DIRECTION('',(0.,0.,1.));
#459=DIRECTION('',(-0.300705799504305,0.953716950748217,0.));
#460=DIRECTION('',(0.,0.,-1.));
#461=DIRECTION('',(0.300705799504305,-0.953716950748217,0.));
#462=DIRECTION('',(0.,0.,1.));
#463=DIRECTION('',(0.300705799504305,-0.953716950748217,0.));
#464=DIRECTION('',(1.,0.,0.));
#465=DIRECTION('',(-0.819152044289016,-0.573576436351011,0.));
#466=DIRECTION('',(0.,0.,1.));
#467=DIRECTION('',(0.57357643635101,-0.819152044289014,0.));
#468=DIRECTION('',(0.,0.,1.));
#469=DIRECTION('',(0.95371695074821,0.300705799504307,0.));
#470=DIRECTION('',(-1.,0.,0.));
#471=DIRECTION('',(0.819152044289016,0.573576436351011,0.));
#472=DIRECTION('',(0.,0.,1.));
#473=DIRECTION('',(-0.573576436351079,0.819152044288971,0.));
#474=DIRECTION('',(0.,0.,1.));
#475=DIRECTION('',(-0.95371695074821,-0.300705799504307,0.));
#476=DIRECTION('',(0.,0.,1.));
#477=DIRECTION('',(0.300705799504305,-0.953716950748217,0.));
#478=DIRECTION('',(-1.47986727704804E-14,-0.121869343405103,0.992546151641327));
#479=DIRECTION('',(-0.116228858582003,-0.036646818343701,0.992546151641327));
#480=DIRECTION('',(0.,0.,1.));
#481=DIRECTION('',(0.953716950748217,0.300705799504305,-2.33899266897025E-17));
#482=DIRECTION('',(-0.0699013836907615,0.0998295217864922,0.992546151641322));
#483=DIRECTION('',(0.,0.,1.));
#484=DIRECTION('',(0.953716950748217,0.300705799504305,-2.33899266897025E-17));
#485=DIRECTION('',(-0.0383969203001182,0.121779472850594,0.991814214711454));
#486=DIRECTION('',(0.819152044289016,0.573576436351011,0.));
#487=DIRECTION('',(0.360526322965501,0.11367351299,-0.925796469475601));
#488=DIRECTION('',(-0.569301084572377,0.813046209168167,-0.121869343405095));
#489=DIRECTION('',(0.209325866137677,3.63658755886398E-14,-0.977845939688718));
#490=DIRECTION('',(-1.,0.,0.));
#491=DIRECTION('',(0.0383969203001182,-0.121779472850594,0.991814214711454));
#492=DIRECTION('',(0.,-0.992546151641327,-0.121869343405103));
#493=DIRECTION('',(0.,-0.121869343405103,0.992546151641327));
#494=DIRECTION('',(-0.819152044289016,-0.573576436351011,0.));
#495=DIRECTION('',(-0.360526322965501,-0.11367351299,-0.925796469475601));
#496=DIRECTION('',(0.0699013836907615,-0.0998295217864922,0.992546151641322));
#497=DIRECTION('',(0.569301084572377,-0.813046209168167,-0.121869343405095));
#498=DIRECTION('',(0.209325866137677,3.63658755886398E-14,0.977845939688718));
#499=DIRECTION('',(0.116228858582003,0.036646818343711,0.992546151641327));
#500=DIRECTION('',(0.,0.,1.));
#501=DIRECTION('',(-0.953716950748217,-0.300705799504305,-2.33899266897025E-17));
#502=DIRECTION('',(1.05704805503403E-14,0.121869343405103,0.992546151641327));
#503=DIRECTION('',(0.,0.,1.));
#504=DIRECTION('',(-0.953716950748217,-0.300705799504305,-2.33899266897025E-17));
#505=DIRECTION('',(1.,0.,0.));
#506=DIRECTION('',(0.,0.992546151641327,-0.121869343405103));
#507=DIRECTION('',(0.,-0.121869343405103,-0.992546151641327));
#508=DIRECTION('',(0.,0.,1.));
#509=DIRECTION('',(0.300705799504305,-0.953716950748217,0.));
#510=CARTESIAN_POINT('',(0.,0.,0.));
#511=CARTESIAN_POINT('',(0.,0.,0.));
#512=CARTESIAN_POINT('',(-10.0698134975,-3.174999999996,0.));
#513=CARTESIAN_POINT('',(-9.752654017261,-3.174999999996,0.));
#514=CARTESIAN_POINT('',(1.001073654689,-3.174999999996,0.));
#515=CARTESIAN_POINT('',(9.752654017253,3.174999999996,0.));
#516=CARTESIAN_POINT('',(-1.001073654697,3.174999999996,0.));
#517=CARTESIAN_POINT('',(-9.752654017261,-3.074999999996,0.));
#518=CARTESIAN_POINT('',(9.752654017253,3.074999999996,0.));
#519=CARTESIAN_POINT('',(9.752654017253,3.074999999996,0.));
#520=CARTESIAN_POINT('',(-9.752654017261,-3.074999999996,0.));
#521=CARTESIAN_POINT('',(0.,0.,0.));
#522=CARTESIAN_POINT('',(-10.0698134975,-3.174999999996,0.));
#523=CARTESIAN_POINT('',(0.,0.,0.));
#524=CARTESIAN_POINT('',(0.,0.,0.));
#525=CARTESIAN_POINT('',(-0.420988119306,1.335203731048,0.));
#526=CARTESIAN_POINT('',(0.420988119306,-1.335203731048,0.));
#527=CARTESIAN_POINT('',(-0.420988119306,1.335203731048,0.));
#528=CARTESIAN_POINT('',(-0.420988119306,1.335203731048,-3.18));
#529=CARTESIAN_POINT('',(0.,0.,-3.18));
#530=CARTESIAN_POINT('',(0.420988119306,-1.335203731048,-3.18));
#531=CARTESIAN_POINT('',(0.420988119306,-1.335203731048,-3.18));
#532=CARTESIAN_POINT('',(0.,0.,0.));
#533=CARTESIAN_POINT('',(0.,0.,-3.18));
#534=CARTESIAN_POINT('',(0.,0.,0.));
#535=CARTESIAN_POINT('',(0.,0.,0.));
#536=CARTESIAN_POINT('',(-9.752654017261,-3.174999999996,0.));
#537=CARTESIAN_POINT('',(-9.752654017261,-3.174999999996,0.));
#538=CARTESIAN_POINT('',(1.001073654689,-3.174999999996,0.));
#539=CARTESIAN_POINT('',(9.810011660888,2.993084795567,0.));
#540=CARTESIAN_POINT('',(9.810011660888,2.993084795567,0.));
#541=CARTESIAN_POINT('',(9.752654017253,3.074999999996,0.));
#542=CARTESIAN_POINT('',(9.848025712327,3.105070579946,0.));
#543=CARTESIAN_POINT('',(9.752654017253,3.074999999996,0.));
#544=CARTESIAN_POINT('',(9.752654017253,3.174999999996,0.));
#545=CARTESIAN_POINT('',(9.752654017253,3.174999999996,0.));
#546=CARTESIAN_POINT('',(-1.001073654697,3.174999999996,0.));
#547=CARTESIAN_POINT('',(-9.810011660896,-2.993084795567,0.));
#548=CARTESIAN_POINT('',(-9.810011660896,-2.993084795567,0.));
#549=CARTESIAN_POINT('',(-9.752654017261,-3.074999999996,0.));
#550=CARTESIAN_POINT('',(-9.848025712336,-3.105070579946,0.));
#551=CARTESIAN_POINT('',(-9.752654017261,-3.074999999996,0.));
#552=CARTESIAN_POINT('',(0.,0.,0.));
#553=CARTESIAN_POINT('',(-9.752654017261,-3.074999999996,-0.8144346427975));
#554=CARTESIAN_POINT('',(-9.752654017261,-3.074999999996,-0.8144346427975));
#555=CARTESIAN_POINT('',(-9.752654017261,-3.074999999996,-0.8144346427975));
#556=CARTESIAN_POINT('',(-9.752654017261,-3.074999999996,-0.3917633474636));
#557=CARTESIAN_POINT('',(-9.752654017261,-3.074999999996,-0.8144346427975));
#558=CARTESIAN_POINT('',(-9.752654017261,-3.074999999996,-0.3917633474636));
#559=CARTESIAN_POINT('',(-0.8779636964576,2.784545096324,-3.18));
#560=CARTESIAN_POINT('',(-0.8779636964576,2.784545096324,-3.18));
#561=CARTESIAN_POINT('',(-8.831448754457,-2.784545096325,-3.18));
#562=CARTESIAN_POINT('',(-8.831448754457,-2.784545096325,-3.18));
#563=CARTESIAN_POINT('',(-9.752654017261,-3.074999999996,-0.8144346427975));
#564=CARTESIAN_POINT('',(-2.045132527438,2.443942106967,0.));
#565=CARTESIAN_POINT('',(0.8779636964491,-2.784545096325,-3.18));
#566=CARTESIAN_POINT('',(0.8779636964491,-2.784545096325,-3.18));
#567=CARTESIAN_POINT('',(0.8779636964491,-2.784545096325,-3.18));
#568=CARTESIAN_POINT('',(-0.2734868863304,-3.174999999996,0.));
#569=CARTESIAN_POINT('',(8.831448754448,2.784545096324,-3.18));
#570=CARTESIAN_POINT('',(8.831448754448,2.784545096324,-3.18));
#571=CARTESIAN_POINT('',(9.752654017253,3.074999999996,-0.8144346427975));
#572=CARTESIAN_POINT('',(9.752654017253,3.074999999996,-0.8144346427975));
#573=CARTESIAN_POINT('',(9.752654017253,3.074999999996,-0.8144346427975));
#574=CARTESIAN_POINT('',(2.045132527435,-2.443942106964,0.));
#575=CARTESIAN_POINT('',(9.752654017253,3.074999999996,-0.8144346427975));
#576=CARTESIAN_POINT('',(9.752654017253,3.074999999996,-0.3917633474636));
#577=CARTESIAN_POINT('',(9.752654017253,3.074999999996,-0.8144346427975));
#578=CARTESIAN_POINT('',(9.752654017253,3.074999999996,-0.3917633474636));
#579=CARTESIAN_POINT('',(-0.8779636964576,2.784545096324,-3.18));
#580=CARTESIAN_POINT('',(0.2734868863299,3.174999999996,0.));
#581=CARTESIAN_POINT('',(0.,0.,-3.18));
#582=MECHANICAL_DESIGN_GEOMETRIC_PRESENTATION_REPRESENTATION('',(#356,#357,
#358,#359,#360,#361,#362,#363,#364,#365,#366,#367,#368,#369,#28,#29,#30,
#31,#32,#33,#34,#35,#36,#37,#38,#39),#583);
#583=(
GEOMETRIC_REPRESENTATION_CONTEXT(3)
GLOBAL_UNCERTAINTY_ASSIGNED_CONTEXT((#584))
GLOBAL_UNIT_ASSIGNED_CONTEXT((#590,#586,#585))
REPRESENTATION_CONTEXT('VC110301N','TOP_LEVEL_ASSEMBLY_PART')
);
#584=UNCERTAINTY_MEASURE_WITH_UNIT(LENGTH_MEASURE(2.E-5),#590,
'DISTANCE_ACCURACY_VALUE','Maximum Tolerance applied to model');
#585=(
NAMED_UNIT(*)
SI_UNIT($,.STERADIAN.)
SOLID_ANGLE_UNIT()
);
#586=(
CONVERSION_BASED_UNIT('DEGREE',#588)
NAMED_UNIT(#587)
PLANE_ANGLE_UNIT()
);
#587=DIMENSIONAL_EXPONENTS(0.,0.,0.,0.,0.,0.,0.);
#588=PLANE_ANGLE_MEASURE_WITH_UNIT(PLANE_ANGLE_MEASURE(0.0174532925),#589);
#589=(
NAMED_UNIT(*)
PLANE_ANGLE_UNIT()
SI_UNIT($,.RADIAN.)
);
#590=(
LENGTH_UNIT()
NAMED_UNIT(*)
SI_UNIT(.MILLI.,.METRE.)
);
ENDSEC;
END-ISO-10303-21;
