ISO-10303-21;
HEADER;
/* Generated by software containing ST-Developer
 * from STEP Tools, Inc. (www.steptools.com) 
 */
/* OPTION: using custom schema-name function */

FILE_DESCRIPTION(
/* description */ (''),
/* implementation_level */ '2;1');

FILE_NAME(
/* name */ 'VC130304N.stp',
/* time_stamp */ '2023-10-12T15:40:08+09:00',
/* author */ (''),
/* organization */ (''),
/* preprocessor_version */ 'ST-DEVELOPER v16',
/* originating_system */ 'SIEMENS PLM Software NX 10.0',
/* authorisation */ '');

FILE_SCHEMA (('AUTOMOTIVE_DESIGN { 1 0 10303 214 3 1 1 1 }'));
ENDSEC;

DATA;
#10=CONSTRUCTIVE_GEOMETRY_REPRESENTATION_RELATIONSHIP(
'supplemental geometry','',#26,#11);
#11=CONSTRUCTIVE_GEOMETRY_REPRESENTATION('supplemental geometry',(#386,
#387,#388),#624);
#12=GEOMETRICALLY_BOUNDED_WIREFRAME_SHAPE_REPRESENTATION(
'VC130304N-None',(#27),#624);
#13=SHAPE_REPRESENTATION_RELATIONSHIP('None',
'relationship between VC130304N-None and VC130304N-None',#26,#15);
#14=SHAPE_REPRESENTATION_RELATIONSHIP('None',
'relationship between VC130304N-None and VC130304N-None',#26,#12);
#15=ADVANCED_BREP_SHAPE_REPRESENTATION('VC130304N-None',(#33),#624);
#16=SHAPE_DEFINITION_REPRESENTATION(#17,#26);
#17=PRODUCT_DEFINITION_SHAPE('','',#18);
#18=PRODUCT_DEFINITION('part definition','',#20,#19);
#19=PRODUCT_DEFINITION_CONTEXT('part definition',#25,'design');
#20=PRODUCT_DEFINITION_FORMATION_WITH_SPECIFIED_SOURCE(' ',' ',#22,
 .NOT_KNOWN.);
#21=PRODUCT_RELATED_PRODUCT_CATEGORY('part','',(#22));
#22=PRODUCT('VC130304N','VC130304N','NOT SPECIFIED',(#23));
#23=PRODUCT_CONTEXT('',#25,'mechanical');
#24=APPLICATION_PROTOCOL_DEFINITION('international standard',
'automotive_design',2010,#25);
#25=APPLICATION_CONTEXT(
'core data for automotive mechanical design processes');
#26=SHAPE_REPRESENTATION('VC130304N-None',(#381),#624);
#27=GEOMETRIC_CURVE_SET('None',(#532,#533,#288,#289,#290,#291,#292,#293,
#294,#295));
#28=SURFACE_STYLE_USAGE(.BOTH.,#29);
#29=SURFACE_SIDE_STYLE('',(#30));
#30=SURFACE_STYLE_FILL_AREA(#31);
#31=FILL_AREA_STYLE('',(#32));
#32=FILL_AREA_STYLE_COLOUR('',#276);
#33=MANIFOLD_SOLID_BREP('',#34);
#34=CLOSED_SHELL('',(#59,#60,#61,#62,#63,#64,#65,#66,#67,#68,#69,#70,#71,
#72,#73,#74));
#35=CONICAL_SURFACE('',#416,0.2067248226827,7.);
#36=CONICAL_SURFACE('',#418,0.2067248226827,7.);
#37=CONICAL_SURFACE('',#420,0.2067248226827,7.);
#38=CONICAL_SURFACE('',#422,0.2067248226827,7.);
#39=TOROIDAL_SURFACE('',#403,4.2,2.5);
#40=TOROIDAL_SURFACE('',#405,4.2,2.5);
#41=CYLINDRICAL_SURFACE('',#397,2.25);
#42=CYLINDRICAL_SURFACE('',#399,2.25);
#43=CYLINDRICAL_SURFACE('',#407,1.7);
#44=CYLINDRICAL_SURFACE('',#414,1.7);
#45=FACE_OUTER_BOUND('',#87,.T.);
#46=FACE_OUTER_BOUND('',#88,.T.);
#47=FACE_OUTER_BOUND('',#89,.T.);
#48=FACE_OUTER_BOUND('',#90,.T.);
#49=FACE_OUTER_BOUND('',#91,.T.);
#50=FACE_OUTER_BOUND('',#94,.T.);
#51=FACE_OUTER_BOUND('',#95,.T.);
#52=FACE_OUTER_BOUND('',#96,.T.);
#53=FACE_OUTER_BOUND('',#97,.T.);
#54=FACE_OUTER_BOUND('',#98,.T.);
#55=FACE_OUTER_BOUND('',#99,.T.);
#56=FACE_OUTER_BOUND('',#100,.T.);
#57=FACE_OUTER_BOUND('',#101,.T.);
#58=FACE_OUTER_BOUND('',#102,.T.);
#59=ADVANCED_FACE('',(#81,#82),#75,.T.);
#60=ADVANCED_FACE('',(#45),#41,.F.);
#61=ADVANCED_FACE('',(#46),#42,.F.);
#62=ADVANCED_FACE('',(#47),#39,.T.);
#63=ADVANCED_FACE('',(#48),#40,.T.);
#64=ADVANCED_FACE('',(#49),#43,.F.);
#65=ADVANCED_FACE('',(#83,#84),#76,.F.);
#66=ADVANCED_FACE('',(#50),#44,.F.);
#67=ADVANCED_FACE('',(#51),#77,.T.);
#68=ADVANCED_FACE('',(#52),#35,.T.);
#69=ADVANCED_FACE('',(#53),#78,.T.);
#70=ADVANCED_FACE('',(#54),#36,.T.);
#71=ADVANCED_FACE('',(#55),#79,.T.);
#72=ADVANCED_FACE('',(#56),#37,.T.);
#73=ADVANCED_FACE('',(#57),#80,.T.);
#74=ADVANCED_FACE('',(#58),#38,.T.);
#75=PLANE('',#395);
#76=PLANE('',#413);
#77=PLANE('',#415);
#78=PLANE('',#417);
#79=PLANE('',#419);
#80=PLANE('',#421);
#81=FACE_BOUND('',#85,.T.);
#82=FACE_BOUND('',#86,.T.);
#83=FACE_BOUND('',#92,.T.);
#84=FACE_BOUND('',#93,.T.);
#85=EDGE_LOOP('',(#103,#104,#105,#106,#107,#108,#109,#110));
#86=EDGE_LOOP('',(#111,#112));
#87=EDGE_LOOP('',(#113,#114,#115,#116));
#88=EDGE_LOOP('',(#117,#118,#119,#120));
#89=EDGE_LOOP('',(#121,#122,#123,#124));
#90=EDGE_LOOP('',(#125,#126,#127,#128));
#91=EDGE_LOOP('',(#129,#130,#131,#132));
#92=EDGE_LOOP('',(#133,#134,#135,#136,#137,#138,#139,#140));
#93=EDGE_LOOP('',(#141,#142));
#94=EDGE_LOOP('',(#143,#144,#145,#146));
#95=EDGE_LOOP('',(#147,#148,#149,#150));
#96=EDGE_LOOP('',(#151,#152,#153,#154));
#97=EDGE_LOOP('',(#155,#156,#157,#158));
#98=EDGE_LOOP('',(#159,#160,#161,#162));
#99=EDGE_LOOP('',(#163,#164,#165,#166));
#100=EDGE_LOOP('',(#167,#168,#169,#170));
#101=EDGE_LOOP('',(#171,#172,#173,#174));
#102=EDGE_LOOP('',(#175,#176,#177,#178));
#103=ORIENTED_EDGE('',*,*,#203,.T.);
#104=ORIENTED_EDGE('',*,*,#204,.T.);
#105=ORIENTED_EDGE('',*,*,#205,.T.);
#106=ORIENTED_EDGE('',*,*,#206,.T.);
#107=ORIENTED_EDGE('',*,*,#207,.T.);
#108=ORIENTED_EDGE('',*,*,#208,.T.);
#109=ORIENTED_EDGE('',*,*,#209,.T.);
#110=ORIENTED_EDGE('',*,*,#210,.T.);
#111=ORIENTED_EDGE('',*,*,#211,.T.);
#112=ORIENTED_EDGE('',*,*,#212,.T.);
#113=ORIENTED_EDGE('',*,*,#213,.F.);
#114=ORIENTED_EDGE('',*,*,#214,.T.);
#115=ORIENTED_EDGE('',*,*,#215,.T.);
#116=ORIENTED_EDGE('',*,*,#212,.F.);
#117=ORIENTED_EDGE('',*,*,#215,.F.);
#118=ORIENTED_EDGE('',*,*,#216,.F.);
#119=ORIENTED_EDGE('',*,*,#213,.T.);
#120=ORIENTED_EDGE('',*,*,#211,.F.);
#121=ORIENTED_EDGE('',*,*,#216,.T.);
#122=ORIENTED_EDGE('',*,*,#217,.T.);
#123=ORIENTED_EDGE('',*,*,#218,.F.);
#124=ORIENTED_EDGE('',*,*,#219,.F.);
#125=ORIENTED_EDGE('',*,*,#220,.T.);
#126=ORIENTED_EDGE('',*,*,#217,.F.);
#127=ORIENTED_EDGE('',*,*,#214,.F.);
#128=ORIENTED_EDGE('',*,*,#219,.T.);
#129=ORIENTED_EDGE('',*,*,#221,.T.);
#130=ORIENTED_EDGE('',*,*,#220,.F.);
#131=ORIENTED_EDGE('',*,*,#222,.F.);
#132=ORIENTED_EDGE('',*,*,#223,.T.);
#133=ORIENTED_EDGE('',*,*,#224,.F.);
#134=ORIENTED_EDGE('',*,*,#225,.F.);
#135=ORIENTED_EDGE('',*,*,#226,.F.);
#136=ORIENTED_EDGE('',*,*,#227,.F.);
#137=ORIENTED_EDGE('',*,*,#228,.F.);
#138=ORIENTED_EDGE('',*,*,#229,.F.);
#139=ORIENTED_EDGE('',*,*,#230,.F.);
#140=ORIENTED_EDGE('',*,*,#231,.F.);
#141=ORIENTED_EDGE('',*,*,#232,.F.);
#142=ORIENTED_EDGE('',*,*,#223,.F.);
#143=ORIENTED_EDGE('',*,*,#222,.T.);
#144=ORIENTED_EDGE('',*,*,#218,.T.);
#145=ORIENTED_EDGE('',*,*,#221,.F.);
#146=ORIENTED_EDGE('',*,*,#232,.T.);
#147=ORIENTED_EDGE('',*,*,#233,.T.);
#148=ORIENTED_EDGE('',*,*,#231,.T.);
#149=ORIENTED_EDGE('',*,*,#234,.F.);
#150=ORIENTED_EDGE('',*,*,#210,.F.);
#151=ORIENTED_EDGE('',*,*,#234,.T.);
#152=ORIENTED_EDGE('',*,*,#230,.T.);
#153=ORIENTED_EDGE('',*,*,#235,.F.);
#154=ORIENTED_EDGE('',*,*,#203,.F.);
#155=ORIENTED_EDGE('',*,*,#235,.T.);
#156=ORIENTED_EDGE('',*,*,#229,.T.);
#157=ORIENTED_EDGE('',*,*,#236,.F.);
#158=ORIENTED_EDGE('',*,*,#204,.F.);
#159=ORIENTED_EDGE('',*,*,#236,.T.);
#160=ORIENTED_EDGE('',*,*,#228,.T.);
#161=ORIENTED_EDGE('',*,*,#237,.F.);
#162=ORIENTED_EDGE('',*,*,#205,.F.);
#163=ORIENTED_EDGE('',*,*,#237,.T.);
#164=ORIENTED_EDGE('',*,*,#227,.T.);
#165=ORIENTED_EDGE('',*,*,#238,.F.);
#166=ORIENTED_EDGE('',*,*,#206,.F.);
#167=ORIENTED_EDGE('',*,*,#238,.T.);
#168=ORIENTED_EDGE('',*,*,#226,.T.);
#169=ORIENTED_EDGE('',*,*,#239,.F.);
#170=ORIENTED_EDGE('',*,*,#207,.F.);
#171=ORIENTED_EDGE('',*,*,#239,.T.);
#172=ORIENTED_EDGE('',*,*,#225,.T.);
#173=ORIENTED_EDGE('',*,*,#240,.F.);
#174=ORIENTED_EDGE('',*,*,#208,.F.);
#175=ORIENTED_EDGE('',*,*,#240,.T.);
#176=ORIENTED_EDGE('',*,*,#224,.T.);
#177=ORIENTED_EDGE('',*,*,#233,.F.);
#178=ORIENTED_EDGE('',*,*,#209,.F.);
#179=VERTEX_POINT('',#546);
#180=VERTEX_POINT('',#547);
#181=VERTEX_POINT('',#549);
#182=VERTEX_POINT('',#551);
#183=VERTEX_POINT('',#553);
#184=VERTEX_POINT('',#555);
#185=VERTEX_POINT('',#557);
#186=VERTEX_POINT('',#559);
#187=VERTEX_POINT('',#562);
#188=VERTEX_POINT('',#563);
#189=VERTEX_POINT('',#567);
#190=VERTEX_POINT('',#569);
#191=VERTEX_POINT('',#575);
#192=VERTEX_POINT('',#577);
#193=VERTEX_POINT('',#583);
#194=VERTEX_POINT('',#585);
#195=VERTEX_POINT('',#589);
#196=VERTEX_POINT('',#590);
#197=VERTEX_POINT('',#592);
#198=VERTEX_POINT('',#594);
#199=VERTEX_POINT('',#596);
#200=VERTEX_POINT('',#598);
#201=VERTEX_POINT('',#600);
#202=VERTEX_POINT('',#602);
#203=EDGE_CURVE('',#179,#180,#245,.T.);
#204=EDGE_CURVE('',#180,#181,#300,.T.);
#205=EDGE_CURVE('',#181,#182,#246,.T.);
#206=EDGE_CURVE('',#182,#183,#301,.T.);
#207=EDGE_CURVE('',#183,#184,#247,.T.);
#208=EDGE_CURVE('',#184,#185,#302,.T.);
#209=EDGE_CURVE('',#185,#186,#248,.T.);
#210=EDGE_CURVE('',#186,#179,#303,.T.);
#211=EDGE_CURVE('',#187,#188,#249,.T.);
#212=EDGE_CURVE('',#188,#187,#250,.T.);
#213=EDGE_CURVE('',#189,#188,#304,.T.);
#214=EDGE_CURVE('',#189,#190,#251,.T.);
#215=EDGE_CURVE('',#190,#187,#305,.T.);
#216=EDGE_CURVE('',#189,#190,#252,.T.);
#217=EDGE_CURVE('',#190,#191,#253,.T.);
#218=EDGE_CURVE('',#192,#191,#254,.T.);
#219=EDGE_CURVE('',#189,#192,#255,.T.);
#220=EDGE_CURVE('',#192,#191,#256,.T.);
#221=EDGE_CURVE('',#193,#191,#306,.T.);
#222=EDGE_CURVE('',#194,#192,#307,.T.);
#223=EDGE_CURVE('',#194,#193,#257,.T.);
#224=EDGE_CURVE('',#195,#196,#258,.T.);
#225=EDGE_CURVE('',#197,#195,#308,.T.);
#226=EDGE_CURVE('',#198,#197,#259,.T.);
#227=EDGE_CURVE('',#199,#198,#309,.T.);
#228=EDGE_CURVE('',#200,#199,#260,.T.);
#229=EDGE_CURVE('',#201,#200,#310,.T.);
#230=EDGE_CURVE('',#202,#201,#261,.T.);
#231=EDGE_CURVE('',#196,#202,#311,.T.);
#232=EDGE_CURVE('',#193,#194,#262,.T.);
#233=EDGE_CURVE('',#186,#196,#312,.T.);
#234=EDGE_CURVE('',#179,#202,#313,.T.);
#235=EDGE_CURVE('',#180,#201,#314,.T.);
#236=EDGE_CURVE('',#181,#200,#315,.T.);
#237=EDGE_CURVE('',#182,#199,#316,.T.);
#238=EDGE_CURVE('',#183,#198,#317,.T.);
#239=EDGE_CURVE('',#184,#197,#318,.T.);
#240=EDGE_CURVE('',#185,#195,#319,.T.);
#241=CIRCLE('',#382,0.4);
#242=CIRCLE('',#383,0.4);
#243=CIRCLE('',#384,0.4);
#244=CIRCLE('',#385,0.4);
#245=CIRCLE('',#389,0.4);
#246=CIRCLE('',#390,0.4);
#247=CIRCLE('',#391,0.4);
#248=CIRCLE('',#392,0.4);
#249=CIRCLE('',#393,2.25);
#250=CIRCLE('',#394,2.25);
#251=CIRCLE('',#396,2.25);
#252=CIRCLE('',#398,2.25);
#253=CIRCLE('',#400,2.5);
#254=CIRCLE('',#401,1.7);
#255=CIRCLE('',#402,2.5);
#256=CIRCLE('',#404,1.7);
#257=CIRCLE('',#406,1.7);
#258=CIRCLE('',#408,0.009545096328763);
#259=CIRCLE('',#409,0.009545096328763);
#260=CIRCLE('',#410,0.009545096328763);
#261=CIRCLE('',#411,0.009545096328763);
#262=CIRCLE('',#412,1.7);
#263=CURVE_STYLE('',#277,POSITIVE_LENGTH_MEASURE(0.18),#274);
#264=CURVE_STYLE('',#278,POSITIVE_LENGTH_MEASURE(0.18),#274);
#265=CURVE_STYLE('',#279,POSITIVE_LENGTH_MEASURE(0.18),#274);
#266=CURVE_STYLE('',#280,POSITIVE_LENGTH_MEASURE(0.18),#274);
#267=CURVE_STYLE('',#281,POSITIVE_LENGTH_MEASURE(0.18),#274);
#268=CURVE_STYLE('',#282,POSITIVE_LENGTH_MEASURE(0.18),#274);
#269=CURVE_STYLE('',#283,POSITIVE_LENGTH_MEASURE(0.18),#274);
#270=CURVE_STYLE('',#284,POSITIVE_LENGTH_MEASURE(0.18),#274);
#271=CURVE_STYLE('',#285,POSITIVE_LENGTH_MEASURE(0.13),#380);
#272=CURVE_STYLE('',#286,POSITIVE_LENGTH_MEASURE(0.13),#380);
#273=CURVE_STYLE('',#287,POSITIVE_LENGTH_MEASURE(0.13),#275);
#274=COLOUR_RGB('Medium Royal',0.2,0.4,0.8);
#275=COLOUR_RGB('Strong Stone',0.576470588235294,0.54508278019379,0.392156862745098);
#276=COLOUR_RGB('cutting part',0.8,0.8,0.8);
#277=DRAUGHTING_PRE_DEFINED_CURVE_FONT('continuous');
#278=DRAUGHTING_PRE_DEFINED_CURVE_FONT('continuous');
#279=DRAUGHTING_PRE_DEFINED_CURVE_FONT('continuous');
#280=DRAUGHTING_PRE_DEFINED_CURVE_FONT('continuous');
#281=DRAUGHTING_PRE_DEFINED_CURVE_FONT('continuous');
#282=DRAUGHTING_PRE_DEFINED_CURVE_FONT('continuous');
#283=DRAUGHTING_PRE_DEFINED_CURVE_FONT('continuous');
#284=DRAUGHTING_PRE_DEFINED_CURVE_FONT('continuous');
#285=DRAUGHTING_PRE_DEFINED_CURVE_FONT('continuous');
#286=DRAUGHTING_PRE_DEFINED_CURVE_FONT('continuous');
#287=DRAUGHTING_PRE_DEFINED_CURVE_FONT('continuous');
#288=TRIMMED_CURVE('',#296,(PARAMETER_VALUE(0.)),(PARAMETER_VALUE(1.)),
 .T.,.PARAMETER.);
#289=TRIMMED_CURVE('',#297,(PARAMETER_VALUE(0.)),(PARAMETER_VALUE(1.)),
 .T.,.PARAMETER.);
#290=TRIMMED_CURVE('',#298,(PARAMETER_VALUE(0.)),(PARAMETER_VALUE(1.)),
 .T.,.PARAMETER.);
#291=TRIMMED_CURVE('',#299,(PARAMETER_VALUE(0.)),(PARAMETER_VALUE(1.)),
 .T.,.PARAMETER.);
#292=TRIMMED_CURVE('',#241,(PARAMETER_VALUE(0.)),(PARAMETER_VALUE(35.)),
 .T.,.PARAMETER.);
#293=TRIMMED_CURVE('',#242,(PARAMETER_VALUE(0.)),(PARAMETER_VALUE(145.)),
 .T.,.PARAMETER.);
#294=TRIMMED_CURVE('',#243,(PARAMETER_VALUE(0.)),(PARAMETER_VALUE(35.)),
 .T.,.PARAMETER.);
#295=TRIMMED_CURVE('',#244,(PARAMETER_VALUE(0.)),(PARAMETER_VALUE(145.)),
 .T.,.PARAMETER.);
#296=LINE('',#534,#320);
#297=LINE('',#535,#321);
#298=LINE('',#536,#322);
#299=LINE('',#537,#323);
#300=LINE('',#548,#324);
#301=LINE('',#552,#325);
#302=LINE('',#556,#326);
#303=LINE('',#560,#327);
#304=LINE('',#566,#328);
#305=LINE('',#570,#329);
#306=LINE('',#582,#330);
#307=LINE('',#584,#331);
#308=LINE('',#591,#332);
#309=LINE('',#595,#333);
#310=LINE('',#599,#334);
#311=LINE('',#603,#335);
#312=LINE('',#607,#336);
#313=LINE('',#608,#337);
#314=LINE('',#610,#338);
#315=LINE('',#612,#339);
#316=LINE('',#614,#340);
#317=LINE('',#616,#341);
#318=LINE('',#618,#342);
#319=LINE('',#620,#343);
#320=VECTOR('',#425,12.4482101207298);
#321=VECTOR('',#426,12.44821012073);
#322=VECTOR('',#427,12.4482101207298);
#323=VECTOR('',#428,12.44821012073);
#324=VECTOR('',#445,1.);
#325=VECTOR('',#448,1.);
#326=VECTOR('',#451,1.);
#327=VECTOR('',#454,1.);
#328=VECTOR('',#461,1.);
#329=VECTOR('',#464,1.);
#330=VECTOR('',#483,1.);
#331=VECTOR('',#484,1.);
#332=VECTOR('',#491,1.);
#333=VECTOR('',#494,1.);
#334=VECTOR('',#497,1.);
#335=VECTOR('',#500,1.);
#336=VECTOR('',#507,1.);
#337=VECTOR('',#508,1.);
#338=VECTOR('',#511,1.);
#339=VECTOR('',#514,1.);
#340=VECTOR('',#517,1.);
#341=VECTOR('',#520,1.);
#342=VECTOR('',#523,1.);
#343=VECTOR('',#526,1.);
#344=PRESENTATION_LAYER_ASSIGNMENT('2','Layer 2',(#532,#386));
#345=PRESENTATION_LAYER_ASSIGNMENT('5','Layer 5',(#533,#387));
#346=PRESENTATION_LAYER_ASSIGNMENT('3','Layer 3',(#288,#289,#290,#291,#292,
#293,#294,#295));
#347=PRESENTATION_LAYER_ASSIGNMENT('1','Layer 1',(#388,#33));
#348=STYLED_ITEM('',(#362),#532);
#349=STYLED_ITEM('',(#363),#533);
#350=STYLED_ITEM('',(#364),#288);
#351=STYLED_ITEM('',(#365),#289);
#352=STYLED_ITEM('',(#366),#290);
#353=STYLED_ITEM('',(#367),#291);
#354=STYLED_ITEM('',(#368),#292);
#355=STYLED_ITEM('',(#369),#293);
#356=STYLED_ITEM('',(#370),#294);
#357=STYLED_ITEM('',(#371),#295);
#358=STYLED_ITEM('',(#372),#386);
#359=STYLED_ITEM('',(#373),#387);
#360=STYLED_ITEM('',(#374),#388);
#361=STYLED_ITEM('',(#375),#33);
#362=PRESENTATION_STYLE_ASSIGNMENT((#376));
#363=PRESENTATION_STYLE_ASSIGNMENT((#377));
#364=PRESENTATION_STYLE_ASSIGNMENT((#263));
#365=PRESENTATION_STYLE_ASSIGNMENT((#264));
#366=PRESENTATION_STYLE_ASSIGNMENT((#265));
#367=PRESENTATION_STYLE_ASSIGNMENT((#266));
#368=PRESENTATION_STYLE_ASSIGNMENT((#267));
#369=PRESENTATION_STYLE_ASSIGNMENT((#268));
#370=PRESENTATION_STYLE_ASSIGNMENT((#269));
#371=PRESENTATION_STYLE_ASSIGNMENT((#270));
#372=PRESENTATION_STYLE_ASSIGNMENT((#271));
#373=PRESENTATION_STYLE_ASSIGNMENT((#272));
#374=PRESENTATION_STYLE_ASSIGNMENT((#273));
#375=PRESENTATION_STYLE_ASSIGNMENT((#28));
#376=POINT_STYLE('',#378,POSITIVE_LENGTH_MEASURE(3.),#380);
#377=POINT_STYLE('',#379,POSITIVE_LENGTH_MEASURE(3.),#380);
#378=PRE_DEFINED_POINT_MARKER_SYMBOL('plus');
#379=PRE_DEFINED_POINT_MARKER_SYMBOL('plus');
#380=DRAUGHTING_PRE_DEFINED_COLOUR('yellow');
#381=AXIS2_PLACEMENT_3D('',#531,#423,#424);
#382=AXIS2_PLACEMENT_3D('',#538,#429,#430);
#383=AXIS2_PLACEMENT_3D('',#539,#431,#432);
#384=AXIS2_PLACEMENT_3D('',#540,#433,#434);
#385=AXIS2_PLACEMENT_3D('',#541,#435,#436);
#386=AXIS2_PLACEMENT_3D('MCS',#542,#437,#438);
#387=AXIS2_PLACEMENT_3D('PCS',#543,#439,#440);
#388=AXIS2_PLACEMENT_3D('',#544,#441,#442);
#389=AXIS2_PLACEMENT_3D('',#545,#443,#444);
#390=AXIS2_PLACEMENT_3D('',#550,#446,#447);
#391=AXIS2_PLACEMENT_3D('',#554,#449,#450);
#392=AXIS2_PLACEMENT_3D('',#558,#452,#453);
#393=AXIS2_PLACEMENT_3D('',#561,#455,#456);
#394=AXIS2_PLACEMENT_3D('',#564,#457,#458);
#395=AXIS2_PLACEMENT_3D('',#565,#459,#460);
#396=AXIS2_PLACEMENT_3D('',#568,#462,#463);
#397=AXIS2_PLACEMENT_3D('',#571,#465,#466);
#398=AXIS2_PLACEMENT_3D('',#572,#467,#468);
#399=AXIS2_PLACEMENT_3D('',#573,#469,#470);
#400=AXIS2_PLACEMENT_3D('',#574,#471,#472);
#401=AXIS2_PLACEMENT_3D('',#576,#473,#474);
#402=AXIS2_PLACEMENT_3D('',#578,#475,#476);
#403=AXIS2_PLACEMENT_3D('',#579,#477,#478);
#404=AXIS2_PLACEMENT_3D('',#580,#479,#480);
#405=AXIS2_PLACEMENT_3D('',#581,#481,#482);
#406=AXIS2_PLACEMENT_3D('',#586,#485,#486);
#407=AXIS2_PLACEMENT_3D('',#587,#487,#488);
#408=AXIS2_PLACEMENT_3D('',#588,#489,#490);
#409=AXIS2_PLACEMENT_3D('',#593,#492,#493);
#410=AXIS2_PLACEMENT_3D('',#597,#495,#496);
#411=AXIS2_PLACEMENT_3D('',#601,#498,#499);
#412=AXIS2_PLACEMENT_3D('',#604,#501,#502);
#413=AXIS2_PLACEMENT_3D('',#605,#503,#504);
#414=AXIS2_PLACEMENT_3D('',#606,#505,#506);
#415=AXIS2_PLACEMENT_3D('',#609,#509,#510);
#416=AXIS2_PLACEMENT_3D('',#611,#512,#513);
#417=AXIS2_PLACEMENT_3D('',#613,#515,#516);
#418=AXIS2_PLACEMENT_3D('',#615,#518,#519);
#419=AXIS2_PLACEMENT_3D('',#617,#521,#522);
#420=AXIS2_PLACEMENT_3D('',#619,#524,#525);
#421=AXIS2_PLACEMENT_3D('',#621,#527,#528);
#422=AXIS2_PLACEMENT_3D('',#622,#529,#530);
#423=DIRECTION('',(0.,0.,1.));
#424=DIRECTION('',(1.,0.,0.));
#425=DIRECTION('',(0.819152044289016,0.573576436351011,0.));
#426=DIRECTION('',(-1.,0.,0.));
#427=DIRECTION('',(-0.819152044289016,-0.573576436351011,0.));
#428=DIRECTION('',(1.,0.,0.));
#429=DIRECTION('',(0.,0.,1.));
#430=DIRECTION('',(-4.87890977618477E-14,-1.,0.));
#431=DIRECTION('',(0.,0.,1.));
#432=DIRECTION('',(0.573576436351079,-0.819152044288969,0.));
#433=DIRECTION('',(0.,0.,1.));
#434=DIRECTION('',(-1.40946282423116E-14,1.,0.));
#435=DIRECTION('',(0.,0.,1.));
#436=DIRECTION('',(-0.57357643635101,0.819152044289017,0.));
#437=DIRECTION('',(0.,0.,1.));
#438=DIRECTION('',(1.,0.,0.));
#439=DIRECTION('',(0.,0.,1.));
#440=DIRECTION('',(1.,0.,0.));
#441=DIRECTION('',(0.,0.,1.));
#442=DIRECTION('',(1.,0.,0.));
#443=DIRECTION('',(0.,0.,1.));
#444=DIRECTION('',(0.573576436351079,-0.819152044288969,0.));
#445=DIRECTION('',(-1.,0.,0.));
#446=DIRECTION('',(0.,0.,1.));
#447=DIRECTION('',(-1.40946282423116E-14,0.999999999999999,0.));
#448=DIRECTION('',(-0.819152044289016,-0.573576436351011,0.));
#449=DIRECTION('',(0.,0.,1.));
#450=DIRECTION('',(-0.57357643635101,0.819152044289016,0.));
#451=DIRECTION('',(1.,0.,0.));
#452=DIRECTION('',(0.,0.,1.));
#453=DIRECTION('',(-4.82469966756049E-14,-0.999999999999999,0.));
#454=DIRECTION('',(0.819152044289016,0.573576436351011,0.));
#455=DIRECTION('',(0.,0.,-1.));
#456=DIRECTION('',(-0.953716950748217,-0.300705799504305,0.));
#457=DIRECTION('',(0.,0.,-1.));
#458=DIRECTION('',(0.953716950748217,0.300705799504305,0.));
#459=DIRECTION('',(0.,0.,1.));
#460=DIRECTION('',(-0.300705799504305,0.953716950748217,0.));
#461=DIRECTION('',(0.,0.,1.));
#462=DIRECTION('',(0.,0.,-1.));
#463=DIRECTION('',(0.953716950748217,0.300705799504305,0.));
#464=DIRECTION('',(0.,0.,1.));
#465=DIRECTION('',(0.,0.,-1.));
#466=DIRECTION('',(0.953716950748217,0.300705799504305,0.));
#467=DIRECTION('',(0.,0.,1.));
#468=DIRECTION('',(0.953716950748217,0.300705799504305,0.));
#469=DIRECTION('',(0.,0.,-1.));
#470=DIRECTION('',(0.953716950748217,0.300705799504305,0.));
#471=DIRECTION('',(-0.300705799504305,0.953716950748217,0.));
#472=DIRECTION('',(0.953716950748217,0.300705799504305,0.));
#473=DIRECTION('',(0.,0.,1.));
#474=DIRECTION('',(0.953716950748217,0.300705799504305,0.));
#475=DIRECTION('',(0.300705799504305,-0.953716950748217,0.));
#476=DIRECTION('',(-0.953716950748217,-0.300705799504305,0.));
#477=DIRECTION('',(0.,0.,-1.));
#478=DIRECTION('',(0.953716950748217,0.300705799504305,0.));
#479=DIRECTION('',(0.,0.,-1.));
#480=DIRECTION('',(0.953716950748217,0.300705799504305,0.));
#481=DIRECTION('',(0.,0.,-1.));
#482=DIRECTION('',(0.953716950748217,0.300705799504305,0.));
#483=DIRECTION('',(0.,0.,1.));
#484=DIRECTION('',(0.,0.,1.));
#485=DIRECTION('',(0.,0.,-1.));
#486=DIRECTION('',(0.953716950748217,0.300705799504305,0.));
#487=DIRECTION('',(0.,0.,-1.));
#488=DIRECTION('',(0.953716950748217,0.300705799504305,0.));
#489=DIRECTION('',(0.,0.,1.));
#490=DIRECTION('',(-1.18130841276806E-12,-0.999999999999979,0.));
#491=DIRECTION('',(1.,0.,0.));
#492=DIRECTION('',(0.,0.,1.));
#493=DIRECTION('',(-0.57357643635012,0.819152044289607,0.));
#494=DIRECTION('',(-0.819152044289016,-0.573576436351011,0.));
#495=DIRECTION('',(0.,0.,1.));
#496=DIRECTION('',(1.13587347381544E-13,0.999999999999979,0.));
#497=DIRECTION('',(-1.,0.,0.));
#498=DIRECTION('',(0.,0.,1.));
#499=DIRECTION('',(0.573576436351211,-0.81915204428888,0.));
#500=DIRECTION('',(0.819152044289016,0.573576436351011,0.));
#501=DIRECTION('',(0.,0.,-1.));
#502=DIRECTION('',(-0.953716950748217,-0.300705799504305,0.));
#503=DIRECTION('',(0.,0.,1.));
#504=DIRECTION('',(-0.300705799504305,0.953716950748217,0.));
#505=DIRECTION('',(0.,0.,-1.));
#506=DIRECTION('',(0.953716950748217,0.300705799504305,0.));
#507=DIRECTION('',(-0.0699013836907715,0.0998295217864822,-0.992546151641322));
#508=DIRECTION('',(-0.0699013836907715,0.0998295217864822,-0.992546151641322));
#509=DIRECTION('',(0.569301084572377,-0.813046209168167,-0.121869343405095));
#510=DIRECTION('',(-0.819152044288993,-0.573576436351044,-4.92499829801212E-15));
#511=DIRECTION('',(0.,-0.121869343405103,-0.992546151641327));
#512=DIRECTION('',(0.,0.,1.));
#513=DIRECTION('',(-0.300705799504305,0.953716950748217,-1.83357748109197E-16));
#514=DIRECTION('',(0.,-0.121869343405103,-0.992546151641327));
#515=DIRECTION('',(0.,0.992546151641327,-0.121869343405103));
#516=DIRECTION('',(1.,0.,0.));
#517=DIRECTION('',(0.0699013836907715,-0.0998295217864822,-0.992546151641322));
#518=DIRECTION('',(0.,0.,1.));
#519=DIRECTION('',(-0.300705799504305,0.953716950748217,-1.83357748109197E-16));
#520=DIRECTION('',(0.0699013836907715,-0.0998295217864822,-0.992546151641322));
#521=DIRECTION('',(-0.569301084572377,0.813046209168167,-0.121869343405095));
#522=DIRECTION('',(0.819152044288993,0.573576436351044,-4.92499829801212E-15));
#523=DIRECTION('',(0.,0.121869343405103,-0.992546151641327));
#524=DIRECTION('',(0.,0.,1.));
#525=DIRECTION('',(-0.300705799504305,0.953716950748217,-1.83357748109197E-16));
#526=DIRECTION('',(0.,0.121869343405103,-0.992546151641327));
#527=DIRECTION('',(0.,-0.992546151641327,-0.121869343405103));
#528=DIRECTION('',(-1.,0.,0.));
#529=DIRECTION('',(0.,0.,1.));
#530=DIRECTION('',(-0.300705799504305,0.953716950748217,-1.83357748109197E-16));
#531=CARTESIAN_POINT('',(0.,0.,0.));
#532=CARTESIAN_POINT('',(0.,0.,0.));
#533=CARTESIAN_POINT('',(-12.59123136538,-3.97,0.));
#534=CARTESIAN_POINT('',(1.355047250838,-3.897660817716,0.));
#535=CARTESIAN_POINT('',(11.32259344444,3.97,0.));
#536=CARTESIAN_POINT('',(-1.355047250838,3.897660817716,0.));
#537=CARTESIAN_POINT('',(-11.32259344444,-3.97,0.));
#538=CARTESIAN_POINT('',(1.125616676298,-3.57,0.));
#539=CARTESIAN_POINT('',(11.32259344444,3.57,0.));
#540=CARTESIAN_POINT('',(-1.125616676298,3.57,0.));
#541=CARTESIAN_POINT('',(-11.32259344444,-3.57,0.));
#542=CARTESIAN_POINT('',(0.,0.,0.));
#543=CARTESIAN_POINT('',(-12.59123136538,-3.97,0.));
#544=CARTESIAN_POINT('',(0.,0.,0.));
#545=CARTESIAN_POINT('',(11.32259344444,3.57,0.));
#546=CARTESIAN_POINT('',(11.55202401898,3.242339182284,0.));
#547=CARTESIAN_POINT('',(11.32259344444,3.97,0.));
#548=CARTESIAN_POINT('',(11.32259344444,3.97,0.));
#549=CARTESIAN_POINT('',(-1.125616676298,3.97,0.));
#550=CARTESIAN_POINT('',(-1.125616676298,3.57,0.));
#551=CARTESIAN_POINT('',(-1.355047250838,3.897660817716,0.));
#552=CARTESIAN_POINT('',(-1.355047250838,3.897660817716,0.));
#553=CARTESIAN_POINT('',(-11.55202401898,-3.242339182284,0.));
#554=CARTESIAN_POINT('',(-11.32259344444,-3.57,0.));
#555=CARTESIAN_POINT('',(-11.32259344444,-3.97,0.));
#556=CARTESIAN_POINT('',(-11.32259344444,-3.97,0.));
#557=CARTESIAN_POINT('',(1.125616676298,-3.97,0.));
#558=CARTESIAN_POINT('',(1.125616676298,-3.57,0.));
#559=CARTESIAN_POINT('',(1.355047250838,-3.897660817716,0.));
#560=CARTESIAN_POINT('',(1.355047250838,-3.897660817716,0.));
#561=CARTESIAN_POINT('',(0.,0.,0.));
#562=CARTESIAN_POINT('',(-2.145863139184,-0.6765880488846,0.));
#563=CARTESIAN_POINT('',(2.145863139184,0.6765880488846,0.));
#564=CARTESIAN_POINT('',(0.,0.,0.));
#565=CARTESIAN_POINT('',(0.,0.,0.));
#566=CARTESIAN_POINT('',(2.145863139184,0.6765880488846,-0.7));
#567=CARTESIAN_POINT('',(2.145863139184,0.6765880488846,-0.7));
#568=CARTESIAN_POINT('',(0.,0.,-0.7));
#569=CARTESIAN_POINT('',(-2.145863139184,-0.6765880488846,-0.7));
#570=CARTESIAN_POINT('',(-2.145863139184,-0.6765880488846,-0.7));
#571=CARTESIAN_POINT('',(0.,0.,0.159));
#572=CARTESIAN_POINT('',(0.,0.,-0.7));
#573=CARTESIAN_POINT('',(0.,0.,0.159));
#574=CARTESIAN_POINT('',(-4.005611193143,-1.262964357918,-2.264448784716));
#575=CARTESIAN_POINT('',(-1.621318816272,-0.5111998591573,-2.264448784716));
#576=CARTESIAN_POINT('',(0.,0.,-2.264448784716));
#577=CARTESIAN_POINT('',(1.621318816272,0.5111998591573,-2.264448784716));
#578=CARTESIAN_POINT('',(4.005611193143,1.262964357918,-2.264448784716));
#579=CARTESIAN_POINT('',(0.,0.,-2.264448784716));
#580=CARTESIAN_POINT('',(0.,0.,-2.264448784716));
#581=CARTESIAN_POINT('',(0.,0.,-2.264448784716));
#582=CARTESIAN_POINT('',(-1.621318816272,-0.5111998591573,-3.18));
#583=CARTESIAN_POINT('',(-1.621318816272,-0.5111998591573,-3.18));
#584=CARTESIAN_POINT('',(1.621318816272,0.5111998591573,-3.18));
#585=CARTESIAN_POINT('',(1.621318816272,0.5111998591573,-3.18));
#586=CARTESIAN_POINT('',(0.,0.,-3.18));
#587=CARTESIAN_POINT('',(0.,0.,0.159));
#588=CARTESIAN_POINT('',(1.125616676298,-3.57,-3.18));
#589=CARTESIAN_POINT('',(1.125616676298,-3.579545096329,-3.18));
#590=CARTESIAN_POINT('',(1.131091518635,-3.577818885171,-3.18));
#591=CARTESIAN_POINT('',(-11.32259344444,-3.579545096329,-3.18));
#592=CARTESIAN_POINT('',(-11.32259344444,-3.579545096329,-3.18));
#593=CARTESIAN_POINT('',(-11.32259344444,-3.57,-3.18));
#594=CARTESIAN_POINT('',(-11.32806828677,-3.562181114829,-3.18));
#595=CARTESIAN_POINT('',(-1.131091518635,3.577818885171,-3.18));
#596=CARTESIAN_POINT('',(-1.131091518635,3.577818885171,-3.18));
#597=CARTESIAN_POINT('',(-1.125616676298,3.57,-3.18));
#598=CARTESIAN_POINT('',(-1.125616676298,3.579545096329,-3.18));
#599=CARTESIAN_POINT('',(11.32259344444,3.579545096329,-3.18));
#600=CARTESIAN_POINT('',(11.32259344444,3.579545096329,-3.18));
#601=CARTESIAN_POINT('',(11.32259344444,3.57,-3.18));
#602=CARTESIAN_POINT('',(11.32806828677,3.562181114829,-3.18));
#603=CARTESIAN_POINT('',(1.131091518635,-3.577818885171,-3.18));
#604=CARTESIAN_POINT('',(0.,0.,-3.18));
#605=CARTESIAN_POINT('',(0.,0.,-3.18));
#606=CARTESIAN_POINT('',(0.,0.,0.159));
#607=CARTESIAN_POINT('',(1.355047250838,-3.897660817716,0.));
#608=CARTESIAN_POINT('',(11.55202401898,3.242339182284,0.));
#609=CARTESIAN_POINT('',(0.4375930291476,-4.540069179706,0.));
#610=CARTESIAN_POINT('',(11.32259344444,3.97,0.));
#611=CARTESIAN_POINT('',(11.32259344444,3.57,-1.5741));
#612=CARTESIAN_POINT('',(-1.125616676298,3.97,0.));
#613=CARTESIAN_POINT('',(12.44259824463,3.97,0.));
#614=CARTESIAN_POINT('',(-1.355047250838,3.897660817716,0.));
#615=CARTESIAN_POINT('',(-1.125616676298,3.57,-1.5741));
#616=CARTESIAN_POINT('',(-11.55202401898,-3.242339182284,0.));
#617=CARTESIAN_POINT('',(-0.4375930291476,4.540069179706,0.));
#618=CARTESIAN_POINT('',(-11.32259344444,-3.97,0.));
#619=CARTESIAN_POINT('',(-11.32259344444,-3.57,-1.5741));
#620=CARTESIAN_POINT('',(1.125616676298,-3.97,0.));
#621=CARTESIAN_POINT('',(-12.44259824463,-3.97,0.));
#622=CARTESIAN_POINT('',(1.125616676298,-3.57,-1.5741));
#623=MECHANICAL_DESIGN_GEOMETRIC_PRESENTATION_REPRESENTATION('',(#348,#349,
#350,#351,#352,#353,#354,#355,#356,#357,#358,#359,#360,#361),#624);
#624=(
GEOMETRIC_REPRESENTATION_CONTEXT(3)
GLOBAL_UNCERTAINTY_ASSIGNED_CONTEXT((#625))
GLOBAL_UNIT_ASSIGNED_CONTEXT((#631,#627,#626))
REPRESENTATION_CONTEXT('VC130304N','TOP_LEVEL_ASSEMBLY_PART')
);
#625=UNCERTAINTY_MEASURE_WITH_UNIT(LENGTH_MEASURE(2.E-5),#631,
'DISTANCE_ACCURACY_VALUE','Maximum Tolerance applied to model');
#626=(
NAMED_UNIT(*)
SI_UNIT($,.STERADIAN.)
SOLID_ANGLE_UNIT()
);
#627=(
CONVERSION_BASED_UNIT('DEGREE',#629)
NAMED_UNIT(#628)
PLANE_ANGLE_UNIT()
);
#628=DIMENSIONAL_EXPONENTS(0.,0.,0.,0.,0.,0.,0.);
#629=PLANE_ANGLE_MEASURE_WITH_UNIT(PLANE_ANGLE_MEASURE(0.0174532925),#630);
#630=(
NAMED_UNIT(*)
PLANE_ANGLE_UNIT()
SI_UNIT($,.RADIAN.)
);
#631=(
LENGTH_UNIT()
NAMED_UNIT(*)
SI_UNIT(.MILLI.,.METRE.)
);
ENDSEC;
END-ISO-10303-21;
