ISO-10303-21;
HEADER;
/* Generated by software containing ST-Developer
 * from STEP Tools, Inc. (www.steptools.com) 
 */
/* OPTION: using custom schema-name function */

FILE_DESCRIPTION(
/* description */ (''),
/* implementation_level */ '2;1');

FILE_NAME(
/* name */ 'STAWSN0027_ID0_4219.stp',
/* time_stamp */ '2025-06-11T16:54:52+09:00',
/* author */ (''),
/* organization */ (''),
/* preprocessor_version */ 'ST-DEVELOPER v18.101',
/* originating_system */ 'SIEMENS PLM Software NX 2011',
/* authorisation */ '');

FILE_SCHEMA (('AUTOMOTIVE_DESIGN { 1 0 10303 214 3 1 1 1 }'));
ENDSEC;

DATA;
#10=CONSTRUCTIVE_GEOMETRY_REPRESENTATION_RELATIONSHIP(
'supplemental geometry','',#26,#11);
#11=CONSTRUCTIVE_GEOMETRY_REPRESENTATION('supplemental geometry',(#392,
#393,#394,#395,#396,#397,#398),#666);
#12=GEOMETRICALLY_BOUNDED_WIREFRAME_SHAPE_REPRESENTATION(
'STAWSN0027_ID0_4219-None',(#27),#666);
#13=SHAPE_REPRESENTATION_RELATIONSHIP('None',
'relationship between STAWSN0027_ID0_4219-None and STAWSN0027_ID0_4219
-None',#26,#15);
#14=SHAPE_REPRESENTATION_RELATIONSHIP('None',
'relationship between STAWSN0027_ID0_4219-None and STAWSN0027_ID0_4219
-None',#26,#12);
#15=ADVANCED_BREP_SHAPE_REPRESENTATION('STAWSN0027_ID0_4219-None',(#42,
#43),#666);
#16=SHAPE_DEFINITION_REPRESENTATION(#17,#26);
#17=PRODUCT_DEFINITION_SHAPE('','SHAPE FOR STAWSN0027_ID0_4219_ASM.',#18);
#18=PRODUCT_DEFINITION('part definition','',#20,#19);
#19=PRODUCT_DEFINITION_CONTEXT('part definition',#25,'design');
#20=PRODUCT_DEFINITION_FORMATION_WITH_SPECIFIED_SOURCE(' ',' ',#22,
 .NOT_KNOWN.);
#21=PRODUCT_RELATED_PRODUCT_CATEGORY('part','',(#22));
#22=PRODUCT('STAWSN0027_ID0_4219_ASM','STAWSN0027_ID0_4219_ASM',
'NOT SPECIFIED',(#23));
#23=PRODUCT_CONTEXT('',#25,'mechanical');
#24=APPLICATION_PROTOCOL_DEFINITION('international standard',
'automotive_design',2010,#25);
#25=APPLICATION_CONTEXT(
'core data for automotive mechanical design processes');
#26=SHAPE_REPRESENTATION('STAWSN0027_ID0_4219-None',(#391),#666);
#27=GEOMETRIC_CURVE_SET('None',(#569,#313,#314,#315,#316));
#28=TOROIDAL_SURFACE('',#427,8.067968477466,0.4);
#29=TOROIDAL_SURFACE('',#429,8.067968477452,0.4);
#30=TOROIDAL_SURFACE('',#437,5.445,0.4);
#31=TOROIDAL_SURFACE('',#439,5.445,0.4);
#32=SURFACE_STYLE_USAGE(.BOTH.,#34);
#33=SURFACE_STYLE_USAGE(.BOTH.,#35);
#34=SURFACE_SIDE_STYLE('',(#36));
#35=SURFACE_SIDE_STYLE('',(#37));
#36=SURFACE_STYLE_FILL_AREA(#38);
#37=SURFACE_STYLE_FILL_AREA(#39);
#38=FILL_AREA_STYLE('',(#40));
#39=FILL_AREA_STYLE('',(#41));
#40=FILL_AREA_STYLE_COLOUR('',#389);
#41=FILL_AREA_STYLE_COLOUR('',#390);
#42=MANIFOLD_SOLID_BREP('CUT',#44);
#43=MANIFOLD_SOLID_BREP('NOCUT',#45);
#44=CLOSED_SHELL('',(#55,#56,#57,#58,#59));
#45=CLOSED_SHELL('',(#60,#61,#62,#63,#64,#65,#66,#67,#68,#69,#70,#71,#72,
#73));
#46=PLANE('',#407);
#47=PLANE('',#412);
#48=PLANE('',#418);
#49=CYLINDRICAL_SURFACE('',#404,5.35813);
#50=CYLINDRICAL_SURFACE('',#406,5.35813);
#51=CYLINDRICAL_SURFACE('',#415,7.9375);
#52=CYLINDRICAL_SURFACE('',#423,7.9375);
#53=CYLINDRICAL_SURFACE('',#442,5.045);
#54=CYLINDRICAL_SURFACE('',#443,5.045);
#55=ADVANCED_FACE('',(#80),#74,.T.);
#56=ADVANCED_FACE('',(#81),#75,.T.);
#57=ADVANCED_FACE('',(#82),#49,.T.);
#58=ADVANCED_FACE('',(#83),#50,.T.);
#59=ADVANCED_FACE('',(#84),#46,.T.);
#60=ADVANCED_FACE('',(#85),#47,.T.);
#61=ADVANCED_FACE('',(#86),#51,.T.);
#62=ADVANCED_FACE('',(#87),#48,.T.);
#63=ADVANCED_FACE('',(#88),#76,.T.);
#64=ADVANCED_FACE('',(#89),#77,.T.);
#65=ADVANCED_FACE('',(#90),#52,.T.);
#66=ADVANCED_FACE('',(#91),#28,.F.);
#67=ADVANCED_FACE('',(#92),#29,.F.);
#68=ADVANCED_FACE('',(#93),#78,.T.);
#69=ADVANCED_FACE('',(#94),#79,.T.);
#70=ADVANCED_FACE('',(#95),#30,.F.);
#71=ADVANCED_FACE('',(#96),#31,.F.);
#72=ADVANCED_FACE('',(#97),#53,.T.);
#73=ADVANCED_FACE('',(#98),#54,.T.);
#74=CONICAL_SURFACE('',#400,2.7326463,70.0000971436908);
#75=CONICAL_SURFACE('',#402,2.7326463,70.0000971436908);
#76=CONICAL_SURFACE('',#419,7.36014973081,30.0000416330103);
#77=CONICAL_SURFACE('',#421,7.36014973081,30.0000416330103);
#78=CONICAL_SURFACE('',#431,6.468285078068,14.0000194287382);
#79=CONICAL_SURFACE('',#433,6.468285078093,14.0000194287382);
#80=FACE_OUTER_BOUND('',#99,.T.);
#81=FACE_OUTER_BOUND('',#100,.T.);
#82=FACE_OUTER_BOUND('',#101,.T.);
#83=FACE_OUTER_BOUND('',#102,.T.);
#84=FACE_OUTER_BOUND('',#103,.T.);
#85=FACE_OUTER_BOUND('',#104,.T.);
#86=FACE_OUTER_BOUND('',#105,.T.);
#87=FACE_OUTER_BOUND('',#106,.T.);
#88=FACE_OUTER_BOUND('',#107,.T.);
#89=FACE_OUTER_BOUND('',#108,.T.);
#90=FACE_OUTER_BOUND('',#109,.T.);
#91=FACE_OUTER_BOUND('',#110,.T.);
#92=FACE_OUTER_BOUND('',#111,.T.);
#93=FACE_OUTER_BOUND('',#112,.T.);
#94=FACE_OUTER_BOUND('',#113,.T.);
#95=FACE_OUTER_BOUND('',#114,.T.);
#96=FACE_OUTER_BOUND('',#115,.T.);
#97=FACE_OUTER_BOUND('',#116,.T.);
#98=FACE_OUTER_BOUND('',#117,.T.);
#99=EDGE_LOOP('',(#144,#145,#146));
#100=EDGE_LOOP('',(#147,#148,#149));
#101=EDGE_LOOP('',(#150,#151,#152,#153));
#102=EDGE_LOOP('',(#154,#155,#156,#157));
#103=EDGE_LOOP('',(#158,#159));
#104=EDGE_LOOP('',(#160,#161,#162,#163));
#105=EDGE_LOOP('',(#164,#165,#166,#167));
#106=EDGE_LOOP('',(#168,#169));
#107=EDGE_LOOP('',(#170,#171,#172,#173));
#108=EDGE_LOOP('',(#174,#175,#176,#177));
#109=EDGE_LOOP('',(#178,#179,#180,#181));
#110=EDGE_LOOP('',(#182,#183,#184,#185));
#111=EDGE_LOOP('',(#186,#187,#188,#189));
#112=EDGE_LOOP('',(#190,#191,#192,#193));
#113=EDGE_LOOP('',(#194,#195,#196,#197));
#114=EDGE_LOOP('',(#198,#199,#200,#201));
#115=EDGE_LOOP('',(#202,#203,#204,#205));
#116=EDGE_LOOP('',(#206,#207,#208,#209,#210,#211,#212,#213,#214));
#117=EDGE_LOOP('',(#215,#216,#217,#218,#219,#220,#221,#222,#223));
#118=CIRCLE('',#399,5.35813);
#119=CIRCLE('',#401,5.35813);
#120=CIRCLE('',#403,5.35813);
#121=CIRCLE('',#405,5.35813);
#122=CIRCLE('',#408,5.045);
#123=CIRCLE('',#409,5.045);
#124=CIRCLE('',#410,5.045);
#125=CIRCLE('',#411,5.045);
#126=CIRCLE('',#413,7.9375);
#127=CIRCLE('',#414,7.9375);
#128=CIRCLE('',#416,6.782799461621);
#129=CIRCLE('',#417,6.782799461621);
#130=CIRCLE('',#420,7.9375);
#131=CIRCLE('',#422,7.937500000001);
#132=CIRCLE('',#424,0.4);
#133=CIRCLE('',#425,0.4);
#134=CIRCLE('',#426,7.679850186956);
#135=CIRCLE('',#428,7.679850186942);
#136=CIRCLE('',#430,5.256719969194);
#137=CIRCLE('',#432,5.256719969226);
#138=CIRCLE('',#434,0.4);
#139=CIRCLE('',#435,0.4);
#140=CIRCLE('',#436,5.045);
#141=CIRCLE('',#438,5.045);
#142=CIRCLE('',#440,5.045);
#143=CIRCLE('',#441,5.045);
#144=ORIENTED_EDGE('',*,*,#249,.F.);
#145=ORIENTED_EDGE('',*,*,#250,.T.);
#146=ORIENTED_EDGE('',*,*,#251,.T.);
#147=ORIENTED_EDGE('',*,*,#252,.T.);
#148=ORIENTED_EDGE('',*,*,#250,.F.);
#149=ORIENTED_EDGE('',*,*,#249,.T.);
#150=ORIENTED_EDGE('',*,*,#252,.F.);
#151=ORIENTED_EDGE('',*,*,#253,.F.);
#152=ORIENTED_EDGE('',*,*,#254,.F.);
#153=ORIENTED_EDGE('',*,*,#255,.T.);
#154=ORIENTED_EDGE('',*,*,#251,.F.);
#155=ORIENTED_EDGE('',*,*,#255,.F.);
#156=ORIENTED_EDGE('',*,*,#256,.F.);
#157=ORIENTED_EDGE('',*,*,#253,.T.);
#158=ORIENTED_EDGE('',*,*,#254,.T.);
#159=ORIENTED_EDGE('',*,*,#256,.T.);
#160=ORIENTED_EDGE('',*,*,#257,.T.);
#161=ORIENTED_EDGE('',*,*,#258,.T.);
#162=ORIENTED_EDGE('',*,*,#259,.T.);
#163=ORIENTED_EDGE('',*,*,#260,.T.);
#164=ORIENTED_EDGE('',*,*,#261,.F.);
#165=ORIENTED_EDGE('',*,*,#262,.F.);
#166=ORIENTED_EDGE('',*,*,#263,.T.);
#167=ORIENTED_EDGE('',*,*,#264,.F.);
#168=ORIENTED_EDGE('',*,*,#265,.T.);
#169=ORIENTED_EDGE('',*,*,#266,.T.);
#170=ORIENTED_EDGE('',*,*,#264,.T.);
#171=ORIENTED_EDGE('',*,*,#267,.F.);
#172=ORIENTED_EDGE('',*,*,#266,.F.);
#173=ORIENTED_EDGE('',*,*,#268,.T.);
#174=ORIENTED_EDGE('',*,*,#265,.F.);
#175=ORIENTED_EDGE('',*,*,#267,.T.);
#176=ORIENTED_EDGE('',*,*,#269,.T.);
#177=ORIENTED_EDGE('',*,*,#268,.F.);
#178=ORIENTED_EDGE('',*,*,#263,.F.);
#179=ORIENTED_EDGE('',*,*,#270,.F.);
#180=ORIENTED_EDGE('',*,*,#261,.T.);
#181=ORIENTED_EDGE('',*,*,#269,.F.);
#182=ORIENTED_EDGE('',*,*,#271,.F.);
#183=ORIENTED_EDGE('',*,*,#270,.T.);
#184=ORIENTED_EDGE('',*,*,#272,.T.);
#185=ORIENTED_EDGE('',*,*,#273,.T.);
#186=ORIENTED_EDGE('',*,*,#272,.F.);
#187=ORIENTED_EDGE('',*,*,#262,.T.);
#188=ORIENTED_EDGE('',*,*,#271,.T.);
#189=ORIENTED_EDGE('',*,*,#274,.T.);
#190=ORIENTED_EDGE('',*,*,#275,.F.);
#191=ORIENTED_EDGE('',*,*,#274,.F.);
#192=ORIENTED_EDGE('',*,*,#276,.T.);
#193=ORIENTED_EDGE('',*,*,#277,.F.);
#194=ORIENTED_EDGE('',*,*,#276,.F.);
#195=ORIENTED_EDGE('',*,*,#273,.F.);
#196=ORIENTED_EDGE('',*,*,#275,.T.);
#197=ORIENTED_EDGE('',*,*,#278,.F.);
#198=ORIENTED_EDGE('',*,*,#279,.F.);
#199=ORIENTED_EDGE('',*,*,#278,.T.);
#200=ORIENTED_EDGE('',*,*,#280,.T.);
#201=ORIENTED_EDGE('',*,*,#281,.T.);
#202=ORIENTED_EDGE('',*,*,#280,.F.);
#203=ORIENTED_EDGE('',*,*,#277,.T.);
#204=ORIENTED_EDGE('',*,*,#279,.T.);
#205=ORIENTED_EDGE('',*,*,#282,.T.);
#206=ORIENTED_EDGE('',*,*,#283,.T.);
#207=ORIENTED_EDGE('',*,*,#284,.F.);
#208=ORIENTED_EDGE('',*,*,#258,.F.);
#209=ORIENTED_EDGE('',*,*,#257,.F.);
#210=ORIENTED_EDGE('',*,*,#285,.F.);
#211=ORIENTED_EDGE('',*,*,#286,.F.);
#212=ORIENTED_EDGE('',*,*,#287,.T.);
#213=ORIENTED_EDGE('',*,*,#282,.F.);
#214=ORIENTED_EDGE('',*,*,#288,.T.);
#215=ORIENTED_EDGE('',*,*,#286,.T.);
#216=ORIENTED_EDGE('',*,*,#285,.T.);
#217=ORIENTED_EDGE('',*,*,#260,.F.);
#218=ORIENTED_EDGE('',*,*,#259,.F.);
#219=ORIENTED_EDGE('',*,*,#284,.T.);
#220=ORIENTED_EDGE('',*,*,#283,.F.);
#221=ORIENTED_EDGE('',*,*,#288,.F.);
#222=ORIENTED_EDGE('',*,*,#281,.F.);
#223=ORIENTED_EDGE('',*,*,#287,.F.);
#224=VERTEX_POINT('',#582);
#225=VERTEX_POINT('',#583);
#226=VERTEX_POINT('',#585);
#227=VERTEX_POINT('',#591);
#228=VERTEX_POINT('',#593);
#229=VERTEX_POINT('',#600);
#230=VERTEX_POINT('',#601);
#231=VERTEX_POINT('',#603);
#232=VERTEX_POINT('',#605);
#233=VERTEX_POINT('',#609);
#234=VERTEX_POINT('',#610);
#235=VERTEX_POINT('',#612);
#236=VERTEX_POINT('',#614);
#237=VERTEX_POINT('',#618);
#238=VERTEX_POINT('',#619);
#239=VERTEX_POINT('',#630);
#240=VERTEX_POINT('',#632);
#241=VERTEX_POINT('',#638);
#242=VERTEX_POINT('',#640);
#243=VERTEX_POINT('',#646);
#244=VERTEX_POINT('',#648);
#245=VERTEX_POINT('',#654);
#246=VERTEX_POINT('',#655);
#247=VERTEX_POINT('',#658);
#248=VERTEX_POINT('',#660);
#249=EDGE_CURVE('',#224,#225,#321,.T.);
#250=EDGE_CURVE('',#224,#226,#322,.T.);
#251=EDGE_CURVE('',#226,#225,#118,.T.);
#252=EDGE_CURVE('',#225,#226,#119,.T.);
#253=EDGE_CURVE('',#227,#225,#323,.T.);
#254=EDGE_CURVE('',#228,#227,#120,.T.);
#255=EDGE_CURVE('',#228,#226,#324,.T.);
#256=EDGE_CURVE('',#227,#228,#121,.T.);
#257=EDGE_CURVE('',#229,#230,#122,.T.);
#258=EDGE_CURVE('',#230,#231,#123,.T.);
#259=EDGE_CURVE('',#231,#232,#124,.T.);
#260=EDGE_CURVE('',#232,#229,#125,.T.);
#261=EDGE_CURVE('',#233,#234,#325,.T.);
#262=EDGE_CURVE('',#235,#233,#126,.T.);
#263=EDGE_CURVE('',#235,#236,#326,.T.);
#264=EDGE_CURVE('',#234,#236,#127,.T.);
#265=EDGE_CURVE('',#237,#238,#128,.T.);
#266=EDGE_CURVE('',#238,#237,#129,.T.);
#267=EDGE_CURVE('',#237,#236,#327,.T.);
#268=EDGE_CURVE('',#238,#234,#328,.T.);
#269=EDGE_CURVE('',#236,#234,#130,.T.);
#270=EDGE_CURVE('',#233,#235,#131,.T.);
#271=EDGE_CURVE('',#233,#239,#132,.T.);
#272=EDGE_CURVE('',#235,#240,#133,.T.);
#273=EDGE_CURVE('',#240,#239,#134,.T.);
#274=EDGE_CURVE('',#239,#240,#135,.T.);
#275=EDGE_CURVE('',#240,#241,#329,.T.);
#276=EDGE_CURVE('',#239,#242,#330,.T.);
#277=EDGE_CURVE('',#241,#242,#136,.T.);
#278=EDGE_CURVE('',#242,#241,#137,.T.);
#279=EDGE_CURVE('',#242,#243,#138,.T.);
#280=EDGE_CURVE('',#241,#244,#139,.T.);
#281=EDGE_CURVE('',#244,#243,#140,.T.);
#282=EDGE_CURVE('',#243,#244,#141,.T.);
#283=EDGE_CURVE('',#245,#246,#142,.T.);
#284=EDGE_CURVE('',#231,#246,#331,.T.);
#285=EDGE_CURVE('',#247,#229,#332,.T.);
#286=EDGE_CURVE('',#248,#247,#143,.T.);
#287=EDGE_CURVE('',#248,#244,#333,.T.);
#288=EDGE_CURVE('',#243,#245,#334,.T.);
#289=CURVE_STYLE('',#302,POSITIVE_LENGTH_MEASURE(0.13),#300);
#290=CURVE_STYLE('',#303,POSITIVE_LENGTH_MEASURE(0.13),#300);
#291=CURVE_STYLE('',#304,POSITIVE_LENGTH_MEASURE(0.13),#300);
#292=CURVE_STYLE('',#305,POSITIVE_LENGTH_MEASURE(0.13),#300);
#293=CURVE_STYLE('',#306,POSITIVE_LENGTH_MEASURE(0.13),#387);
#294=CURVE_STYLE('',#307,POSITIVE_LENGTH_MEASURE(0.13),#387);
#295=CURVE_STYLE('',#308,POSITIVE_LENGTH_MEASURE(0.13),#388);
#296=CURVE_STYLE('',#309,POSITIVE_LENGTH_MEASURE(0.13),#301);
#297=CURVE_STYLE('',#310,POSITIVE_LENGTH_MEASURE(0.13),#301);
#298=CURVE_STYLE('',#311,POSITIVE_LENGTH_MEASURE(0.13),#387);
#299=CURVE_STYLE('',#312,POSITIVE_LENGTH_MEASURE(0.13),#387);
#300=DRAUGHTING_PRE_DEFINED_COLOUR('blue');
#301=DRAUGHTING_PRE_DEFINED_COLOUR('yellow');
#302=DRAUGHTING_PRE_DEFINED_CURVE_FONT('continuous');
#303=DRAUGHTING_PRE_DEFINED_CURVE_FONT('continuous');
#304=DRAUGHTING_PRE_DEFINED_CURVE_FONT('continuous');
#305=DRAUGHTING_PRE_DEFINED_CURVE_FONT('continuous');
#306=DRAUGHTING_PRE_DEFINED_CURVE_FONT('continuous');
#307=DRAUGHTING_PRE_DEFINED_CURVE_FONT('continuous');
#308=DRAUGHTING_PRE_DEFINED_CURVE_FONT('continuous');
#309=DRAUGHTING_PRE_DEFINED_CURVE_FONT('continuous');
#310=DRAUGHTING_PRE_DEFINED_CURVE_FONT('continuous');
#311=DRAUGHTING_PRE_DEFINED_CURVE_FONT('continuous');
#312=DRAUGHTING_PRE_DEFINED_CURVE_FONT('continuous');
#313=TRIMMED_CURVE('',#317,(PARAMETER_VALUE(0.)),(PARAMETER_VALUE(1.)),
 .T.,.PARAMETER.);
#314=TRIMMED_CURVE('',#318,(PARAMETER_VALUE(0.)),(PARAMETER_VALUE(1.)),
 .T.,.PARAMETER.);
#315=TRIMMED_CURVE('',#319,(PARAMETER_VALUE(0.)),(PARAMETER_VALUE(1.)),
 .T.,.PARAMETER.);
#316=TRIMMED_CURVE('',#320,(PARAMETER_VALUE(0.)),(PARAMETER_VALUE(1.)),
 .T.,.PARAMETER.);
#317=LINE('',#570,#335);
#318=LINE('',#571,#336);
#319=LINE('',#572,#337);
#320=LINE('',#573,#338);
#321=LINE('',#581,#339);
#322=LINE('',#584,#340);
#323=LINE('',#590,#341);
#324=LINE('',#594,#342);
#325=LINE('',#608,#343);
#326=LINE('',#613,#344);
#327=LINE('',#622,#345);
#328=LINE('',#623,#346);
#329=LINE('',#637,#347);
#330=LINE('',#639,#348);
#331=LINE('',#656,#349);
#332=LINE('',#657,#350);
#333=LINE('',#661,#351);
#334=LINE('',#662,#352);
#335=VECTOR('',#446,5.70200284803601);
#336=VECTOR('',#447,3.98779999999999);
#337=VECTOR('',#448,5.35813);
#338=VECTOR('',#449,5.93799983132899);
#339=VECTOR('',#464,1.);
#340=VECTOR('',#465,1.);
#341=VECTOR('',#474,1.);
#342=VECTOR('',#477,1.);
#343=VECTOR('',#496,1.);
#344=VECTOR('',#499,1.);
#345=VECTOR('',#510,1.);
#346=VECTOR('',#511,1.);
#347=VECTOR('',#534,1.);
#348=VECTOR('',#535,1.);
#349=VECTOR('',#558,1.);
#350=VECTOR('',#559,1.);
#351=VECTOR('',#562,1.);
#352=VECTOR('',#563,1.);
#353=PRESENTATION_LAYER_ASSIGNMENT('1','Layer 1',(#569,#392,#393,#394,#395,
#397,#398,#42,#43));
#354=PRESENTATION_LAYER_ASSIGNMENT('2','Layer 2',(#313,#314,#315,#316));
#355=PRESENTATION_LAYER_ASSIGNMENT('3','Layer 3',(#396));
#356=STYLED_ITEM('',(#370),#569);
#357=STYLED_ITEM('',(#371),#313);
#358=STYLED_ITEM('',(#372),#314);
#359=STYLED_ITEM('',(#373),#315);
#360=STYLED_ITEM('',(#374),#316);
#361=STYLED_ITEM('',(#375),#392);
#362=STYLED_ITEM('',(#376),#393);
#363=STYLED_ITEM('',(#377),#394);
#364=STYLED_ITEM('',(#378),#395);
#365=STYLED_ITEM('',(#379),#396);
#366=STYLED_ITEM('',(#380),#397);
#367=STYLED_ITEM('',(#381),#398);
#368=STYLED_ITEM('',(#382),#42);
#369=STYLED_ITEM('',(#383),#43);
#370=PRESENTATION_STYLE_ASSIGNMENT((#384));
#371=PRESENTATION_STYLE_ASSIGNMENT((#289));
#372=PRESENTATION_STYLE_ASSIGNMENT((#290));
#373=PRESENTATION_STYLE_ASSIGNMENT((#291));
#374=PRESENTATION_STYLE_ASSIGNMENT((#292));
#375=PRESENTATION_STYLE_ASSIGNMENT((#293));
#376=PRESENTATION_STYLE_ASSIGNMENT((#294));
#377=PRESENTATION_STYLE_ASSIGNMENT((#295));
#378=PRESENTATION_STYLE_ASSIGNMENT((#296));
#379=PRESENTATION_STYLE_ASSIGNMENT((#297));
#380=PRESENTATION_STYLE_ASSIGNMENT((#298));
#381=PRESENTATION_STYLE_ASSIGNMENT((#299));
#382=PRESENTATION_STYLE_ASSIGNMENT((#32));
#383=PRESENTATION_STYLE_ASSIGNMENT((#33));
#384=POINT_STYLE('',#385,POSITIVE_LENGTH_MEASURE(3.),#386);
#385=PRE_DEFINED_POINT_MARKER_SYMBOL('plus');
#386=COLOUR_RGB('Medium Royal',0.301960784313725,0.427450980392157,0.701960784313725);
#387=COLOUR_RGB('Medium Maroon',0.6,0.4,0.4);
#388=COLOUR_RGB('Strong Gold',0.611764705882353,0.556862745098039,0.380392156862745);
#389=COLOUR_RGB('light gray',0.8,0.8,0.8);
#390=COLOUR_RGB('medium gray',0.490196078431373,0.490196078431373,0.490196078431373);
#391=AXIS2_PLACEMENT_3D('',#568,#444,#445);
#392=AXIS2_PLACEMENT_3D('',#574,#450,#451);
#393=AXIS2_PLACEMENT_3D('',#575,#452,#453);
#394=AXIS2_PLACEMENT_3D('MCS',#576,#454,#455);
#395=AXIS2_PLACEMENT_3D('CIP',#577,#456,#457);
#396=AXIS2_PLACEMENT_3D('PCS',#578,#458,#459);
#397=AXIS2_PLACEMENT_3D('',#579,#460,#461);
#398=AXIS2_PLACEMENT_3D('',#580,#462,#463);
#399=AXIS2_PLACEMENT_3D('',#586,#466,#467);
#400=AXIS2_PLACEMENT_3D('',#587,#468,#469);
#401=AXIS2_PLACEMENT_3D('',#588,#470,#471);
#402=AXIS2_PLACEMENT_3D('',#589,#472,#473);
#403=AXIS2_PLACEMENT_3D('',#592,#475,#476);
#404=AXIS2_PLACEMENT_3D('',#595,#478,#479);
#405=AXIS2_PLACEMENT_3D('',#596,#480,#481);
#406=AXIS2_PLACEMENT_3D('',#597,#482,#483);
#407=AXIS2_PLACEMENT_3D('',#598,#484,#485);
#408=AXIS2_PLACEMENT_3D('',#599,#486,#487);
#409=AXIS2_PLACEMENT_3D('',#602,#488,#489);
#410=AXIS2_PLACEMENT_3D('',#604,#490,#491);
#411=AXIS2_PLACEMENT_3D('',#606,#492,#493);
#412=AXIS2_PLACEMENT_3D('',#607,#494,#495);
#413=AXIS2_PLACEMENT_3D('',#611,#497,#498);
#414=AXIS2_PLACEMENT_3D('',#615,#500,#501);
#415=AXIS2_PLACEMENT_3D('',#616,#502,#503);
#416=AXIS2_PLACEMENT_3D('',#617,#504,#505);
#417=AXIS2_PLACEMENT_3D('',#620,#506,#507);
#418=AXIS2_PLACEMENT_3D('',#621,#508,#509);
#419=AXIS2_PLACEMENT_3D('',#624,#512,#513);
#420=AXIS2_PLACEMENT_3D('',#625,#514,#515);
#421=AXIS2_PLACEMENT_3D('',#626,#516,#517);
#422=AXIS2_PLACEMENT_3D('',#627,#518,#519);
#423=AXIS2_PLACEMENT_3D('',#628,#520,#521);
#424=AXIS2_PLACEMENT_3D('',#629,#522,#523);
#425=AXIS2_PLACEMENT_3D('',#631,#524,#525);
#426=AXIS2_PLACEMENT_3D('',#633,#526,#527);
#427=AXIS2_PLACEMENT_3D('',#634,#528,#529);
#428=AXIS2_PLACEMENT_3D('',#635,#530,#531);
#429=AXIS2_PLACEMENT_3D('',#636,#532,#533);
#430=AXIS2_PLACEMENT_3D('',#641,#536,#537);
#431=AXIS2_PLACEMENT_3D('',#642,#538,#539);
#432=AXIS2_PLACEMENT_3D('',#643,#540,#541);
#433=AXIS2_PLACEMENT_3D('',#644,#542,#543);
#434=AXIS2_PLACEMENT_3D('',#645,#544,#545);
#435=AXIS2_PLACEMENT_3D('',#647,#546,#547);
#436=AXIS2_PLACEMENT_3D('',#649,#548,#549);
#437=AXIS2_PLACEMENT_3D('',#650,#550,#551);
#438=AXIS2_PLACEMENT_3D('',#651,#552,#553);
#439=AXIS2_PLACEMENT_3D('',#652,#554,#555);
#440=AXIS2_PLACEMENT_3D('',#653,#556,#557);
#441=AXIS2_PLACEMENT_3D('',#659,#560,#561);
#442=AXIS2_PLACEMENT_3D('',#663,#564,#565);
#443=AXIS2_PLACEMENT_3D('',#664,#566,#567);
#444=DIRECTION('',(0.,0.,1.));
#445=DIRECTION('',(1.,0.,0.));
#446=DIRECTION('',(-0.939692620785898,0.,0.342020143325698));
#447=DIRECTION('',(0.,0.,1.));
#448=DIRECTION('',(1.,0.,0.));
#449=DIRECTION('',(0.,0.,1.));
#450=DIRECTION('',(0.,0.,1.));
#451=DIRECTION('',(1.,0.,0.));
#452=DIRECTION('',(0.,0.,1.));
#453=DIRECTION('',(1.,0.,0.));
#454=DIRECTION('',(0.,0.,1.));
#455=DIRECTION('',(1.,0.,0.));
#456=DIRECTION('',(0.,0.,1.));
#457=DIRECTION('',(1.,0.,0.));
#458=DIRECTION('',(0.,0.,1.));
#459=DIRECTION('',(1.,0.,0.));
#460=DIRECTION('',(0.,0.,1.));
#461=DIRECTION('',(1.,0.,0.));
#462=DIRECTION('',(0.,0.,1.));
#463=DIRECTION('',(1.,0.,0.));
#464=DIRECTION('',(0.93969262078593,0.,0.342020143325611));
#465=DIRECTION('',(-0.93969262078593,0.,0.342020143325611));
#466=DIRECTION('',(0.,0.,-1.));
#467=DIRECTION('',(-1.,0.,0.));
#468=DIRECTION('',(0.,0.,1.));
#469=DIRECTION('',(1.,0.,0.));
#470=DIRECTION('',(0.,0.,-1.));
#471=DIRECTION('',(1.,0.,0.));
#472=DIRECTION('',(0.,0.,1.));
#473=DIRECTION('',(1.,0.,0.));
#474=DIRECTION('',(-4.4322058659E-14,0.,-1.));
#475=DIRECTION('',(0.,0.,1.));
#476=DIRECTION('',(-1.,0.,0.));
#477=DIRECTION('',(4.4322058659E-14,0.,-1.));
#478=DIRECTION('',(0.,0.,1.));
#479=DIRECTION('',(1.,0.,0.));
#480=DIRECTION('',(0.,0.,1.));
#481=DIRECTION('',(1.,0.,0.));
#482=DIRECTION('',(0.,0.,1.));
#483=DIRECTION('',(1.,0.,0.));
#484=DIRECTION('',(0.,0.,1.));
#485=DIRECTION('',(1.,0.,0.));
#486=DIRECTION('',(0.,0.,-1.));
#487=DIRECTION('',(0.,-1.,0.));
#488=DIRECTION('',(0.,0.,-1.));
#489=DIRECTION('',(-1.,0.,0.));
#490=DIRECTION('',(0.,0.,-1.));
#491=DIRECTION('',(0.,1.,0.));
#492=DIRECTION('',(0.,0.,-1.));
#493=DIRECTION('',(1.,0.,0.));
#494=DIRECTION('',(0.,0.,-1.));
#495=DIRECTION('',(0.,1.,0.));
#496=DIRECTION('',(0.,0.,1.));
#497=DIRECTION('',(0.,0.,-1.));
#498=DIRECTION('',(-1.,0.,0.));
#499=DIRECTION('',(0.,0.,1.));
#500=DIRECTION('',(0.,0.,1.));
#501=DIRECTION('',(1.,0.,0.));
#502=DIRECTION('',(0.,0.,1.));
#503=DIRECTION('',(-1.,0.,0.));
#504=DIRECTION('',(0.,0.,1.));
#505=DIRECTION('',(-1.,0.,0.));
#506=DIRECTION('',(0.,0.,1.));
#507=DIRECTION('',(1.,0.,0.));
#508=DIRECTION('',(0.,0.,1.));
#509=DIRECTION('',(-1.,0.,0.));
#510=DIRECTION('',(-0.500000000000017,0.,-0.866025403784429));
#511=DIRECTION('',(0.500000000000017,0.,-0.866025403784429));
#512=DIRECTION('',(0.,0.,-1.));
#513=DIRECTION('',(1.,0.,-5.933605920034E-17));
#514=DIRECTION('',(0.,0.,1.));
#515=DIRECTION('',(-1.,0.,0.));
#516=DIRECTION('',(0.,0.,-1.));
#517=DIRECTION('',(1.,0.,-5.933605920034E-17));
#518=DIRECTION('',(0.,0.,-1.));
#519=DIRECTION('',(1.,0.,0.));
#520=DIRECTION('',(0.,0.,1.));
#521=DIRECTION('',(-1.,0.,0.));
#522=DIRECTION('',(0.,-1.,0.));
#523=DIRECTION('',(-0.970295726275736,0.,0.241921895600709));
#524=DIRECTION('',(0.,1.,0.));
#525=DIRECTION('',(0.970295726275736,0.,0.241921895600709));
#526=DIRECTION('',(0.,0.,1.));
#527=DIRECTION('',(-1.,0.,0.));
#528=DIRECTION('',(0.,0.,1.));
#529=DIRECTION('',(0.999999999709344,2.4110430543061E-5,0.));
#530=DIRECTION('',(0.,0.,1.));
#531=DIRECTION('',(1.,0.,0.));
#532=DIRECTION('',(0.,0.,1.));
#533=DIRECTION('',(-0.999999999701324,-2.44407970701806E-5,0.));
#534=DIRECTION('',(0.241921895599697,0.,-0.970295726275989));
#535=DIRECTION('',(-0.241921895599697,0.,-0.970295726275989));
#536=DIRECTION('',(0.,0.,-1.));
#537=DIRECTION('',(-1.,0.,0.));
#538=DIRECTION('',(0.,0.,1.));
#539=DIRECTION('',(-1.,0.,-1.35633010743985E-17));
#540=DIRECTION('',(0.,0.,-1.));
#541=DIRECTION('',(1.,0.,0.));
#542=DIRECTION('',(0.,0.,1.));
#543=DIRECTION('',(-1.,0.,1.08506408595178E-16));
#544=DIRECTION('',(0.,-1.,0.));
#545=DIRECTION('',(-1.,0.,0.));
#546=DIRECTION('',(0.,1.,0.));
#547=DIRECTION('',(1.,0.,0.));
#548=DIRECTION('',(0.,0.,1.));
#549=DIRECTION('',(-1.,0.,0.));
#550=DIRECTION('',(0.,0.,1.));
#551=DIRECTION('',(0.999999999382922,3.51305580156008E-5,0.));
#552=DIRECTION('',(0.,0.,1.));
#553=DIRECTION('',(1.,0.,0.));
#554=DIRECTION('',(0.,0.,1.));
#555=DIRECTION('',(-0.999999999365251,-3.56300305099482E-5,0.));
#556=DIRECTION('',(0.,0.,1.));
#557=DIRECTION('',(0.,1.,0.));
#558=DIRECTION('',(0.,0.,1.));
#559=DIRECTION('',(0.,0.,-1.));
#560=DIRECTION('',(0.,0.,1.));
#561=DIRECTION('',(0.,-1.,0.));
#562=DIRECTION('',(0.,0.,1.));
#563=DIRECTION('',(0.,0.,-1.));
#564=DIRECTION('',(0.,0.,1.));
#565=DIRECTION('',(-1.,0.,0.));
#566=DIRECTION('',(0.,0.,1.));
#567=DIRECTION('',(-1.,0.,0.));
#568=CARTESIAN_POINT('',(0.,0.,0.));
#569=CARTESIAN_POINT('',(-5.35813,0.,-70.49658920015));
#570=CARTESIAN_POINT('',(0.,0.,-72.44678903148));
#571=CARTESIAN_POINT('',(-5.35813,0.,-70.49658920015));
#572=CARTESIAN_POINT('',(-5.35813,0.,-66.50878920015));
#573=CARTESIAN_POINT('',(0.,0.,-72.44678903148));
#574=CARTESIAN_POINT('',(0.,0.,-23.5));
#575=CARTESIAN_POINT('',(0.,0.,-23.5));
#576=CARTESIAN_POINT('',(0.,0.,-23.5));
#577=CARTESIAN_POINT('',(0.,0.,-72.44678903148));
#578=CARTESIAN_POINT('',(0.,0.,0.));
#579=CARTESIAN_POINT('',(0.,0.,-23.5));
#580=CARTESIAN_POINT('',(0.,0.,-23.5));
#581=CARTESIAN_POINT('',(5.35813,0.,-70.49658920015));
#582=CARTESIAN_POINT('',(0.,0.,-72.44678903148));
#583=CARTESIAN_POINT('',(5.35813,0.,-70.49658920015));
#584=CARTESIAN_POINT('',(-5.35813,0.,-70.49658920015));
#585=CARTESIAN_POINT('',(-5.35813,0.,-70.49658920015));
#586=CARTESIAN_POINT('',(0.,0.,-70.49658920015));
#587=CARTESIAN_POINT('',(0.,0.,-71.4521871175));
#588=CARTESIAN_POINT('',(0.,0.,-70.49658920015));
#589=CARTESIAN_POINT('',(0.,0.,-71.4521871175));
#590=CARTESIAN_POINT('',(5.35813,0.,-70.49658920015));
#591=CARTESIAN_POINT('',(5.35813,0.,-66.50878920015));
#592=CARTESIAN_POINT('',(0.,0.,-66.50878920015));
#593=CARTESIAN_POINT('',(-5.35813,0.,-66.50878920015));
#594=CARTESIAN_POINT('',(-5.35813,0.,-70.49658920015));
#595=CARTESIAN_POINT('',(0.,0.,-72.74368902305));
#596=CARTESIAN_POINT('',(0.,0.,-66.50878920015));
#597=CARTESIAN_POINT('',(0.,0.,-72.74368902305));
#598=CARTESIAN_POINT('',(3.192559890357E-14,0.,-66.50878920015));
#599=CARTESIAN_POINT('',(0.,0.,-66.51));
#600=CARTESIAN_POINT('',(0.,-5.045,-66.51));
#601=CARTESIAN_POINT('',(-5.045,0.,-66.51));
#602=CARTESIAN_POINT('',(0.,0.,-66.51));
#603=CARTESIAN_POINT('',(0.,5.045,-66.51));
#604=CARTESIAN_POINT('',(0.,0.,-66.51));
#605=CARTESIAN_POINT('',(5.045,0.,-66.51));
#606=CARTESIAN_POINT('',(0.,0.,-66.51));
#607=CARTESIAN_POINT('',(0.,0.,-66.51));
#608=CARTESIAN_POINT('',(7.9375,0.,22.5));
#609=CARTESIAN_POINT('',(7.937500000001,1.214221687141E-14,-23.5000000039314));
#610=CARTESIAN_POINT('',(7.9375,0.,22.5));
#611=CARTESIAN_POINT('',(0.,0.,-23.5000000039869));
#612=CARTESIAN_POINT('',(-7.937500000001,0.,-23.5000000039314));
#613=CARTESIAN_POINT('',(-7.9375,0.,22.5));
#614=CARTESIAN_POINT('',(-7.9375,0.,22.5));
#615=CARTESIAN_POINT('',(0.,0.,22.5));
#616=CARTESIAN_POINT('',(0.,0.,-87.85));
#617=CARTESIAN_POINT('',(0.,0.,24.5));
#618=CARTESIAN_POINT('',(-6.782799461621,0.,24.5));
#619=CARTESIAN_POINT('',(6.782799461621,0.,24.5));
#620=CARTESIAN_POINT('',(0.,0.,24.5));
#621=CARTESIAN_POINT('',(0.,0.,24.5));
#622=CARTESIAN_POINT('',(-7.9375,0.,22.5));
#623=CARTESIAN_POINT('',(7.9375,0.,22.5));
#624=CARTESIAN_POINT('',(0.,0.,23.5));
#625=CARTESIAN_POINT('',(0.,0.,22.5));
#626=CARTESIAN_POINT('',(0.,0.,23.5));
#627=CARTESIAN_POINT('',(0.,0.,-23.5000000039314));
#628=CARTESIAN_POINT('',(0.,0.,-87.85));
#629=CARTESIAN_POINT('',(8.067968477466,1.234179859005E-14,-23.87812429089));
#630=CARTESIAN_POINT('',(7.679850186942,0.,-23.7813555327097));
#631=CARTESIAN_POINT('',(-8.067968477452,1.476377071812E-14,-23.87812429095));
#632=CARTESIAN_POINT('',(-7.679850186949,0.,-23.7813555326799));
#633=CARTESIAN_POINT('',(0.,0.,-23.7813555326497));
#634=CARTESIAN_POINT('',(0.,0.,-23.87812429089));
#635=CARTESIAN_POINT('',(0.,0.,-23.7813555327097));
#636=CARTESIAN_POINT('',(0.,0.,-23.87812429095));
#637=CARTESIAN_POINT('',(-7.679850186949,0.,-23.7813555326799));
#638=CARTESIAN_POINT('',(-5.256719969226,0.,-33.50000000939));
#639=CARTESIAN_POINT('',(7.679850186949,0.,-23.7813555326799));
#640=CARTESIAN_POINT('',(5.256719969226,0.,-33.50000000939));
#641=CARTESIAN_POINT('',(0.,0.,-33.50000000953));
#642=CARTESIAN_POINT('',(0.,0.,-28.64067777112));
#643=CARTESIAN_POINT('',(0.,0.,-33.50000000939));
#644=CARTESIAN_POINT('',(0.,0.,-28.640677771021));
#645=CARTESIAN_POINT('',(5.445,0.,-33.85291732267));
#646=CARTESIAN_POINT('',(5.045,0.,-33.85291732273));
#647=CARTESIAN_POINT('',(-5.445,0.,-33.85291732279));
#648=CARTESIAN_POINT('',(-5.045,0.,-33.85291732273));
#649=CARTESIAN_POINT('',(0.,0.,-33.85291732267));
#650=CARTESIAN_POINT('',(0.,0.,-33.85291732267));
#651=CARTESIAN_POINT('',(0.,0.,-33.85291732279));
#652=CARTESIAN_POINT('',(0.,0.,-33.85291732279));
#653=CARTESIAN_POINT('',(0.,0.,-56.5));
#654=CARTESIAN_POINT('',(5.045,0.,-56.5));
#655=CARTESIAN_POINT('',(0.,5.045,-56.5));
#656=CARTESIAN_POINT('',(0.,5.045,-66.51));
#657=CARTESIAN_POINT('',(0.,-5.045,-66.51));
#658=CARTESIAN_POINT('',(0.,-5.045,-56.5));
#659=CARTESIAN_POINT('',(0.,0.,-56.5));
#660=CARTESIAN_POINT('',(-5.045,0.,-56.5));
#661=CARTESIAN_POINT('',(-5.045,0.,-56.5));
#662=CARTESIAN_POINT('',(5.045,0.,-56.5));
#663=CARTESIAN_POINT('',(0.,0.,-87.85));
#664=CARTESIAN_POINT('',(0.,0.,-87.85));
#665=MECHANICAL_DESIGN_GEOMETRIC_PRESENTATION_REPRESENTATION('',(#356,#357,
#358,#359,#360,#361,#362,#363,#364,#365,#366,#367,#368,#369),#666);
#666=(
GEOMETRIC_REPRESENTATION_CONTEXT(3)
GLOBAL_UNCERTAINTY_ASSIGNED_CONTEXT((#667))
GLOBAL_UNIT_ASSIGNED_CONTEXT((#673,#669,#668))
REPRESENTATION_CONTEXT('STAWSN0027_ID0_4219','TOP_LEVEL_ASSEMBLY_PART')
);
#667=UNCERTAINTY_MEASURE_WITH_UNIT(LENGTH_MEASURE(0.001),#673,
'DISTANCE_ACCURACY_VALUE','Maximum Tolerance applied to model');
#668=(
NAMED_UNIT(*)
SI_UNIT($,.STERADIAN.)
SOLID_ANGLE_UNIT()
);
#669=(
CONVERSION_BASED_UNIT('DEGREE',#671)
NAMED_UNIT(#670)
PLANE_ANGLE_UNIT()
);
#670=DIMENSIONAL_EXPONENTS(0.,0.,0.,0.,0.,0.,0.);
#671=PLANE_ANGLE_MEASURE_WITH_UNIT(PLANE_ANGLE_MEASURE(0.0174532925),#672);
#672=(
NAMED_UNIT(*)
PLANE_ANGLE_UNIT()
SI_UNIT($,.RADIAN.)
);
#673=(
LENGTH_UNIT()
NAMED_UNIT(*)
SI_UNIT(.MILLI.,.METRE.)
);
ENDSEC;
END-ISO-10303-21;
