ISO-10303-21;
HEADER;
/* Generated by software containing ST-Developer
 * from STEP Tools, Inc. (www.steptools.com) 
 */
/* OPTION: using custom schema-name function */

FILE_DESCRIPTION(
/* description */ (''),
/* implementation_level */ '2;1');

FILE_NAME(
/* name */ 'VFHVRBD0800R20N072.stp',
/* time_stamp */ '2023-03-17T09:18:08+09:00',
/* author */ (''),
/* organization */ (''),
/* preprocessor_version */ 'ST-DEVELOPER v16',
/* originating_system */ 'SIEMENS PLM Software NX 10.0',
/* authorisation */ '');

FILE_SCHEMA (('AUTOMOTIVE_DESIGN { 1 0 10303 214 3 1 1 1 }'));
ENDSEC;

DATA;
#10=CONSTRUCTIVE_GEOMETRY_REPRESENTATION_RELATIONSHIP(
'supplemental geometry','',#26,#11);
#11=CONSTRUCTIVE_GEOMETRY_REPRESENTATION('supplemental geometry',(#363,
#364,#365,#366,#367,#368,#369,#370,#371,#372),#637);
#12=GEOMETRICALLY_BOUNDED_WIREFRAME_SHAPE_REPRESENTATION(
'VFHVRBD0800R20N072-None',(#27),#637);
#13=SHAPE_REPRESENTATION_RELATIONSHIP('None',
'relationship between VFHVRBD0800R20N072-None and VFHVRBD0800R20N072-N
one',#26,#15);
#14=SHAPE_REPRESENTATION_RELATIONSHIP('None',
'relationship between VFHVRBD0800R20N072-None and VFHVRBD0800R20N072-N
one',#26,#12);
#15=ADVANCED_BREP_SHAPE_REPRESENTATION('VFHVRBD0800R20N072-None',(#44,#45),
#637);
#16=SHAPE_DEFINITION_REPRESENTATION(#17,#26);
#17=PRODUCT_DEFINITION_SHAPE('','SHAPE FOR VFHVRBD0800R20N072_ASM.',#18);
#18=PRODUCT_DEFINITION('part definition','',#20,#19);
#19=PRODUCT_DEFINITION_CONTEXT('part definition',#25,'design');
#20=PRODUCT_DEFINITION_FORMATION_WITH_SPECIFIED_SOURCE(' ',' ',#22,
 .NOT_KNOWN.);
#21=PRODUCT_RELATED_PRODUCT_CATEGORY('part','',(#22));
#22=PRODUCT('VFHVRBD0800R20N072_ASM','VFHVRBD0800R20N072_ASM',
'NOT SPECIFIED',(#23));
#23=PRODUCT_CONTEXT('',#25,'mechanical');
#24=APPLICATION_PROTOCOL_DEFINITION('international standard',
'automotive_design',2010,#25);
#25=APPLICATION_CONTEXT(
'core data for automotive mechanical design processes');
#26=SHAPE_REPRESENTATION('VFHVRBD0800R20N072-None',(#361),#637);
#27=GEOMETRIC_CURVE_SET('None',(#525,#279,#280,#281,#282,#283));
#28=CONICAL_SURFACE('',#388,3.9625,45.00000000003);
#29=CONICAL_SURFACE('',#392,3.9625,45.00000000003);
#30=CONICAL_SURFACE('',#398,3.9625,45.00000000007);
#31=CONICAL_SURFACE('',#400,3.9625,45.00000000007);
#32=CONICAL_SURFACE('',#406,3.75,45.);
#33=CONICAL_SURFACE('',#408,3.75,45.);
#34=SURFACE_STYLE_USAGE(.BOTH.,#36);
#35=SURFACE_STYLE_USAGE(.BOTH.,#37);
#36=SURFACE_SIDE_STYLE('',(#38));
#37=SURFACE_SIDE_STYLE('',(#39));
#38=SURFACE_STYLE_FILL_AREA(#40);
#39=SURFACE_STYLE_FILL_AREA(#41);
#40=FILL_AREA_STYLE('',(#42));
#41=FILL_AREA_STYLE('',(#43));
#42=FILL_AREA_STYLE_COLOUR('',#359);
#43=FILL_AREA_STYLE_COLOUR('',#360);
#44=MANIFOLD_SOLID_BREP('CUT',#46);
#45=MANIFOLD_SOLID_BREP('NOCUT',#47);
#46=CLOSED_SHELL('',(#54,#55,#56,#57,#58,#59));
#47=CLOSED_SHELL('',(#60,#61,#62,#63,#64,#65,#66,#67,#68,#69,#70,#71));
#48=(
BOUNDED_SURFACE()
B_SPLINE_SURFACE(3,3,((#561,#562,#563,#564,#565,#566,#567),(#568,#569,#570,
#571,#572,#573,#574),(#575,#576,#577,#578,#579,#580,#581),(#582,#583,#584,
#585,#586,#587,#588)),.UNSPECIFIED.,.F.,.F.,.F.)
B_SPLINE_SURFACE_WITH_KNOTS((4,4),(4,3,4),(0.,1.),(0.,0.5,1.),
 .UNSPECIFIED.)
GEOMETRIC_REPRESENTATION_ITEM()
RATIONAL_B_SPLINE_SURFACE(((1.,0.802510115196187,0.802510115196187,1.,0.802510115196187,
0.802510115196187,1.),(0.80473728808825,0.645809813766369,0.645809813766369,
0.80473728808825,0.645809813766369,0.645809813766369,0.80473728808825),
(0.80473728808825,0.645809813766369,0.645809813766369,0.80473728808825,
0.645809813766369,0.645809813766369,0.80473728808825),(1.,0.802510115196187,
0.802510115196187,1.,0.802510115196187,0.802510115196187,1.)))
REPRESENTATION_ITEM('')
SURFACE()
);
#49=TOROIDAL_SURFACE('',#383,1.99999999999981,1.99999999999903);
#50=PLANE('',#377);
#51=PLANE('',#385);
#52=PLANE('',#390);
#53=PLANE('',#409);
#54=ADVANCED_FACE('',(#78),#72,.T.);
#55=ADVANCED_FACE('',(#79),#50,.F.);
#56=ADVANCED_FACE('',(#80),#73,.T.);
#57=ADVANCED_FACE('',(#81),#49,.T.);
#58=ADVANCED_FACE('',(#82),#48,.T.);
#59=ADVANCED_FACE('',(#83),#51,.T.);
#60=ADVANCED_FACE('',(#84),#28,.T.);
#61=ADVANCED_FACE('',(#85),#52,.F.);
#62=ADVANCED_FACE('',(#86),#29,.T.);
#63=ADVANCED_FACE('',(#87),#74,.T.);
#64=ADVANCED_FACE('',(#88),#75,.T.);
#65=ADVANCED_FACE('',(#89),#30,.T.);
#66=ADVANCED_FACE('',(#90),#31,.T.);
#67=ADVANCED_FACE('',(#91),#76,.T.);
#68=ADVANCED_FACE('',(#92),#77,.T.);
#69=ADVANCED_FACE('',(#93),#32,.T.);
#70=ADVANCED_FACE('',(#94),#33,.T.);
#71=ADVANCED_FACE('',(#95),#53,.F.);
#72=CYLINDRICAL_SURFACE('',#375,4.);
#73=CYLINDRICAL_SURFACE('',#379,4.);
#74=CYLINDRICAL_SURFACE('',#394,3.925);
#75=CYLINDRICAL_SURFACE('',#396,3.925);
#76=CYLINDRICAL_SURFACE('',#402,4.);
#77=CYLINDRICAL_SURFACE('',#404,4.);
#78=FACE_OUTER_BOUND('',#96,.T.);
#79=FACE_OUTER_BOUND('',#97,.T.);
#80=FACE_OUTER_BOUND('',#98,.T.);
#81=FACE_OUTER_BOUND('',#99,.T.);
#82=FACE_OUTER_BOUND('',#100,.T.);
#83=FACE_OUTER_BOUND('',#101,.T.);
#84=FACE_OUTER_BOUND('',#102,.T.);
#85=FACE_OUTER_BOUND('',#103,.T.);
#86=FACE_OUTER_BOUND('',#104,.T.);
#87=FACE_OUTER_BOUND('',#105,.T.);
#88=FACE_OUTER_BOUND('',#106,.T.);
#89=FACE_OUTER_BOUND('',#107,.T.);
#90=FACE_OUTER_BOUND('',#108,.T.);
#91=FACE_OUTER_BOUND('',#109,.T.);
#92=FACE_OUTER_BOUND('',#110,.T.);
#93=FACE_OUTER_BOUND('',#111,.T.);
#94=FACE_OUTER_BOUND('',#112,.T.);
#95=FACE_OUTER_BOUND('',#113,.T.);
#96=EDGE_LOOP('',(#114,#115,#116,#117));
#97=EDGE_LOOP('',(#118,#119));
#98=EDGE_LOOP('',(#120,#121,#122,#123));
#99=EDGE_LOOP('',(#124,#125,#126,#127));
#100=EDGE_LOOP('',(#128,#129,#130,#131));
#101=EDGE_LOOP('',(#132,#133));
#102=EDGE_LOOP('',(#134,#135,#136,#137));
#103=EDGE_LOOP('',(#138,#139));
#104=EDGE_LOOP('',(#140,#141,#142,#143));
#105=EDGE_LOOP('',(#144,#145,#146,#147));
#106=EDGE_LOOP('',(#148,#149,#150,#151));
#107=EDGE_LOOP('',(#152,#153,#154,#155));
#108=EDGE_LOOP('',(#156,#157,#158,#159));
#109=EDGE_LOOP('',(#160,#161,#162,#163));
#110=EDGE_LOOP('',(#164,#165,#166,#167));
#111=EDGE_LOOP('',(#168,#169,#170,#171));
#112=EDGE_LOOP('',(#172,#173,#174,#175));
#113=EDGE_LOOP('',(#176,#177));
#114=ORIENTED_EDGE('',*,*,#196,.T.);
#115=ORIENTED_EDGE('',*,*,#197,.T.);
#116=ORIENTED_EDGE('',*,*,#198,.F.);
#117=ORIENTED_EDGE('',*,*,#199,.T.);
#118=ORIENTED_EDGE('',*,*,#200,.F.);
#119=ORIENTED_EDGE('',*,*,#199,.F.);
#120=ORIENTED_EDGE('',*,*,#198,.T.);
#121=ORIENTED_EDGE('',*,*,#201,.T.);
#122=ORIENTED_EDGE('',*,*,#196,.F.);
#123=ORIENTED_EDGE('',*,*,#200,.T.);
#124=ORIENTED_EDGE('',*,*,#202,.T.);
#125=ORIENTED_EDGE('',*,*,#203,.T.);
#126=ORIENTED_EDGE('',*,*,#201,.F.);
#127=ORIENTED_EDGE('',*,*,#204,.F.);
#128=ORIENTED_EDGE('',*,*,#197,.F.);
#129=ORIENTED_EDGE('',*,*,#203,.F.);
#130=ORIENTED_EDGE('',*,*,#205,.T.);
#131=ORIENTED_EDGE('',*,*,#204,.T.);
#132=ORIENTED_EDGE('',*,*,#205,.F.);
#133=ORIENTED_EDGE('',*,*,#202,.F.);
#134=ORIENTED_EDGE('',*,*,#206,.F.);
#135=ORIENTED_EDGE('',*,*,#207,.F.);
#136=ORIENTED_EDGE('',*,*,#208,.T.);
#137=ORIENTED_EDGE('',*,*,#209,.T.);
#138=ORIENTED_EDGE('',*,*,#210,.F.);
#139=ORIENTED_EDGE('',*,*,#209,.F.);
#140=ORIENTED_EDGE('',*,*,#208,.F.);
#141=ORIENTED_EDGE('',*,*,#211,.F.);
#142=ORIENTED_EDGE('',*,*,#206,.T.);
#143=ORIENTED_EDGE('',*,*,#210,.T.);
#144=ORIENTED_EDGE('',*,*,#211,.T.);
#145=ORIENTED_EDGE('',*,*,#212,.T.);
#146=ORIENTED_EDGE('',*,*,#213,.T.);
#147=ORIENTED_EDGE('',*,*,#214,.F.);
#148=ORIENTED_EDGE('',*,*,#215,.T.);
#149=ORIENTED_EDGE('',*,*,#212,.F.);
#150=ORIENTED_EDGE('',*,*,#207,.T.);
#151=ORIENTED_EDGE('',*,*,#214,.T.);
#152=ORIENTED_EDGE('',*,*,#216,.F.);
#153=ORIENTED_EDGE('',*,*,#217,.T.);
#154=ORIENTED_EDGE('',*,*,#215,.F.);
#155=ORIENTED_EDGE('',*,*,#218,.F.);
#156=ORIENTED_EDGE('',*,*,#213,.F.);
#157=ORIENTED_EDGE('',*,*,#217,.F.);
#158=ORIENTED_EDGE('',*,*,#219,.F.);
#159=ORIENTED_EDGE('',*,*,#218,.T.);
#160=ORIENTED_EDGE('',*,*,#219,.T.);
#161=ORIENTED_EDGE('',*,*,#220,.T.);
#162=ORIENTED_EDGE('',*,*,#221,.T.);
#163=ORIENTED_EDGE('',*,*,#222,.F.);
#164=ORIENTED_EDGE('',*,*,#223,.T.);
#165=ORIENTED_EDGE('',*,*,#220,.F.);
#166=ORIENTED_EDGE('',*,*,#216,.T.);
#167=ORIENTED_EDGE('',*,*,#222,.T.);
#168=ORIENTED_EDGE('',*,*,#224,.T.);
#169=ORIENTED_EDGE('',*,*,#225,.T.);
#170=ORIENTED_EDGE('',*,*,#223,.F.);
#171=ORIENTED_EDGE('',*,*,#226,.F.);
#172=ORIENTED_EDGE('',*,*,#221,.F.);
#173=ORIENTED_EDGE('',*,*,#225,.F.);
#174=ORIENTED_EDGE('',*,*,#227,.T.);
#175=ORIENTED_EDGE('',*,*,#226,.T.);
#176=ORIENTED_EDGE('',*,*,#224,.F.);
#177=ORIENTED_EDGE('',*,*,#227,.F.);
#178=VERTEX_POINT('',#542);
#179=VERTEX_POINT('',#543);
#180=VERTEX_POINT('',#545);
#181=VERTEX_POINT('',#547);
#182=VERTEX_POINT('',#555);
#183=VERTEX_POINT('',#556);
#184=VERTEX_POINT('',#591);
#185=VERTEX_POINT('',#592);
#186=VERTEX_POINT('',#594);
#187=VERTEX_POINT('',#596);
#188=VERTEX_POINT('',#604);
#189=VERTEX_POINT('',#606);
#190=VERTEX_POINT('',#612);
#191=VERTEX_POINT('',#613);
#192=VERTEX_POINT('',#620);
#193=VERTEX_POINT('',#622);
#194=VERTEX_POINT('',#628);
#195=VERTEX_POINT('',#629);
#196=EDGE_CURVE('',#178,#179,#288,.T.);
#197=EDGE_CURVE('',#179,#180,#229,.T.);
#198=EDGE_CURVE('',#181,#180,#289,.T.);
#199=EDGE_CURVE('',#181,#178,#230,.T.);
#200=EDGE_CURVE('',#178,#181,#231,.T.);
#201=EDGE_CURVE('',#180,#179,#232,.T.);
#202=EDGE_CURVE('',#182,#183,#233,.T.);
#203=EDGE_CURVE('',#183,#179,#234,.T.);
#204=EDGE_CURVE('',#182,#180,#235,.T.);
#205=EDGE_CURVE('',#183,#182,#236,.T.);
#206=EDGE_CURVE('',#184,#185,#290,.T.);
#207=EDGE_CURVE('',#186,#184,#237,.T.);
#208=EDGE_CURVE('',#186,#187,#291,.T.);
#209=EDGE_CURVE('',#187,#185,#238,.T.);
#210=EDGE_CURVE('',#185,#187,#239,.T.);
#211=EDGE_CURVE('',#184,#186,#240,.T.);
#212=EDGE_CURVE('',#186,#188,#292,.T.);
#213=EDGE_CURVE('',#188,#189,#241,.T.);
#214=EDGE_CURVE('',#184,#189,#293,.T.);
#215=EDGE_CURVE('',#189,#188,#242,.T.);
#216=EDGE_CURVE('',#190,#191,#243,.T.);
#217=EDGE_CURVE('',#190,#188,#294,.T.);
#218=EDGE_CURVE('',#191,#189,#295,.T.);
#219=EDGE_CURVE('',#191,#190,#244,.T.);
#220=EDGE_CURVE('',#190,#192,#296,.T.);
#221=EDGE_CURVE('',#192,#193,#245,.T.);
#222=EDGE_CURVE('',#191,#193,#297,.T.);
#223=EDGE_CURVE('',#193,#192,#246,.T.);
#224=EDGE_CURVE('',#194,#195,#247,.T.);
#225=EDGE_CURVE('',#195,#192,#298,.T.);
#226=EDGE_CURVE('',#194,#193,#299,.T.);
#227=EDGE_CURVE('',#195,#194,#248,.T.);
#228=CIRCLE('',#362,2.);
#229=CIRCLE('',#373,4.);
#230=CIRCLE('',#374,4.);
#231=CIRCLE('',#376,4.);
#232=CIRCLE('',#378,4.);
#233=CIRCLE('',#380,1.999995197026);
#234=CIRCLE('',#381,2.);
#235=CIRCLE('',#382,2.);
#236=CIRCLE('',#384,1.999995197026);
#237=CIRCLE('',#386,3.925);
#238=CIRCLE('',#387,4.);
#239=CIRCLE('',#389,4.);
#240=CIRCLE('',#391,3.925);
#241=CIRCLE('',#393,3.925);
#242=CIRCLE('',#395,3.925);
#243=CIRCLE('',#397,4.);
#244=CIRCLE('',#399,4.);
#245=CIRCLE('',#401,4.);
#246=CIRCLE('',#403,4.);
#247=CIRCLE('',#405,3.5);
#248=CIRCLE('',#407,3.5);
#249=CURVE_STYLE('',#264,POSITIVE_LENGTH_MEASURE(0.18),#356);
#250=CURVE_STYLE('',#265,POSITIVE_LENGTH_MEASURE(0.18),#356);
#251=CURVE_STYLE('',#266,POSITIVE_LENGTH_MEASURE(0.18),#356);
#252=CURVE_STYLE('',#267,POSITIVE_LENGTH_MEASURE(0.18),#356);
#253=CURVE_STYLE('',#268,POSITIVE_LENGTH_MEASURE(0.18),#356);
#254=CURVE_STYLE('',#269,POSITIVE_LENGTH_MEASURE(0.13),#357);
#255=CURVE_STYLE('',#270,POSITIVE_LENGTH_MEASURE(0.13),#357);
#256=CURVE_STYLE('',#271,POSITIVE_LENGTH_MEASURE(0.13),#358);
#257=CURVE_STYLE('',#272,POSITIVE_LENGTH_MEASURE(0.13),#358);
#258=CURVE_STYLE('',#273,POSITIVE_LENGTH_MEASURE(0.13),#357);
#259=CURVE_STYLE('',#274,POSITIVE_LENGTH_MEASURE(0.13),#357);
#260=CURVE_STYLE('',#275,POSITIVE_LENGTH_MEASURE(0.13),#358);
#261=CURVE_STYLE('',#276,POSITIVE_LENGTH_MEASURE(0.13),#357);
#262=CURVE_STYLE('',#277,POSITIVE_LENGTH_MEASURE(0.13),#357);
#263=CURVE_STYLE('',#278,POSITIVE_LENGTH_MEASURE(0.13),#357);
#264=DRAUGHTING_PRE_DEFINED_CURVE_FONT('continuous');
#265=DRAUGHTING_PRE_DEFINED_CURVE_FONT('continuous');
#266=DRAUGHTING_PRE_DEFINED_CURVE_FONT('continuous');
#267=DRAUGHTING_PRE_DEFINED_CURVE_FONT('continuous');
#268=DRAUGHTING_PRE_DEFINED_CURVE_FONT('continuous');
#269=DRAUGHTING_PRE_DEFINED_CURVE_FONT('continuous');
#270=DRAUGHTING_PRE_DEFINED_CURVE_FONT('continuous');
#271=DRAUGHTING_PRE_DEFINED_CURVE_FONT('continuous');
#272=DRAUGHTING_PRE_DEFINED_CURVE_FONT('continuous');
#273=DRAUGHTING_PRE_DEFINED_CURVE_FONT('continuous');
#274=DRAUGHTING_PRE_DEFINED_CURVE_FONT('continuous');
#275=DRAUGHTING_PRE_DEFINED_CURVE_FONT('continuous');
#276=DRAUGHTING_PRE_DEFINED_CURVE_FONT('continuous');
#277=DRAUGHTING_PRE_DEFINED_CURVE_FONT('continuous');
#278=DRAUGHTING_PRE_DEFINED_CURVE_FONT('continuous');
#279=TRIMMED_CURVE('',#284,(PARAMETER_VALUE(0.)),(PARAMETER_VALUE(1.)),
 .T.,.PARAMETER.);
#280=TRIMMED_CURVE('',#285,(PARAMETER_VALUE(0.)),(PARAMETER_VALUE(1.)),
 .T.,.PARAMETER.);
#281=TRIMMED_CURVE('',#286,(PARAMETER_VALUE(0.)),(PARAMETER_VALUE(1.)),
 .T.,.PARAMETER.);
#282=TRIMMED_CURVE('',#287,(PARAMETER_VALUE(0.)),(PARAMETER_VALUE(1.)),
 .T.,.PARAMETER.);
#283=TRIMMED_CURVE('',#228,(PARAMETER_VALUE(0.)),(PARAMETER_VALUE(90.)),
 .T.,.PARAMETER.);
#284=LINE('',#526,#300);
#285=LINE('',#527,#301);
#286=LINE('',#528,#302);
#287=LINE('',#529,#303);
#288=LINE('',#541,#304);
#289=LINE('',#546,#305);
#290=LINE('',#590,#306);
#291=LINE('',#595,#307);
#292=LINE('',#603,#308);
#293=LINE('',#607,#309);
#294=LINE('',#614,#310);
#295=LINE('',#615,#311);
#296=LINE('',#619,#312);
#297=LINE('',#623,#313);
#298=LINE('',#630,#314);
#299=LINE('',#631,#315);
#300=VECTOR('',#412,2.);
#301=VECTOR('',#413,10.);
#302=VECTOR('',#414,4.);
#303=VECTOR('',#415,12.);
#304=VECTOR('',#438,1.);
#305=VECTOR('',#441,1.);
#306=VECTOR('',#466,1.);
#307=VECTOR('',#469,1.);
#308=VECTOR('',#482,1.);
#309=VECTOR('',#485,1.);
#310=VECTOR('',#494,1.);
#311=VECTOR('',#495,1.);
#312=VECTOR('',#502,1.);
#313=VECTOR('',#505,1.);
#314=VECTOR('',#514,1.);
#315=VECTOR('',#515,1.);
#316=PRESENTATION_LAYER_ASSIGNMENT('1','Layer 1',(#525,#279,#280,#281,#282,
#283,#363,#364,#367,#368,#369,#370,#371,#372,#44,#45));
#317=PRESENTATION_LAYER_ASSIGNMENT('2','Layer 2',(#365,#366));
#318=STYLED_ITEM('',(#336),#525);
#319=STYLED_ITEM('',(#337),#279);
#320=STYLED_ITEM('',(#338),#280);
#321=STYLED_ITEM('',(#339),#281);
#322=STYLED_ITEM('',(#340),#282);
#323=STYLED_ITEM('',(#341),#283);
#324=STYLED_ITEM('',(#342),#363);
#325=STYLED_ITEM('',(#343),#364);
#326=STYLED_ITEM('',(#344),#365);
#327=STYLED_ITEM('',(#345),#366);
#328=STYLED_ITEM('',(#346),#367);
#329=STYLED_ITEM('',(#347),#368);
#330=STYLED_ITEM('',(#348),#369);
#331=STYLED_ITEM('',(#349),#370);
#332=STYLED_ITEM('',(#350),#371);
#333=STYLED_ITEM('',(#351),#372);
#334=STYLED_ITEM('',(#352),#44);
#335=STYLED_ITEM('',(#353),#45);
#336=PRESENTATION_STYLE_ASSIGNMENT((#354));
#337=PRESENTATION_STYLE_ASSIGNMENT((#249));
#338=PRESENTATION_STYLE_ASSIGNMENT((#250));
#339=PRESENTATION_STYLE_ASSIGNMENT((#251));
#340=PRESENTATION_STYLE_ASSIGNMENT((#252));
#341=PRESENTATION_STYLE_ASSIGNMENT((#253));
#342=PRESENTATION_STYLE_ASSIGNMENT((#254));
#343=PRESENTATION_STYLE_ASSIGNMENT((#255));
#344=PRESENTATION_STYLE_ASSIGNMENT((#256));
#345=PRESENTATION_STYLE_ASSIGNMENT((#257));
#346=PRESENTATION_STYLE_ASSIGNMENT((#258));
#347=PRESENTATION_STYLE_ASSIGNMENT((#259));
#348=PRESENTATION_STYLE_ASSIGNMENT((#260));
#349=PRESENTATION_STYLE_ASSIGNMENT((#261));
#350=PRESENTATION_STYLE_ASSIGNMENT((#262));
#351=PRESENTATION_STYLE_ASSIGNMENT((#263));
#352=PRESENTATION_STYLE_ASSIGNMENT((#34));
#353=PRESENTATION_STYLE_ASSIGNMENT((#35));
#354=POINT_STYLE('',#355,POSITIVE_LENGTH_MEASURE(3.),#356);
#355=PRE_DEFINED_POINT_MARKER_SYMBOL('plus');
#356=COLOUR_RGB('Medium Royal',0.2,0.4,0.8);
#357=COLOUR_RGB('Strong Stone',0.576470588235294,0.54508278019379,0.392156862745098);
#358=COLOUR_RGB('Medium Umber',0.372533760585946,0.313725490196078,0.270572976272221);
#359=COLOUR_RGB('cutting part',0.8,0.8,0.8);
#360=COLOUR_RGB('non-cutting part and shank',0.501960784313725,0.501960784313725,
0.501960784313725);
#361=AXIS2_PLACEMENT_3D('',#524,#410,#411);
#362=AXIS2_PLACEMENT_3D('',#530,#416,#417);
#363=AXIS2_PLACEMENT_3D('',#531,#418,#419);
#364=AXIS2_PLACEMENT_3D('',#532,#420,#421);
#365=AXIS2_PLACEMENT_3D('CIP',#533,#422,#423);
#366=AXIS2_PLACEMENT_3D('PCS',#534,#424,#425);
#367=AXIS2_PLACEMENT_3D('MCS',#535,#426,#427);
#368=AXIS2_PLACEMENT_3D('',#536,#428,#429);
#369=AXIS2_PLACEMENT_3D('STEP_TEMP_EM23_1',#537,#430,#431);
#370=AXIS2_PLACEMENT_3D('',#538,#432,#433);
#371=AXIS2_PLACEMENT_3D('',#539,#434,#435);
#372=AXIS2_PLACEMENT_3D('',#540,#436,#437);
#373=AXIS2_PLACEMENT_3D('',#544,#439,#440);
#374=AXIS2_PLACEMENT_3D('',#548,#442,#443);
#375=AXIS2_PLACEMENT_3D('',#549,#444,#445);
#376=AXIS2_PLACEMENT_3D('',#550,#446,#447);
#377=AXIS2_PLACEMENT_3D('',#551,#448,#449);
#378=AXIS2_PLACEMENT_3D('',#552,#450,#451);
#379=AXIS2_PLACEMENT_3D('',#553,#452,#453);
#380=AXIS2_PLACEMENT_3D('',#554,#454,#455);
#381=AXIS2_PLACEMENT_3D('',#557,#456,#457);
#382=AXIS2_PLACEMENT_3D('',#558,#458,#459);
#383=AXIS2_PLACEMENT_3D('',#559,#460,#461);
#384=AXIS2_PLACEMENT_3D('',#560,#462,#463);
#385=AXIS2_PLACEMENT_3D('',#589,#464,#465);
#386=AXIS2_PLACEMENT_3D('',#593,#467,#468);
#387=AXIS2_PLACEMENT_3D('',#597,#470,#471);
#388=AXIS2_PLACEMENT_3D('',#598,#472,#473);
#389=AXIS2_PLACEMENT_3D('',#599,#474,#475);
#390=AXIS2_PLACEMENT_3D('',#600,#476,#477);
#391=AXIS2_PLACEMENT_3D('',#601,#478,#479);
#392=AXIS2_PLACEMENT_3D('',#602,#480,#481);
#393=AXIS2_PLACEMENT_3D('',#605,#483,#484);
#394=AXIS2_PLACEMENT_3D('',#608,#486,#487);
#395=AXIS2_PLACEMENT_3D('',#609,#488,#489);
#396=AXIS2_PLACEMENT_3D('',#610,#490,#491);
#397=AXIS2_PLACEMENT_3D('',#611,#492,#493);
#398=AXIS2_PLACEMENT_3D('',#616,#496,#497);
#399=AXIS2_PLACEMENT_3D('',#617,#498,#499);
#400=AXIS2_PLACEMENT_3D('',#618,#500,#501);
#401=AXIS2_PLACEMENT_3D('',#621,#503,#504);
#402=AXIS2_PLACEMENT_3D('',#624,#506,#507);
#403=AXIS2_PLACEMENT_3D('',#625,#508,#509);
#404=AXIS2_PLACEMENT_3D('',#626,#510,#511);
#405=AXIS2_PLACEMENT_3D('',#627,#512,#513);
#406=AXIS2_PLACEMENT_3D('',#632,#516,#517);
#407=AXIS2_PLACEMENT_3D('',#633,#518,#519);
#408=AXIS2_PLACEMENT_3D('',#634,#520,#521);
#409=AXIS2_PLACEMENT_3D('',#635,#522,#523);
#410=DIRECTION('',(0.,0.,1.));
#411=DIRECTION('',(1.,0.,0.));
#412=DIRECTION('',(-1.,0.,0.));
#413=DIRECTION('',(0.,0.,1.));
#414=DIRECTION('',(1.,0.,0.));
#415=DIRECTION('',(0.,0.,-1.));
#416=DIRECTION('',(0.,1.,0.));
#417=DIRECTION('',(0.,0.,-1.));
#418=DIRECTION('',(0.,0.,1.));
#419=DIRECTION('',(1.,0.,0.));
#420=DIRECTION('',(0.,0.,1.));
#421=DIRECTION('',(1.,0.,0.));
#422=DIRECTION('',(0.,0.,1.));
#423=DIRECTION('',(1.,0.,0.));
#424=DIRECTION('',(0.,0.,1.));
#425=DIRECTION('',(1.,0.,0.));
#426=DIRECTION('',(0.,0.,1.));
#427=DIRECTION('',(1.,0.,0.));
#428=DIRECTION('',(0.,0.,1.));
#429=DIRECTION('',(1.,0.,0.));
#430=DIRECTION('',(0.,0.,1.));
#431=DIRECTION('',(1.,0.,0.));
#432=DIRECTION('',(0.,0.,1.));
#433=DIRECTION('',(1.,0.,0.));
#434=DIRECTION('',(0.,0.,1.));
#435=DIRECTION('',(1.,0.,0.));
#436=DIRECTION('',(0.,0.,1.));
#437=DIRECTION('',(1.,0.,0.));
#438=DIRECTION('',(0.,8.099299009245E-12,-1.));
#439=DIRECTION('',(-2.389163256526E-13,0.,1.));
#440=DIRECTION('',(2.269392116855E-14,-1.,0.));
#441=DIRECTION('',(0.,-8.407406622919E-12,-1.));
#442=DIRECTION('',(0.,0.,-1.));
#443=DIRECTION('',(0.,1.,0.));
#444=DIRECTION('',(0.,0.,-1.));
#445=DIRECTION('',(0.,1.,0.));
#446=DIRECTION('',(0.,0.,-1.));
#447=DIRECTION('',(0.,-1.,0.));
#448=DIRECTION('',(0.,0.,-1.));
#449=DIRECTION('',(1.,0.,0.));
#450=DIRECTION('',(2.387547865548E-13,0.,1.));
#451=DIRECTION('',(-2.251848237024E-14,1.,0.));
#452=DIRECTION('',(0.,0.,-1.));
#453=DIRECTION('',(0.,1.,0.));
#454=DIRECTION('',(2.387547865548E-13,0.,1.));
#455=DIRECTION('',(1.939627511741E-13,1.,-4.6148473780389E-26));
#456=DIRECTION('',(-0.999999999959538,8.99580786752134E-6,2.38754576546609E-13));
#457=DIRECTION('',(-8.99580786752134E-6,-0.999999999959538,0.));
#458=DIRECTION('',(0.999999999959538,-8.99580790002234E-6,2.38916103040409E-13));
#459=DIRECTION('',(8.99580789996742E-6,0.999999999953339,-3.52099057592328E-6));
#460=DIRECTION('',(-4.07174872347886E-13,0.,-1.));
#461=DIRECTION('',(-1.,0.,4.07226335985673E-13));
#462=DIRECTION('',(-2.389163256526E-13,0.,1.));
#463=DIRECTION('',(-1.94018696409E-13,-1.,-4.65429051802214E-26));
#464=DIRECTION('',(0.,0.,-1.));
#465=DIRECTION('',(0.,1.,0.));
#466=DIRECTION('',(0.,0.707106781186798,-0.707106781186298));
#467=DIRECTION('',(0.,0.,1.));
#468=DIRECTION('',(0.,-1.,0.));
#469=DIRECTION('',(0.,-0.707106781186898,-0.707106781186198));
#470=DIRECTION('',(0.,0.,1.));
#471=DIRECTION('',(0.,-1.,0.));
#472=DIRECTION('',(0.,0.,-1.));
#473=DIRECTION('',(0.,1.,3.45575352859295E-17));
#474=DIRECTION('',(0.,0.,1.));
#475=DIRECTION('',(0.,1.,0.));
#476=DIRECTION('',(0.,0.,1.));
#477=DIRECTION('',(-1.,0.,0.));
#478=DIRECTION('',(0.,0.,1.));
#479=DIRECTION('',(0.,1.,0.));
#480=DIRECTION('',(0.,0.,-1.));
#481=DIRECTION('',(0.,1.,3.45575352859295E-17));
#482=DIRECTION('',(0.,0.,1.));
#483=DIRECTION('',(0.,0.,-1.));
#484=DIRECTION('',(0.,-1.,0.));
#485=DIRECTION('',(0.,0.,1.));
#486=DIRECTION('',(0.,0.,-1.));
#487=DIRECTION('',(0.,1.,0.));
#488=DIRECTION('',(0.,0.,-1.));
#489=DIRECTION('',(0.,1.,0.));
#490=DIRECTION('',(0.,0.,-1.));
#491=DIRECTION('',(0.,1.,0.));
#492=DIRECTION('',(0.,0.,1.));
#493=DIRECTION('',(0.,-1.,0.));
#494=DIRECTION('',(0.,0.707106781186947,-0.707106781186148));
#495=DIRECTION('',(0.,-0.707106781186947,-0.707106781186148));
#496=DIRECTION('',(0.,0.,1.));
#497=DIRECTION('',(0.,-1.,-8.29380846861153E-17));
#498=DIRECTION('',(0.,0.,1.));
#499=DIRECTION('',(0.,1.,0.));
#500=DIRECTION('',(0.,0.,1.));
#501=DIRECTION('',(0.,-1.,-8.29380846861153E-17));
#502=DIRECTION('',(0.,0.,1.));
#503=DIRECTION('',(0.,0.,-1.));
#504=DIRECTION('',(0.,-1.,0.));
#505=DIRECTION('',(0.,0.,1.));
#506=DIRECTION('',(0.,0.,-1.));
#507=DIRECTION('',(0.,1.,0.));
#508=DIRECTION('',(0.,0.,-1.));
#509=DIRECTION('',(0.,1.,0.));
#510=DIRECTION('',(0.,0.,-1.));
#511=DIRECTION('',(0.,1.,0.));
#512=DIRECTION('',(0.,0.,-1.));
#513=DIRECTION('',(0.,1.,0.));
#514=DIRECTION('',(0.,-0.707106781186547,-0.707106781186547));
#515=DIRECTION('',(0.,0.707106781186547,-0.707106781186547));
#516=DIRECTION('',(0.,0.,-1.));
#517=DIRECTION('',(0.,1.,1.38259405308239E-17));
#518=DIRECTION('',(0.,0.,-1.));
#519=DIRECTION('',(0.,-1.,0.));
#520=DIRECTION('',(0.,0.,-1.));
#521=DIRECTION('',(0.,1.,1.38259405308239E-17));
#522=DIRECTION('',(0.,0.,-1.));
#523=DIRECTION('',(0.,1.,0.));
#524=CARTESIAN_POINT('',(0.,0.,0.));
#525=CARTESIAN_POINT('CRP',(-4.,0.,0.));
#526=CARTESIAN_POINT('',(0.,0.,0.));
#527=CARTESIAN_POINT('',(-4.,0.,2.));
#528=CARTESIAN_POINT('',(-4.,0.,12.));
#529=CARTESIAN_POINT('',(0.,0.,12.));
#530=CARTESIAN_POINT('',(-2.,0.,2.));
#531=CARTESIAN_POINT('',(0.,0.,0.));
#532=CARTESIAN_POINT('',(0.,0.,0.));
#533=CARTESIAN_POINT('',(0.,0.,0.));
#534=CARTESIAN_POINT('',(0.,0.,120.));
#535=CARTESIAN_POINT('',(0.,0.,96.));
#536=CARTESIAN_POINT('',(0.,0.,0.));
#537=CARTESIAN_POINT('',(0.,0.,0.));
#538=CARTESIAN_POINT('',(0.,0.,0.));
#539=CARTESIAN_POINT('',(0.,0.,0.));
#540=CARTESIAN_POINT('',(0.,0.,0.));
#541=CARTESIAN_POINT('',(0.,-4.,12.));
#542=CARTESIAN_POINT('',(0.,-4.,12.));
#543=CARTESIAN_POINT('',(0.,-4.,1.999999999999));
#544=CARTESIAN_POINT('',(-8.979596723468E-14,0.,1.999999999999));
#545=CARTESIAN_POINT('',(0.,3.999999999916,1.999998239504));
#546=CARTESIAN_POINT('',(0.,4.,12.));
#547=CARTESIAN_POINT('',(0.,4.,12.));
#548=CARTESIAN_POINT('',(0.,0.,12.));
#549=CARTESIAN_POINT('',(0.,0.,126.));
#550=CARTESIAN_POINT('',(0.,0.,12.));
#551=CARTESIAN_POINT('',(150.,150.,12.));
#552=CARTESIAN_POINT('',(8.958407076112E-14,0.,1.999999999999));
#553=CARTESIAN_POINT('',(0.,0.,126.));
#554=CARTESIAN_POINT('',(-3.87925502347E-13,0.,5.058620189402E-12));
#555=CARTESIAN_POINT('',(1.799161828944E-5,2.000000233515,-6.967759702547E-13));
#556=CARTESIAN_POINT('',(-1.799161822432E-5,-2.000000233515,-6.947775688104E-13));
#557=CARTESIAN_POINT('',(-1.799161564543E-5,-1.999999999919,1.999999999999));
#558=CARTESIAN_POINT('',(1.799161571022E-5,1.999999999919,1.999999999999));
#559=CARTESIAN_POINT('',(-7.47123717059761E-13,0.,1.99999999999767));
#560=CARTESIAN_POINT('',(3.880366840691E-13,0.,5.056843832563E-12));
#561=CARTESIAN_POINT('',(-0.0376968968317903,1.99963990060591,5.26098262176866E-12));
#562=CARTESIAN_POINT('',(1.14244151379526,2.0218876842693,5.74150533107923E-12));
#563=CARTESIAN_POINT('',(1.98878737866726,1.19913601509486,6.08611610244266E-12));
#564=CARTESIAN_POINT('',(1.99990645571096,0.0188402901848038,6.09064351124315E-12));
#565=CARTESIAN_POINT('',(2.01102553275466,-1.16145543472526,6.09517092004364E-12));
#566=CARTESIAN_POINT('',(1.18033010623659,-2.00000581513018,5.75693261395327E-12));
#567=CARTESIAN_POINT('',(-1.79915729164119E-5,-1.99999519694487,5.27632452529049E-12));
#568=CARTESIAN_POINT('',(-0.0597793228149251,3.17100687795575,-2.81351709581502E-6));
#569=CARTESIAN_POINT('',(1.81167113979296,3.20628716766917,-2.81351633380741E-6));
#570=CARTESIAN_POINT('',(3.15379706847908,1.90157665403561,-2.81351578732746E-6));
#571=CARTESIAN_POINT('',(3.17142957809814,0.0298767241745038,-2.81351578014794E-6));
#572=CARTESIAN_POINT('',(3.18906208771719,-1.8418232056866,-2.81351577296843E-6));
#573=CARTESIAN_POINT('',(1.87175445138878,-3.17158714116853,-2.813516309343E-6));
#574=CARTESIAN_POINT('',(-2.85308380657425E-5,-3.1715703029675,-2.813517071486E-6));
#575=CARTESIAN_POINT('',(-0.0753939747221942,3.99928940545348,0.828424893925561));
#576=CARTESIAN_POINT('',(2.28488851471969,4.04378507963606,0.828424893926522));
#577=CARTESIAN_POINT('',(3.9775843094507,2.39827778962277,0.828424893927211));
#578=CARTESIAN_POINT('',(3.99982251694286,0.0376806708592843,0.82842489392722));
#579=CARTESIAN_POINT('',(4.02206072443502,-2.3229164479042,0.82842489392723));
#580=CARTESIAN_POINT('',(2.36066588158072,-4.00002123625944,0.828424893926553));
#581=CARTESIAN_POINT('',(-3.59832332073273E-5,-3.99999999983784,0.828424893925592));
#582=CARTESIAN_POINT('',(-0.0753939747226835,3.99928940545414,1.99999999999897));
#583=CARTESIAN_POINT('',(2.28488851471958,4.04378507963672,1.99999999999993));
#584=CARTESIAN_POINT('',(3.97758430945087,2.39827778962316,2.00000000000062));
#585=CARTESIAN_POINT('',(3.99982251694303,0.0376806708592904,2.00000000000063));
#586=CARTESIAN_POINT('',(4.0220607244352,-2.32291644790458,2.00000000000064));
#587=CARTESIAN_POINT('',(2.36066588158063,-4.00002123626009,1.99999999999996));
#588=CARTESIAN_POINT('',(-3.5983233684355E-5,-3.99999999983849,1.999999999999));
#589=CARTESIAN_POINT('',(0.,-2.203115598196E-14,0.));
#590=CARTESIAN_POINT('',(0.,3.925,12.075));
#591=CARTESIAN_POINT('',(0.,3.925,12.075));
#592=CARTESIAN_POINT('',(0.,4.,12.));
#593=CARTESIAN_POINT('',(0.,-1.981990310525E-14,12.075));
#594=CARTESIAN_POINT('',(0.,-3.925,12.075));
#595=CARTESIAN_POINT('',(0.,-3.925,12.075));
#596=CARTESIAN_POINT('',(0.,-4.,12.));
#597=CARTESIAN_POINT('',(0.,-1.981990310525E-14,12.));
#598=CARTESIAN_POINT('',(0.,-1.981990310525E-14,12.0375));
#599=CARTESIAN_POINT('',(0.,-1.981990310525E-14,12.));
#600=CARTESIAN_POINT('',(-150.,150.,12.));
#601=CARTESIAN_POINT('',(0.,-1.981990310525E-14,12.075));
#602=CARTESIAN_POINT('',(0.,-1.981990310525E-14,12.0375));
#603=CARTESIAN_POINT('',(0.,-3.925,71.925));
#604=CARTESIAN_POINT('',(0.,-3.925,71.925));
#605=CARTESIAN_POINT('',(0.,0.,71.925));
#606=CARTESIAN_POINT('',(0.,3.925,71.925));
#607=CARTESIAN_POINT('',(0.,3.925,71.925));
#608=CARTESIAN_POINT('',(0.,0.,126.));
#609=CARTESIAN_POINT('',(0.,0.,71.925));
#610=CARTESIAN_POINT('',(0.,0.,126.));
#611=CARTESIAN_POINT('',(0.,0.,72.));
#612=CARTESIAN_POINT('',(0.,-4.,72.));
#613=CARTESIAN_POINT('',(0.,4.,72.));
#614=CARTESIAN_POINT('',(0.,-4.,72.));
#615=CARTESIAN_POINT('',(0.,4.,72.));
#616=CARTESIAN_POINT('',(0.,0.,71.9625));
#617=CARTESIAN_POINT('',(0.,0.,72.));
#618=CARTESIAN_POINT('',(0.,0.,71.9625));
#619=CARTESIAN_POINT('',(0.,-4.,119.5));
#620=CARTESIAN_POINT('',(0.,-4.,119.5));
#621=CARTESIAN_POINT('',(0.,0.,119.5));
#622=CARTESIAN_POINT('',(0.,4.,119.5));
#623=CARTESIAN_POINT('',(0.,4.,119.5));
#624=CARTESIAN_POINT('',(0.,0.,126.));
#625=CARTESIAN_POINT('',(0.,0.,119.5));
#626=CARTESIAN_POINT('',(0.,0.,126.));
#627=CARTESIAN_POINT('',(0.,0.,120.));
#628=CARTESIAN_POINT('',(0.,3.5,120.));
#629=CARTESIAN_POINT('',(0.,-3.5,120.));
#630=CARTESIAN_POINT('',(0.,-3.5,120.));
#631=CARTESIAN_POINT('',(0.,3.5,120.));
#632=CARTESIAN_POINT('',(0.,0.,119.75));
#633=CARTESIAN_POINT('',(0.,0.,120.));
#634=CARTESIAN_POINT('',(0.,0.,119.75));
#635=CARTESIAN_POINT('',(0.,0.,120.));
#636=MECHANICAL_DESIGN_GEOMETRIC_PRESENTATION_REPRESENTATION('',(#318,#319,
#320,#321,#322,#323,#324,#325,#326,#327,#328,#329,#330,#331,#332,#333,#334,
#335),#637);
#637=(
GEOMETRIC_REPRESENTATION_CONTEXT(3)
GLOBAL_UNCERTAINTY_ASSIGNED_CONTEXT((#638))
GLOBAL_UNIT_ASSIGNED_CONTEXT((#644,#640,#639))
REPRESENTATION_CONTEXT('VFHVRBD0800R20N072','TOP_LEVEL_ASSEMBLY_PART')
);
#638=UNCERTAINTY_MEASURE_WITH_UNIT(LENGTH_MEASURE(0.0254),#644,
'DISTANCE_ACCURACY_VALUE','Maximum Tolerance applied to model');
#639=(
NAMED_UNIT(*)
SI_UNIT($,.STERADIAN.)
SOLID_ANGLE_UNIT()
);
#640=(
CONVERSION_BASED_UNIT('DEGREE',#642)
NAMED_UNIT(#641)
PLANE_ANGLE_UNIT()
);
#641=DIMENSIONAL_EXPONENTS(0.,0.,0.,0.,0.,0.,0.);
#642=PLANE_ANGLE_MEASURE_WITH_UNIT(PLANE_ANGLE_MEASURE(0.0174532925),#643);
#643=(
NAMED_UNIT(*)
PLANE_ANGLE_UNIT()
SI_UNIT($,.RADIAN.)
);
#644=(
LENGTH_UNIT()
NAMED_UNIT(*)
SI_UNIT(.MILLI.,.METRE.)
);
ENDSEC;
END-ISO-10303-21;
