ISO-10303-21;
HEADER;
/* Generated by software containing ST-Developer
 * from STEP Tools, Inc. (www.steptools.com) 
 */
/* OPTION: using custom schema-name function */

FILE_DESCRIPTION(
/* description */ (''),
/* implementation_level */ '2;1');

FILE_NAME(
/* name */ 'MP2XLBR0025N090.stp',
/* time_stamp */ '2023-03-17T09:19:59+09:00',
/* author */ (''),
/* organization */ (''),
/* preprocessor_version */ 'ST-DEVELOPER v16',
/* originating_system */ 'SIEMENS PLM Software NX 10.0',
/* authorisation */ '');

FILE_SCHEMA (('AUTOMOTIVE_DESIGN { 1 0 10303 214 3 1 1 1 }'));
ENDSEC;

DATA;
#10=CONSTRUCTIVE_GEOMETRY_REPRESENTATION_RELATIONSHIP(
'supplemental geometry','',#26,#11);
#11=CONSTRUCTIVE_GEOMETRY_REPRESENTATION('supplemental geometry',(#395,
#396,#397,#398,#399,#400,#401,#402,#403,#404),#682);
#12=GEOMETRICALLY_BOUNDED_WIREFRAME_SHAPE_REPRESENTATION(
'MP2XLBR0025N090-None',(#27),#682);
#13=SHAPE_REPRESENTATION_RELATIONSHIP('None',
'relationship between MP2XLBR0025N090-None and MP2XLBR0025N090-None',#26,
#15);
#14=SHAPE_REPRESENTATION_RELATIONSHIP('None',
'relationship between MP2XLBR0025N090-None and MP2XLBR0025N090-None',#26,
#12);
#15=ADVANCED_BREP_SHAPE_REPRESENTATION('MP2XLBR0025N090-None',(#48,#49),
#682);
#16=SHAPE_DEFINITION_REPRESENTATION(#17,#26);
#17=PRODUCT_DEFINITION_SHAPE('','SHAPE FOR MP2XLBR0025N090_ASM.',#18);
#18=PRODUCT_DEFINITION('part definition','',#20,#19);
#19=PRODUCT_DEFINITION_CONTEXT('part definition',#25,'design');
#20=PRODUCT_DEFINITION_FORMATION_WITH_SPECIFIED_SOURCE(' ',' ',#22,
 .NOT_KNOWN.);
#21=PRODUCT_RELATED_PRODUCT_CATEGORY('part','',(#22));
#22=PRODUCT('MP2XLBR0025N090_ASM','MP2XLBR0025N090_ASM','NOT SPECIFIED',
(#23));
#23=PRODUCT_CONTEXT('',#25,'mechanical');
#24=APPLICATION_PROTOCOL_DEFINITION('international standard',
'automotive_design',2010,#25);
#25=APPLICATION_CONTEXT(
'core data for automotive mechanical design processes');
#26=SHAPE_REPRESENTATION('MP2XLBR0025N090-None',(#393),#682);
#27=GEOMETRIC_CURVE_SET('None',(#586,#316,#317,#318,#319));
#28=TOROIDAL_SURFACE('',#430,2.235,2.);
#29=TOROIDAL_SURFACE('',#432,2.235,2.);
#30=TOROIDAL_SURFACE('',#436,2.235,2.);
#31=TOROIDAL_SURFACE('',#438,2.235,2.);
#32=CONICAL_SURFACE('',#418,0.2425,45.);
#33=CONICAL_SURFACE('',#422,0.2425,45.);
#34=CONICAL_SURFACE('',#440,1.139352399266,12.);
#35=CONICAL_SURFACE('',#442,1.139352399266,12.);
#36=CONICAL_SURFACE('',#448,1.75,45.);
#37=CONICAL_SURFACE('',#450,1.75,45.);
#38=SURFACE_STYLE_USAGE(.BOTH.,#40);
#39=SURFACE_STYLE_USAGE(.BOTH.,#41);
#40=SURFACE_SIDE_STYLE('',(#42));
#41=SURFACE_SIDE_STYLE('',(#43));
#42=SURFACE_STYLE_FILL_AREA(#44);
#43=SURFACE_STYLE_FILL_AREA(#45);
#44=FILL_AREA_STYLE('',(#46));
#45=FILL_AREA_STYLE('',(#47));
#46=FILL_AREA_STYLE_COLOUR('',#391);
#47=FILL_AREA_STYLE_COLOUR('',#392);
#48=MANIFOLD_SOLID_BREP('CUT',#50);
#49=MANIFOLD_SOLID_BREP('NOCUT',#51);
#50=CLOSED_SHELL('',(#57,#58,#59,#60,#61));
#51=CLOSED_SHELL('',(#62,#63,#64,#65,#66,#67,#68,#69,#70,#71,#72,#73,#74,
#75,#76,#77));
#52=SPHERICAL_SURFACE('',#414,0.25);
#53=SPHERICAL_SURFACE('',#415,0.25);
#54=PLANE('',#409);
#55=PLANE('',#420);
#56=PLANE('',#451);
#57=ADVANCED_FACE('',(#84),#78,.T.);
#58=ADVANCED_FACE('',(#85),#54,.F.);
#59=ADVANCED_FACE('',(#86),#79,.T.);
#60=ADVANCED_FACE('',(#87),#52,.T.);
#61=ADVANCED_FACE('',(#88),#53,.T.);
#62=ADVANCED_FACE('',(#89),#32,.T.);
#63=ADVANCED_FACE('',(#90),#55,.F.);
#64=ADVANCED_FACE('',(#91),#33,.T.);
#65=ADVANCED_FACE('',(#92),#80,.T.);
#66=ADVANCED_FACE('',(#93),#81,.T.);
#67=ADVANCED_FACE('',(#94),#28,.F.);
#68=ADVANCED_FACE('',(#95),#29,.F.);
#69=ADVANCED_FACE('',(#96),#30,.F.);
#70=ADVANCED_FACE('',(#97),#31,.F.);
#71=ADVANCED_FACE('',(#98),#34,.T.);
#72=ADVANCED_FACE('',(#99),#35,.T.);
#73=ADVANCED_FACE('',(#100),#82,.T.);
#74=ADVANCED_FACE('',(#101),#83,.T.);
#75=ADVANCED_FACE('',(#102),#36,.T.);
#76=ADVANCED_FACE('',(#103),#37,.T.);
#77=ADVANCED_FACE('',(#104),#56,.F.);
#78=CYLINDRICAL_SURFACE('',#407,0.25);
#79=CYLINDRICAL_SURFACE('',#411,0.25);
#80=CYLINDRICAL_SURFACE('',#424,0.235);
#81=CYLINDRICAL_SURFACE('',#426,0.235);
#82=CYLINDRICAL_SURFACE('',#444,2.);
#83=CYLINDRICAL_SURFACE('',#446,2.);
#84=FACE_OUTER_BOUND('',#105,.T.);
#85=FACE_OUTER_BOUND('',#106,.T.);
#86=FACE_OUTER_BOUND('',#107,.T.);
#87=FACE_OUTER_BOUND('',#108,.T.);
#88=FACE_OUTER_BOUND('',#109,.T.);
#89=FACE_OUTER_BOUND('',#110,.T.);
#90=FACE_OUTER_BOUND('',#111,.T.);
#91=FACE_OUTER_BOUND('',#112,.T.);
#92=FACE_OUTER_BOUND('',#113,.T.);
#93=FACE_OUTER_BOUND('',#114,.T.);
#94=FACE_OUTER_BOUND('',#115,.T.);
#95=FACE_OUTER_BOUND('',#116,.T.);
#96=FACE_OUTER_BOUND('',#117,.T.);
#97=FACE_OUTER_BOUND('',#118,.T.);
#98=FACE_OUTER_BOUND('',#119,.T.);
#99=FACE_OUTER_BOUND('',#120,.T.);
#100=FACE_OUTER_BOUND('',#121,.T.);
#101=FACE_OUTER_BOUND('',#122,.T.);
#102=FACE_OUTER_BOUND('',#123,.T.);
#103=FACE_OUTER_BOUND('',#124,.T.);
#104=FACE_OUTER_BOUND('',#125,.T.);
#105=EDGE_LOOP('',(#126,#127,#128,#129));
#106=EDGE_LOOP('',(#130,#131));
#107=EDGE_LOOP('',(#132,#133,#134,#135));
#108=EDGE_LOOP('',(#136,#137,#138));
#109=EDGE_LOOP('',(#139,#140,#141));
#110=EDGE_LOOP('',(#142,#143,#144,#145));
#111=EDGE_LOOP('',(#146,#147));
#112=EDGE_LOOP('',(#148,#149,#150,#151));
#113=EDGE_LOOP('',(#152,#153,#154,#155));
#114=EDGE_LOOP('',(#156,#157,#158,#159));
#115=EDGE_LOOP('',(#160,#161,#162,#163));
#116=EDGE_LOOP('',(#164,#165,#166,#167));
#117=EDGE_LOOP('',(#168,#169,#170,#171));
#118=EDGE_LOOP('',(#172,#173,#174,#175));
#119=EDGE_LOOP('',(#176,#177,#178,#179));
#120=EDGE_LOOP('',(#180,#181,#182,#183));
#121=EDGE_LOOP('',(#184,#185,#186,#187));
#122=EDGE_LOOP('',(#188,#189,#190,#191));
#123=EDGE_LOOP('',(#192,#193,#194,#195));
#124=EDGE_LOOP('',(#196,#197,#198,#199));
#125=EDGE_LOOP('',(#200,#201));
#126=ORIENTED_EDGE('',*,*,#223,.T.);
#127=ORIENTED_EDGE('',*,*,#224,.T.);
#128=ORIENTED_EDGE('',*,*,#225,.F.);
#129=ORIENTED_EDGE('',*,*,#226,.T.);
#130=ORIENTED_EDGE('',*,*,#227,.F.);
#131=ORIENTED_EDGE('',*,*,#226,.F.);
#132=ORIENTED_EDGE('',*,*,#225,.T.);
#133=ORIENTED_EDGE('',*,*,#228,.T.);
#134=ORIENTED_EDGE('',*,*,#223,.F.);
#135=ORIENTED_EDGE('',*,*,#227,.T.);
#136=ORIENTED_EDGE('',*,*,#229,.T.);
#137=ORIENTED_EDGE('',*,*,#228,.F.);
#138=ORIENTED_EDGE('',*,*,#230,.F.);
#139=ORIENTED_EDGE('',*,*,#224,.F.);
#140=ORIENTED_EDGE('',*,*,#229,.F.);
#141=ORIENTED_EDGE('',*,*,#230,.T.);
#142=ORIENTED_EDGE('',*,*,#231,.F.);
#143=ORIENTED_EDGE('',*,*,#232,.F.);
#144=ORIENTED_EDGE('',*,*,#233,.T.);
#145=ORIENTED_EDGE('',*,*,#234,.T.);
#146=ORIENTED_EDGE('',*,*,#235,.F.);
#147=ORIENTED_EDGE('',*,*,#234,.F.);
#148=ORIENTED_EDGE('',*,*,#233,.F.);
#149=ORIENTED_EDGE('',*,*,#236,.F.);
#150=ORIENTED_EDGE('',*,*,#231,.T.);
#151=ORIENTED_EDGE('',*,*,#235,.T.);
#152=ORIENTED_EDGE('',*,*,#236,.T.);
#153=ORIENTED_EDGE('',*,*,#237,.T.);
#154=ORIENTED_EDGE('',*,*,#238,.T.);
#155=ORIENTED_EDGE('',*,*,#239,.F.);
#156=ORIENTED_EDGE('',*,*,#240,.T.);
#157=ORIENTED_EDGE('',*,*,#237,.F.);
#158=ORIENTED_EDGE('',*,*,#232,.T.);
#159=ORIENTED_EDGE('',*,*,#239,.T.);
#160=ORIENTED_EDGE('',*,*,#241,.F.);
#161=ORIENTED_EDGE('',*,*,#242,.T.);
#162=ORIENTED_EDGE('',*,*,#240,.F.);
#163=ORIENTED_EDGE('',*,*,#243,.F.);
#164=ORIENTED_EDGE('',*,*,#238,.F.);
#165=ORIENTED_EDGE('',*,*,#242,.F.);
#166=ORIENTED_EDGE('',*,*,#244,.T.);
#167=ORIENTED_EDGE('',*,*,#243,.T.);
#168=ORIENTED_EDGE('',*,*,#244,.F.);
#169=ORIENTED_EDGE('',*,*,#245,.T.);
#170=ORIENTED_EDGE('',*,*,#246,.F.);
#171=ORIENTED_EDGE('',*,*,#247,.F.);
#172=ORIENTED_EDGE('',*,*,#248,.F.);
#173=ORIENTED_EDGE('',*,*,#245,.F.);
#174=ORIENTED_EDGE('',*,*,#241,.T.);
#175=ORIENTED_EDGE('',*,*,#247,.T.);
#176=ORIENTED_EDGE('',*,*,#249,.F.);
#177=ORIENTED_EDGE('',*,*,#250,.T.);
#178=ORIENTED_EDGE('',*,*,#248,.T.);
#179=ORIENTED_EDGE('',*,*,#251,.F.);
#180=ORIENTED_EDGE('',*,*,#246,.T.);
#181=ORIENTED_EDGE('',*,*,#250,.F.);
#182=ORIENTED_EDGE('',*,*,#252,.F.);
#183=ORIENTED_EDGE('',*,*,#251,.T.);
#184=ORIENTED_EDGE('',*,*,#252,.T.);
#185=ORIENTED_EDGE('',*,*,#253,.T.);
#186=ORIENTED_EDGE('',*,*,#254,.T.);
#187=ORIENTED_EDGE('',*,*,#255,.F.);
#188=ORIENTED_EDGE('',*,*,#256,.T.);
#189=ORIENTED_EDGE('',*,*,#253,.F.);
#190=ORIENTED_EDGE('',*,*,#249,.T.);
#191=ORIENTED_EDGE('',*,*,#255,.T.);
#192=ORIENTED_EDGE('',*,*,#257,.T.);
#193=ORIENTED_EDGE('',*,*,#258,.T.);
#194=ORIENTED_EDGE('',*,*,#256,.F.);
#195=ORIENTED_EDGE('',*,*,#259,.F.);
#196=ORIENTED_EDGE('',*,*,#254,.F.);
#197=ORIENTED_EDGE('',*,*,#258,.F.);
#198=ORIENTED_EDGE('',*,*,#260,.T.);
#199=ORIENTED_EDGE('',*,*,#259,.T.);
#200=ORIENTED_EDGE('',*,*,#257,.F.);
#201=ORIENTED_EDGE('',*,*,#260,.F.);
#202=VERTEX_POINT('',#602);
#203=VERTEX_POINT('',#603);
#204=VERTEX_POINT('',#605);
#205=VERTEX_POINT('',#607);
#206=VERTEX_POINT('',#615);
#207=VERTEX_POINT('',#620);
#208=VERTEX_POINT('',#621);
#209=VERTEX_POINT('',#623);
#210=VERTEX_POINT('',#625);
#211=VERTEX_POINT('',#633);
#212=VERTEX_POINT('',#635);
#213=VERTEX_POINT('',#641);
#214=VERTEX_POINT('',#642);
#215=VERTEX_POINT('',#649);
#216=VERTEX_POINT('',#651);
#217=VERTEX_POINT('',#657);
#218=VERTEX_POINT('',#658);
#219=VERTEX_POINT('',#665);
#220=VERTEX_POINT('',#667);
#221=VERTEX_POINT('',#673);
#222=VERTEX_POINT('',#674);
#223=EDGE_CURVE('',#202,#203,#323,.T.);
#224=EDGE_CURVE('',#203,#204,#262,.T.);
#225=EDGE_CURVE('',#205,#204,#324,.T.);
#226=EDGE_CURVE('',#205,#202,#263,.T.);
#227=EDGE_CURVE('',#202,#205,#264,.T.);
#228=EDGE_CURVE('',#204,#203,#265,.T.);
#229=EDGE_CURVE('',#206,#203,#266,.T.);
#230=EDGE_CURVE('',#206,#204,#267,.T.);
#231=EDGE_CURVE('',#207,#208,#325,.T.);
#232=EDGE_CURVE('',#209,#207,#268,.T.);
#233=EDGE_CURVE('',#209,#210,#326,.T.);
#234=EDGE_CURVE('',#210,#208,#269,.T.);
#235=EDGE_CURVE('',#208,#210,#270,.T.);
#236=EDGE_CURVE('',#207,#209,#271,.T.);
#237=EDGE_CURVE('',#209,#211,#327,.T.);
#238=EDGE_CURVE('',#211,#212,#272,.T.);
#239=EDGE_CURVE('',#207,#212,#328,.T.);
#240=EDGE_CURVE('',#212,#211,#273,.T.);
#241=EDGE_CURVE('',#213,#214,#274,.T.);
#242=EDGE_CURVE('',#213,#211,#275,.T.);
#243=EDGE_CURVE('',#214,#212,#276,.T.);
#244=EDGE_CURVE('',#213,#214,#277,.T.);
#245=EDGE_CURVE('',#213,#215,#278,.T.);
#246=EDGE_CURVE('',#216,#215,#279,.T.);
#247=EDGE_CURVE('',#214,#216,#280,.T.);
#248=EDGE_CURVE('',#215,#216,#281,.T.);
#249=EDGE_CURVE('',#217,#218,#282,.T.);
#250=EDGE_CURVE('',#217,#215,#329,.T.);
#251=EDGE_CURVE('',#218,#216,#330,.T.);
#252=EDGE_CURVE('',#218,#217,#283,.T.);
#253=EDGE_CURVE('',#217,#219,#331,.T.);
#254=EDGE_CURVE('',#219,#220,#284,.T.);
#255=EDGE_CURVE('',#218,#220,#332,.T.);
#256=EDGE_CURVE('',#220,#219,#285,.T.);
#257=EDGE_CURVE('',#221,#222,#286,.T.);
#258=EDGE_CURVE('',#222,#219,#333,.T.);
#259=EDGE_CURVE('',#221,#220,#334,.T.);
#260=EDGE_CURVE('',#222,#221,#287,.T.);
#261=CIRCLE('',#394,0.25);
#262=CIRCLE('',#405,0.25);
#263=CIRCLE('',#406,0.25);
#264=CIRCLE('',#408,0.25);
#265=CIRCLE('',#410,0.25);
#266=CIRCLE('',#412,0.25);
#267=CIRCLE('',#413,0.25);
#268=CIRCLE('',#416,0.235);
#269=CIRCLE('',#417,0.25);
#270=CIRCLE('',#419,0.25);
#271=CIRCLE('',#421,0.235);
#272=CIRCLE('',#423,0.235);
#273=CIRCLE('',#425,0.235);
#274=CIRCLE('',#427,0.25);
#275=CIRCLE('',#428,2.);
#276=CIRCLE('',#429,2.);
#277=CIRCLE('',#431,0.25);
#278=CIRCLE('',#433,2.);
#279=CIRCLE('',#434,0.2787047985325);
#280=CIRCLE('',#435,2.);
#281=CIRCLE('',#437,0.2787047985325);
#282=CIRCLE('',#439,1.999999999999);
#283=CIRCLE('',#441,1.999999999999);
#284=CIRCLE('',#443,2.);
#285=CIRCLE('',#445,2.);
#286=CIRCLE('',#447,1.5);
#287=CIRCLE('',#449,1.5);
#288=CURVE_STYLE('',#302,POSITIVE_LENGTH_MEASURE(0.18),#388);
#289=CURVE_STYLE('',#303,POSITIVE_LENGTH_MEASURE(0.18),#388);
#290=CURVE_STYLE('',#304,POSITIVE_LENGTH_MEASURE(0.18),#388);
#291=CURVE_STYLE('',#305,POSITIVE_LENGTH_MEASURE(0.18),#388);
#292=CURVE_STYLE('',#306,POSITIVE_LENGTH_MEASURE(0.13),#389);
#293=CURVE_STYLE('',#307,POSITIVE_LENGTH_MEASURE(0.13),#389);
#294=CURVE_STYLE('',#308,POSITIVE_LENGTH_MEASURE(0.13),#390);
#295=CURVE_STYLE('',#309,POSITIVE_LENGTH_MEASURE(0.13),#390);
#296=CURVE_STYLE('',#310,POSITIVE_LENGTH_MEASURE(0.13),#389);
#297=CURVE_STYLE('',#311,POSITIVE_LENGTH_MEASURE(0.13),#389);
#298=CURVE_STYLE('',#312,POSITIVE_LENGTH_MEASURE(0.13),#390);
#299=CURVE_STYLE('',#313,POSITIVE_LENGTH_MEASURE(0.13),#389);
#300=CURVE_STYLE('',#314,POSITIVE_LENGTH_MEASURE(0.13),#389);
#301=CURVE_STYLE('',#315,POSITIVE_LENGTH_MEASURE(0.13),#389);
#302=DRAUGHTING_PRE_DEFINED_CURVE_FONT('continuous');
#303=DRAUGHTING_PRE_DEFINED_CURVE_FONT('continuous');
#304=DRAUGHTING_PRE_DEFINED_CURVE_FONT('continuous');
#305=DRAUGHTING_PRE_DEFINED_CURVE_FONT('continuous');
#306=DRAUGHTING_PRE_DEFINED_CURVE_FONT('continuous');
#307=DRAUGHTING_PRE_DEFINED_CURVE_FONT('continuous');
#308=DRAUGHTING_PRE_DEFINED_CURVE_FONT('continuous');
#309=DRAUGHTING_PRE_DEFINED_CURVE_FONT('continuous');
#310=DRAUGHTING_PRE_DEFINED_CURVE_FONT('continuous');
#311=DRAUGHTING_PRE_DEFINED_CURVE_FONT('continuous');
#312=DRAUGHTING_PRE_DEFINED_CURVE_FONT('continuous');
#313=DRAUGHTING_PRE_DEFINED_CURVE_FONT('continuous');
#314=DRAUGHTING_PRE_DEFINED_CURVE_FONT('continuous');
#315=DRAUGHTING_PRE_DEFINED_CURVE_FONT('continuous');
#316=TRIMMED_CURVE('',#320,(PARAMETER_VALUE(0.)),(PARAMETER_VALUE(1.)),
 .T.,.PARAMETER.);
#317=TRIMMED_CURVE('',#321,(PARAMETER_VALUE(0.)),(PARAMETER_VALUE(1.)),
 .T.,.PARAMETER.);
#318=TRIMMED_CURVE('',#322,(PARAMETER_VALUE(0.)),(PARAMETER_VALUE(1.)),
 .T.,.PARAMETER.);
#319=TRIMMED_CURVE('',#261,(PARAMETER_VALUE(0.)),(PARAMETER_VALUE(90.)),
 .T.,.PARAMETER.);
#320=LINE('',#587,#335);
#321=LINE('',#588,#336);
#322=LINE('',#589,#337);
#323=LINE('',#601,#338);
#324=LINE('',#606,#339);
#325=LINE('',#619,#340);
#326=LINE('',#624,#341);
#327=LINE('',#632,#342);
#328=LINE('',#636,#343);
#329=LINE('',#659,#344);
#330=LINE('',#660,#345);
#331=LINE('',#664,#346);
#332=LINE('',#668,#347);
#333=LINE('',#675,#348);
#334=LINE('',#676,#349);
#335=VECTOR('',#454,0.12);
#336=VECTOR('',#455,0.25);
#337=VECTOR('',#456,0.37);
#338=VECTOR('',#479,1.);
#339=VECTOR('',#482,1.);
#340=VECTOR('',#503,1.);
#341=VECTOR('',#506,1.);
#342=VECTOR('',#519,1.);
#343=VECTOR('',#522,1.);
#344=VECTOR('',#555,1.);
#345=VECTOR('',#556,1.);
#346=VECTOR('',#563,1.);
#347=VECTOR('',#566,1.);
#348=VECTOR('',#575,1.);
#349=VECTOR('',#576,1.);
#350=PRESENTATION_LAYER_ASSIGNMENT('1','Layer 1',(#586,#316,#317,#318,#319,
#395,#396,#399,#400,#401,#402,#403,#404,#48,#49));
#351=PRESENTATION_LAYER_ASSIGNMENT('2','Layer 2',(#397,#398));
#352=STYLED_ITEM('',(#369),#586);
#353=STYLED_ITEM('',(#370),#316);
#354=STYLED_ITEM('',(#371),#317);
#355=STYLED_ITEM('',(#372),#318);
#356=STYLED_ITEM('',(#373),#319);
#357=STYLED_ITEM('',(#374),#395);
#358=STYLED_ITEM('',(#375),#396);
#359=STYLED_ITEM('',(#376),#397);
#360=STYLED_ITEM('',(#377),#398);
#361=STYLED_ITEM('',(#378),#399);
#362=STYLED_ITEM('',(#379),#400);
#363=STYLED_ITEM('',(#380),#401);
#364=STYLED_ITEM('',(#381),#402);
#365=STYLED_ITEM('',(#382),#403);
#366=STYLED_ITEM('',(#383),#404);
#367=STYLED_ITEM('',(#384),#48);
#368=STYLED_ITEM('',(#385),#49);
#369=PRESENTATION_STYLE_ASSIGNMENT((#386));
#370=PRESENTATION_STYLE_ASSIGNMENT((#288));
#371=PRESENTATION_STYLE_ASSIGNMENT((#289));
#372=PRESENTATION_STYLE_ASSIGNMENT((#290));
#373=PRESENTATION_STYLE_ASSIGNMENT((#291));
#374=PRESENTATION_STYLE_ASSIGNMENT((#292));
#375=PRESENTATION_STYLE_ASSIGNMENT((#293));
#376=PRESENTATION_STYLE_ASSIGNMENT((#294));
#377=PRESENTATION_STYLE_ASSIGNMENT((#295));
#378=PRESENTATION_STYLE_ASSIGNMENT((#296));
#379=PRESENTATION_STYLE_ASSIGNMENT((#297));
#380=PRESENTATION_STYLE_ASSIGNMENT((#298));
#381=PRESENTATION_STYLE_ASSIGNMENT((#299));
#382=PRESENTATION_STYLE_ASSIGNMENT((#300));
#383=PRESENTATION_STYLE_ASSIGNMENT((#301));
#384=PRESENTATION_STYLE_ASSIGNMENT((#38));
#385=PRESENTATION_STYLE_ASSIGNMENT((#39));
#386=POINT_STYLE('',#387,POSITIVE_LENGTH_MEASURE(3.),#388);
#387=PRE_DEFINED_POINT_MARKER_SYMBOL('plus');
#388=COLOUR_RGB('Medium Royal',0.2,0.4,0.8);
#389=COLOUR_RGB('Strong Stone',0.576470588235294,0.54508278019379,0.392156862745098);
#390=COLOUR_RGB('Medium Umber',0.372533760585946,0.313725490196078,0.270572976272221);
#391=COLOUR_RGB('cutting part',0.8,0.8,0.8);
#392=COLOUR_RGB('non-cutting part and shank',0.501960784313725,0.501960784313725,
0.501960784313725);
#393=AXIS2_PLACEMENT_3D('',#585,#452,#453);
#394=AXIS2_PLACEMENT_3D('',#590,#457,#458);
#395=AXIS2_PLACEMENT_3D('',#591,#459,#460);
#396=AXIS2_PLACEMENT_3D('',#592,#461,#462);
#397=AXIS2_PLACEMENT_3D('CIP',#593,#463,#464);
#398=AXIS2_PLACEMENT_3D('PCS',#594,#465,#466);
#399=AXIS2_PLACEMENT_3D('MCS',#595,#467,#468);
#400=AXIS2_PLACEMENT_3D('',#596,#469,#470);
#401=AXIS2_PLACEMENT_3D('STEP_TEMP_EM11_1',#597,#471,#472);
#402=AXIS2_PLACEMENT_3D('',#598,#473,#474);
#403=AXIS2_PLACEMENT_3D('',#599,#475,#476);
#404=AXIS2_PLACEMENT_3D('',#600,#477,#478);
#405=AXIS2_PLACEMENT_3D('',#604,#480,#481);
#406=AXIS2_PLACEMENT_3D('',#608,#483,#484);
#407=AXIS2_PLACEMENT_3D('',#609,#485,#486);
#408=AXIS2_PLACEMENT_3D('',#610,#487,#488);
#409=AXIS2_PLACEMENT_3D('',#611,#489,#490);
#410=AXIS2_PLACEMENT_3D('',#612,#491,#492);
#411=AXIS2_PLACEMENT_3D('',#613,#493,#494);
#412=AXIS2_PLACEMENT_3D('',#614,#495,#496);
#413=AXIS2_PLACEMENT_3D('',#616,#497,#498);
#414=AXIS2_PLACEMENT_3D('',#617,#499,#500);
#415=AXIS2_PLACEMENT_3D('',#618,#501,#502);
#416=AXIS2_PLACEMENT_3D('',#622,#504,#505);
#417=AXIS2_PLACEMENT_3D('',#626,#507,#508);
#418=AXIS2_PLACEMENT_3D('',#627,#509,#510);
#419=AXIS2_PLACEMENT_3D('',#628,#511,#512);
#420=AXIS2_PLACEMENT_3D('',#629,#513,#514);
#421=AXIS2_PLACEMENT_3D('',#630,#515,#516);
#422=AXIS2_PLACEMENT_3D('',#631,#517,#518);
#423=AXIS2_PLACEMENT_3D('',#634,#520,#521);
#424=AXIS2_PLACEMENT_3D('',#637,#523,#524);
#425=AXIS2_PLACEMENT_3D('',#638,#525,#526);
#426=AXIS2_PLACEMENT_3D('',#639,#527,#528);
#427=AXIS2_PLACEMENT_3D('',#640,#529,#530);
#428=AXIS2_PLACEMENT_3D('',#643,#531,#532);
#429=AXIS2_PLACEMENT_3D('',#644,#533,#534);
#430=AXIS2_PLACEMENT_3D('',#645,#535,#536);
#431=AXIS2_PLACEMENT_3D('',#646,#537,#538);
#432=AXIS2_PLACEMENT_3D('',#647,#539,#540);
#433=AXIS2_PLACEMENT_3D('',#648,#541,#542);
#434=AXIS2_PLACEMENT_3D('',#650,#543,#544);
#435=AXIS2_PLACEMENT_3D('',#652,#545,#546);
#436=AXIS2_PLACEMENT_3D('',#653,#547,#548);
#437=AXIS2_PLACEMENT_3D('',#654,#549,#550);
#438=AXIS2_PLACEMENT_3D('',#655,#551,#552);
#439=AXIS2_PLACEMENT_3D('',#656,#553,#554);
#440=AXIS2_PLACEMENT_3D('',#661,#557,#558);
#441=AXIS2_PLACEMENT_3D('',#662,#559,#560);
#442=AXIS2_PLACEMENT_3D('',#663,#561,#562);
#443=AXIS2_PLACEMENT_3D('',#666,#564,#565);
#444=AXIS2_PLACEMENT_3D('',#669,#567,#568);
#445=AXIS2_PLACEMENT_3D('',#670,#569,#570);
#446=AXIS2_PLACEMENT_3D('',#671,#571,#572);
#447=AXIS2_PLACEMENT_3D('',#672,#573,#574);
#448=AXIS2_PLACEMENT_3D('',#677,#577,#578);
#449=AXIS2_PLACEMENT_3D('',#678,#579,#580);
#450=AXIS2_PLACEMENT_3D('',#679,#581,#582);
#451=AXIS2_PLACEMENT_3D('',#680,#583,#584);
#452=DIRECTION('',(0.,0.,1.));
#453=DIRECTION('',(1.,0.,0.));
#454=DIRECTION('',(0.,0.,1.));
#455=DIRECTION('',(1.,0.,0.));
#456=DIRECTION('',(0.,0.,-1.));
#457=DIRECTION('',(0.,1.,0.));
#458=DIRECTION('',(0.,0.,-1.));
#459=DIRECTION('',(0.,0.,1.));
#460=DIRECTION('',(1.,0.,0.));
#461=DIRECTION('',(0.,0.,1.));
#462=DIRECTION('',(1.,0.,0.));
#463=DIRECTION('',(0.,0.,1.));
#464=DIRECTION('',(1.,0.,0.));
#465=DIRECTION('',(0.,0.,1.));
#466=DIRECTION('',(1.,0.,0.));
#467=DIRECTION('',(0.,0.,1.));
#468=DIRECTION('',(1.,0.,0.));
#469=DIRECTION('',(0.,0.,1.));
#470=DIRECTION('',(1.,0.,0.));
#471=DIRECTION('',(0.,0.,1.));
#472=DIRECTION('',(1.,0.,0.));
#473=DIRECTION('',(0.,0.,1.));
#474=DIRECTION('',(1.,0.,0.));
#475=DIRECTION('',(0.,0.,1.));
#476=DIRECTION('',(1.,0.,0.));
#477=DIRECTION('',(0.,0.,1.));
#478=DIRECTION('',(1.,0.,0.));
#479=DIRECTION('',(0.,0.,-1.));
#480=DIRECTION('',(0.,0.,1.));
#481=DIRECTION('',(0.,-1.,0.));
#482=DIRECTION('',(0.,0.,-1.));
#483=DIRECTION('',(0.,0.,-1.));
#484=DIRECTION('',(0.,1.,0.));
#485=DIRECTION('',(0.,0.,-1.));
#486=DIRECTION('',(0.,1.,0.));
#487=DIRECTION('',(0.,0.,-1.));
#488=DIRECTION('',(0.,-1.,0.));
#489=DIRECTION('',(0.,0.,-1.));
#490=DIRECTION('',(1.,0.,0.));
#491=DIRECTION('',(0.,0.,1.));
#492=DIRECTION('',(0.,1.,0.));
#493=DIRECTION('',(0.,0.,-1.));
#494=DIRECTION('',(0.,1.,0.));
#495=DIRECTION('',(-1.,0.,0.));
#496=DIRECTION('',(0.,-1.,0.));
#497=DIRECTION('',(1.,0.,0.));
#498=DIRECTION('',(0.,1.,0.));
#499=DIRECTION('',(0.,6.12323399573677E-17,-1.));
#500=DIRECTION('',(0.,1.,0.));
#501=DIRECTION('',(0.,6.12323399573677E-17,-1.));
#502=DIRECTION('',(0.,1.,0.));
#503=DIRECTION('',(0.,0.707106781186598,-0.707106781186498));
#504=DIRECTION('',(0.,0.,1.));
#505=DIRECTION('',(0.,-1.,0.));
#506=DIRECTION('',(0.,-0.707106781186598,-0.707106781186498));
#507=DIRECTION('',(0.,0.,1.));
#508=DIRECTION('',(0.,-1.,0.));
#509=DIRECTION('',(0.,0.,-1.));
#510=DIRECTION('',(0.,1.,3.05670887450705E-17));
#511=DIRECTION('',(0.,0.,1.));
#512=DIRECTION('',(0.,1.,0.));
#513=DIRECTION('',(0.,0.,1.));
#514=DIRECTION('',(-1.,0.,0.));
#515=DIRECTION('',(0.,0.,1.));
#516=DIRECTION('',(0.,1.,0.));
#517=DIRECTION('',(0.,0.,-1.));
#518=DIRECTION('',(0.,1.,3.05670887450705E-17));
#519=DIRECTION('',(0.,0.,1.));
#520=DIRECTION('',(0.,0.,-1.));
#521=DIRECTION('',(0.,-1.,0.));
#522=DIRECTION('',(0.,0.,1.));
#523=DIRECTION('',(0.,0.,-1.));
#524=DIRECTION('',(0.,1.,0.));
#525=DIRECTION('',(0.,0.,-1.));
#526=DIRECTION('',(0.,1.,0.));
#527=DIRECTION('',(0.,0.,-1.));
#528=DIRECTION('',(0.,1.,0.));
#529=DIRECTION('',(0.,0.,1.));
#530=DIRECTION('',(0.,-1.,0.));
#531=DIRECTION('',(-1.,0.,0.));
#532=DIRECTION('',(0.,0.992499999999997,0.122244631784));
#533=DIRECTION('',(1.,0.,0.));
#534=DIRECTION('',(0.,-0.992499999999997,0.122244631784));
#535=DIRECTION('',(0.,0.,-1.));
#536=DIRECTION('',(0.,1.,0.));
#537=DIRECTION('',(0.,0.,-1.));
#538=DIRECTION('',(0.,-1.,0.));
#539=DIRECTION('',(0.,0.,-1.));
#540=DIRECTION('',(0.,1.,0.));
#541=DIRECTION('',(1.,0.,0.));
#542=DIRECTION('',(0.,0.978147600733756,0.20791169081799));
#543=DIRECTION('',(0.,0.,1.));
#544=DIRECTION('',(0.,1.,0.));
#545=DIRECTION('',(-1.,0.,0.));
#546=DIRECTION('',(0.,-0.978147600733756,0.20791169081799));
#547=DIRECTION('',(0.,0.,-1.));
#548=DIRECTION('',(0.,1.,0.));
#549=DIRECTION('',(0.,0.,1.));
#550=DIRECTION('',(0.,-1.,0.));
#551=DIRECTION('',(0.,0.,-1.));
#552=DIRECTION('',(0.,1.,0.));
#553=DIRECTION('',(0.,0.,1.));
#554=DIRECTION('',(0.,-1.,0.));
#555=DIRECTION('',(0.,0.207911690817799,-0.978147600733797));
#556=DIRECTION('',(0.,-0.207911690817799,-0.978147600733797));
#557=DIRECTION('',(0.,0.,1.));
#558=DIRECTION('',(0.,-1.,3.57179655378115E-16));
#559=DIRECTION('',(0.,0.,1.));
#560=DIRECTION('',(0.,1.,0.));
#561=DIRECTION('',(0.,0.,1.));
#562=DIRECTION('',(0.,-1.,3.57179655378115E-16));
#563=DIRECTION('',(0.,-1.124325014073E-14,1.));
#564=DIRECTION('',(0.,0.,-1.));
#565=DIRECTION('',(0.,-1.,0.));
#566=DIRECTION('',(0.,1.124325014073E-14,1.));
#567=DIRECTION('',(0.,0.,-1.));
#568=DIRECTION('',(0.,1.,0.));
#569=DIRECTION('',(0.,0.,-1.));
#570=DIRECTION('',(0.,1.,0.));
#571=DIRECTION('',(0.,0.,-1.));
#572=DIRECTION('',(0.,1.,0.));
#573=DIRECTION('',(0.,0.,-1.));
#574=DIRECTION('',(0.,1.,0.));
#575=DIRECTION('',(0.,-0.707106781186547,-0.707106781186547));
#576=DIRECTION('',(0.,0.707106781186547,-0.707106781186547));
#577=DIRECTION('',(0.,0.,-1.));
#578=DIRECTION('',(0.,1.,-4.15606323168888E-17));
#579=DIRECTION('',(0.,0.,-1.));
#580=DIRECTION('',(0.,-1.,0.));
#581=DIRECTION('',(0.,0.,-1.));
#582=DIRECTION('',(0.,1.,-4.15606323168888E-17));
#583=DIRECTION('',(0.,0.,-1.));
#584=DIRECTION('',(0.,1.,0.));
#585=CARTESIAN_POINT('',(0.,0.,0.));
#586=CARTESIAN_POINT('CRP',(-0.25,0.,0.));
#587=CARTESIAN_POINT('',(-0.25,0.,0.25));
#588=CARTESIAN_POINT('',(-0.25,0.,0.37));
#589=CARTESIAN_POINT('',(0.,0.,0.37));
#590=CARTESIAN_POINT('',(0.,0.,0.25));
#591=CARTESIAN_POINT('',(0.,0.,0.));
#592=CARTESIAN_POINT('',(0.,0.,0.));
#593=CARTESIAN_POINT('',(0.,0.,0.));
#594=CARTESIAN_POINT('',(0.,0.,50.));
#595=CARTESIAN_POINT('',(0.,0.,32.));
#596=CARTESIAN_POINT('',(0.,0.,0.));
#597=CARTESIAN_POINT('',(0.,0.,0.));
#598=CARTESIAN_POINT('',(0.,0.,0.));
#599=CARTESIAN_POINT('',(0.,0.,0.));
#600=CARTESIAN_POINT('',(0.,0.,0.));
#601=CARTESIAN_POINT('',(0.,-0.25,0.37));
#602=CARTESIAN_POINT('',(0.,-0.25,0.3699999999999));
#603=CARTESIAN_POINT('',(0.,-0.25,0.25));
#604=CARTESIAN_POINT('',(0.,0.,0.25));
#605=CARTESIAN_POINT('',(0.,0.25,0.25));
#606=CARTESIAN_POINT('',(0.,0.25,0.37));
#607=CARTESIAN_POINT('',(0.,0.25,0.3699999999999));
#608=CARTESIAN_POINT('',(0.,0.,0.3699999999999));
#609=CARTESIAN_POINT('',(0.,0.,52.5));
#610=CARTESIAN_POINT('',(0.,0.,0.3699999999999));
#611=CARTESIAN_POINT('',(150.,150.,0.37));
#612=CARTESIAN_POINT('',(0.,0.,0.25));
#613=CARTESIAN_POINT('',(0.,0.,52.5));
#614=CARTESIAN_POINT('',(0.,0.,0.25));
#615=CARTESIAN_POINT('',(0.,0.,0.));
#616=CARTESIAN_POINT('',(0.,0.,0.25));
#617=CARTESIAN_POINT('',(0.,0.,0.25));
#618=CARTESIAN_POINT('',(0.,0.,0.25));
#619=CARTESIAN_POINT('',(0.,0.235,0.385));
#620=CARTESIAN_POINT('',(0.,0.235,0.385));
#621=CARTESIAN_POINT('',(0.,0.25,0.37));
#622=CARTESIAN_POINT('',(0.,0.,0.385));
#623=CARTESIAN_POINT('',(0.,-0.235,0.385));
#624=CARTESIAN_POINT('',(0.,-0.235,0.385));
#625=CARTESIAN_POINT('',(0.,-0.25,0.37));
#626=CARTESIAN_POINT('',(0.,0.,0.37));
#627=CARTESIAN_POINT('',(0.,0.,0.3775));
#628=CARTESIAN_POINT('',(0.,0.,0.37));
#629=CARTESIAN_POINT('',(-150.,150.,0.37));
#630=CARTESIAN_POINT('',(0.,0.,0.385));
#631=CARTESIAN_POINT('',(0.,0.,0.3775));
#632=CARTESIAN_POINT('',(0.,-0.235,8.755510736432));
#633=CARTESIAN_POINT('',(0.,-0.235,8.755510736432));
#634=CARTESIAN_POINT('',(0.,0.,8.755510736432));
#635=CARTESIAN_POINT('',(0.,0.235,8.755510736432));
#636=CARTESIAN_POINT('',(0.,0.235,8.755510736432));
#637=CARTESIAN_POINT('',(0.,0.,52.5));
#638=CARTESIAN_POINT('',(0.,0.,8.755510736432));
#639=CARTESIAN_POINT('',(0.,0.,52.5));
#640=CARTESIAN_POINT('',(0.,0.,9.));
#641=CARTESIAN_POINT('',(0.,-0.25,9.));
#642=CARTESIAN_POINT('',(0.,0.25,9.));
#643=CARTESIAN_POINT('',(0.,-2.235,8.755510736432));
#644=CARTESIAN_POINT('',(0.,2.235,8.755510736432));
#645=CARTESIAN_POINT('',(0.,0.,8.755510736432));
#646=CARTESIAN_POINT('',(0.,0.,9.));
#647=CARTESIAN_POINT('',(0.,0.,8.755510736432));
#648=CARTESIAN_POINT('',(0.,-2.235,8.755510736432));
#649=CARTESIAN_POINT('',(0.,-0.2787047985325,9.171334118068));
#650=CARTESIAN_POINT('',(0.,0.,9.171334118068));
#651=CARTESIAN_POINT('',(0.,0.2787047985325,9.171334118068));
#652=CARTESIAN_POINT('',(0.,2.235,8.755510736432));
#653=CARTESIAN_POINT('',(0.,0.,8.755510736432));
#654=CARTESIAN_POINT('',(0.,0.,9.171334118068));
#655=CARTESIAN_POINT('',(0.,0.,8.755510736432));
#656=CARTESIAN_POINT('',(0.,0.,17.26939135019));
#657=CARTESIAN_POINT('',(0.,-2.,17.26939135019));
#658=CARTESIAN_POINT('',(0.,2.,17.26939135019));
#659=CARTESIAN_POINT('',(0.,-2.,17.26939135019));
#660=CARTESIAN_POINT('',(0.,2.,17.26939135019));
#661=CARTESIAN_POINT('',(0.,0.,13.22036273413));
#662=CARTESIAN_POINT('',(0.,0.,17.26939135019));
#663=CARTESIAN_POINT('',(0.,0.,13.22036273413));
#664=CARTESIAN_POINT('',(0.,-2.,49.5));
#665=CARTESIAN_POINT('',(0.,-2.,49.5));
#666=CARTESIAN_POINT('',(0.,0.,49.5));
#667=CARTESIAN_POINT('',(0.,2.,49.5));
#668=CARTESIAN_POINT('',(0.,2.,49.5));
#669=CARTESIAN_POINT('',(0.,0.,52.5));
#670=CARTESIAN_POINT('',(0.,0.,49.5));
#671=CARTESIAN_POINT('',(0.,0.,52.5));
#672=CARTESIAN_POINT('',(0.,0.,50.));
#673=CARTESIAN_POINT('',(0.,1.5,50.));
#674=CARTESIAN_POINT('',(0.,-1.5,50.));
#675=CARTESIAN_POINT('',(0.,-1.5,50.));
#676=CARTESIAN_POINT('',(0.,1.5,50.));
#677=CARTESIAN_POINT('',(0.,0.,49.75));
#678=CARTESIAN_POINT('',(0.,0.,50.));
#679=CARTESIAN_POINT('',(0.,0.,49.75));
#680=CARTESIAN_POINT('',(0.,0.,50.));
#681=MECHANICAL_DESIGN_GEOMETRIC_PRESENTATION_REPRESENTATION('',(#352,#353,
#354,#355,#356,#357,#358,#359,#360,#361,#362,#363,#364,#365,#366,#367,#368),
#682);
#682=(
GEOMETRIC_REPRESENTATION_CONTEXT(3)
GLOBAL_UNCERTAINTY_ASSIGNED_CONTEXT((#683))
GLOBAL_UNIT_ASSIGNED_CONTEXT((#689,#685,#684))
REPRESENTATION_CONTEXT('MP2XLBR0025N090','TOP_LEVEL_ASSEMBLY_PART')
);
#683=UNCERTAINTY_MEASURE_WITH_UNIT(LENGTH_MEASURE(2.E-5),#689,
'DISTANCE_ACCURACY_VALUE','Maximum Tolerance applied to model');
#684=(
NAMED_UNIT(*)
SI_UNIT($,.STERADIAN.)
SOLID_ANGLE_UNIT()
);
#685=(
CONVERSION_BASED_UNIT('DEGREE',#687)
NAMED_UNIT(#686)
PLANE_ANGLE_UNIT()
);
#686=DIMENSIONAL_EXPONENTS(0.,0.,0.,0.,0.,0.,0.);
#687=PLANE_ANGLE_MEASURE_WITH_UNIT(PLANE_ANGLE_MEASURE(0.0174532925),#688);
#688=(
NAMED_UNIT(*)
PLANE_ANGLE_UNIT()
SI_UNIT($,.RADIAN.)
);
#689=(
LENGTH_UNIT()
NAMED_UNIT(*)
SI_UNIT(.MILLI.,.METRE.)
);
ENDSEC;
END-ISO-10303-21;
