ISO-10303-21;
HEADER;
/* Generated by software containing ST-Developer
 * from STEP Tools, Inc. (www.steptools.com) 
 */
/* OPTION: using custom schema-name function */

FILE_DESCRIPTION(
/* description */ (''),
/* implementation_level */ '2;1');

FILE_NAME(
/* name */ 'MVE0600X02S060.stp',
/* time_stamp */ '2023-03-08T09:07:46+09:00',
/* author */ (''),
/* organization */ (''),
/* preprocessor_version */ 'ST-DEVELOPER v16',
/* originating_system */ 'SIEMENS PLM Software NX 10.0',
/* authorisation */ '');

FILE_SCHEMA (('AUTOMOTIVE_DESIGN { 1 0 10303 214 3 1 1 1 }'));
ENDSEC;

DATA;
#10=CONSTRUCTIVE_GEOMETRY_REPRESENTATION_RELATIONSHIP(
'supplemental geometry','',#26,#11);
#11=CONSTRUCTIVE_GEOMETRY_REPRESENTATION('supplemental geometry',(#261,
#262,#263,#264,#265,#266,#267,#268,#269,#270),#425);
#12=GEOMETRICALLY_BOUNDED_WIREFRAME_SHAPE_REPRESENTATION(
'MVE0600X02S060-None',(#27),#425);
#13=SHAPE_REPRESENTATION_RELATIONSHIP('None',
'relationship between MVE0600X02S060-None and MVE0600X02S060-None',#26,
#15);
#14=SHAPE_REPRESENTATION_RELATIONSHIP('None',
'relationship between MVE0600X02S060-None and MVE0600X02S060-None',#26,
#12);
#15=ADVANCED_BREP_SHAPE_REPRESENTATION('MVE0600X02S060-None',(#38,#39),
#425);
#16=SHAPE_DEFINITION_REPRESENTATION(#17,#26);
#17=PRODUCT_DEFINITION_SHAPE('','SHAPE FOR MVE0600X02S060_ASM.',#18);
#18=PRODUCT_DEFINITION('part definition','',#20,#19);
#19=PRODUCT_DEFINITION_CONTEXT('part definition',#25,'design');
#20=PRODUCT_DEFINITION_FORMATION_WITH_SPECIFIED_SOURCE(' ',' ',#22,
 .NOT_KNOWN.);
#21=PRODUCT_RELATED_PRODUCT_CATEGORY('part','',(#22));
#22=PRODUCT('MVE0600X02S060_ASM','MVE0600X02S060_ASM','NOT SPECIFIED',(#23));
#23=PRODUCT_CONTEXT('',#25,'mechanical');
#24=APPLICATION_PROTOCOL_DEFINITION('international standard',
'automotive_design',2010,#25);
#25=APPLICATION_CONTEXT(
'core data for automotive mechanical design processes');
#26=SHAPE_REPRESENTATION('MVE0600X02S060-None',(#260),#425);
#27=GEOMETRIC_CURVE_SET('None',(#369,#193,#194,#195,#196));
#28=SURFACE_STYLE_USAGE(.BOTH.,#30);
#29=SURFACE_STYLE_USAGE(.BOTH.,#31);
#30=SURFACE_SIDE_STYLE('',(#32));
#31=SURFACE_SIDE_STYLE('',(#33));
#32=SURFACE_STYLE_FILL_AREA(#34);
#33=SURFACE_STYLE_FILL_AREA(#35);
#34=FILL_AREA_STYLE('',(#36));
#35=FILL_AREA_STYLE('',(#37));
#36=FILL_AREA_STYLE_COLOUR('',#163);
#37=FILL_AREA_STYLE_COLOUR('',#164);
#38=MANIFOLD_SOLID_BREP('CUT',#40);
#39=MANIFOLD_SOLID_BREP('NOCUT',#41);
#40=CLOSED_SHELL('',(#49,#50,#51,#52,#53));
#41=CLOSED_SHELL('',(#54,#55,#56,#57,#58,#59));
#42=CONICAL_SURFACE('',#278,1.53,70.);
#43=CONICAL_SURFACE('',#279,1.53,70.);
#44=CONICAL_SURFACE('',#288,2.7,45.);
#45=CONICAL_SURFACE('',#290,2.7,45.);
#46=PLANE('',#275);
#47=PLANE('',#284);
#48=PLANE('',#291);
#49=ADVANCED_FACE('',(#64),#60,.T.);
#50=ADVANCED_FACE('',(#65),#46,.F.);
#51=ADVANCED_FACE('',(#66),#61,.T.);
#52=ADVANCED_FACE('',(#67),#42,.T.);
#53=ADVANCED_FACE('',(#68),#43,.T.);
#54=ADVANCED_FACE('',(#69),#62,.T.);
#55=ADVANCED_FACE('',(#70),#47,.F.);
#56=ADVANCED_FACE('',(#71),#63,.T.);
#57=ADVANCED_FACE('',(#72),#44,.T.);
#58=ADVANCED_FACE('',(#73),#45,.T.);
#59=ADVANCED_FACE('',(#74),#48,.F.);
#60=CYLINDRICAL_SURFACE('',#273,3.);
#61=CYLINDRICAL_SURFACE('',#277,3.);
#62=CYLINDRICAL_SURFACE('',#282,3.);
#63=CYLINDRICAL_SURFACE('',#286,3.);
#64=FACE_OUTER_BOUND('',#75,.T.);
#65=FACE_OUTER_BOUND('',#76,.T.);
#66=FACE_OUTER_BOUND('',#77,.T.);
#67=FACE_OUTER_BOUND('',#78,.T.);
#68=FACE_OUTER_BOUND('',#79,.T.);
#69=FACE_OUTER_BOUND('',#80,.T.);
#70=FACE_OUTER_BOUND('',#81,.T.);
#71=FACE_OUTER_BOUND('',#82,.T.);
#72=FACE_OUTER_BOUND('',#83,.T.);
#73=FACE_OUTER_BOUND('',#84,.T.);
#74=FACE_OUTER_BOUND('',#85,.T.);
#75=EDGE_LOOP('',(#96,#97,#98,#99));
#76=EDGE_LOOP('',(#100,#101));
#77=EDGE_LOOP('',(#102,#103,#104,#105));
#78=EDGE_LOOP('',(#106,#107,#108));
#79=EDGE_LOOP('',(#109,#110,#111));
#80=EDGE_LOOP('',(#112,#113,#114,#115));
#81=EDGE_LOOP('',(#116,#117));
#82=EDGE_LOOP('',(#118,#119,#120,#121));
#83=EDGE_LOOP('',(#122,#123,#124,#125));
#84=EDGE_LOOP('',(#126,#127,#128,#129));
#85=EDGE_LOOP('',(#130,#131));
#86=CIRCLE('',#271,3.);
#87=CIRCLE('',#272,3.);
#88=CIRCLE('',#274,3.);
#89=CIRCLE('',#276,3.);
#90=CIRCLE('',#280,3.);
#91=CIRCLE('',#281,3.);
#92=CIRCLE('',#283,3.);
#93=CIRCLE('',#285,3.);
#94=CIRCLE('',#287,2.4);
#95=CIRCLE('',#289,2.4);
#96=ORIENTED_EDGE('',*,*,#143,.T.);
#97=ORIENTED_EDGE('',*,*,#144,.T.);
#98=ORIENTED_EDGE('',*,*,#145,.F.);
#99=ORIENTED_EDGE('',*,*,#146,.T.);
#100=ORIENTED_EDGE('',*,*,#147,.F.);
#101=ORIENTED_EDGE('',*,*,#146,.F.);
#102=ORIENTED_EDGE('',*,*,#145,.T.);
#103=ORIENTED_EDGE('',*,*,#148,.T.);
#104=ORIENTED_EDGE('',*,*,#143,.F.);
#105=ORIENTED_EDGE('',*,*,#147,.T.);
#106=ORIENTED_EDGE('',*,*,#149,.T.);
#107=ORIENTED_EDGE('',*,*,#148,.F.);
#108=ORIENTED_EDGE('',*,*,#150,.F.);
#109=ORIENTED_EDGE('',*,*,#144,.F.);
#110=ORIENTED_EDGE('',*,*,#149,.F.);
#111=ORIENTED_EDGE('',*,*,#150,.T.);
#112=ORIENTED_EDGE('',*,*,#151,.F.);
#113=ORIENTED_EDGE('',*,*,#152,.T.);
#114=ORIENTED_EDGE('',*,*,#153,.T.);
#115=ORIENTED_EDGE('',*,*,#154,.T.);
#116=ORIENTED_EDGE('',*,*,#155,.F.);
#117=ORIENTED_EDGE('',*,*,#154,.F.);
#118=ORIENTED_EDGE('',*,*,#153,.F.);
#119=ORIENTED_EDGE('',*,*,#156,.T.);
#120=ORIENTED_EDGE('',*,*,#151,.T.);
#121=ORIENTED_EDGE('',*,*,#155,.T.);
#122=ORIENTED_EDGE('',*,*,#156,.F.);
#123=ORIENTED_EDGE('',*,*,#157,.T.);
#124=ORIENTED_EDGE('',*,*,#158,.T.);
#125=ORIENTED_EDGE('',*,*,#159,.F.);
#126=ORIENTED_EDGE('',*,*,#160,.T.);
#127=ORIENTED_EDGE('',*,*,#157,.F.);
#128=ORIENTED_EDGE('',*,*,#152,.F.);
#129=ORIENTED_EDGE('',*,*,#159,.T.);
#130=ORIENTED_EDGE('',*,*,#160,.F.);
#131=ORIENTED_EDGE('',*,*,#158,.F.);
#132=VERTEX_POINT('',#385);
#133=VERTEX_POINT('',#386);
#134=VERTEX_POINT('',#388);
#135=VERTEX_POINT('',#390);
#136=VERTEX_POINT('',#398);
#137=VERTEX_POINT('',#403);
#138=VERTEX_POINT('',#404);
#139=VERTEX_POINT('',#406);
#140=VERTEX_POINT('',#408);
#141=VERTEX_POINT('',#416);
#142=VERTEX_POINT('',#418);
#143=EDGE_CURVE('',#132,#133,#201,.T.);
#144=EDGE_CURVE('',#133,#134,#86,.T.);
#145=EDGE_CURVE('',#135,#134,#202,.T.);
#146=EDGE_CURVE('',#135,#132,#87,.T.);
#147=EDGE_CURVE('',#132,#135,#88,.T.);
#148=EDGE_CURVE('',#134,#133,#89,.T.);
#149=EDGE_CURVE('',#136,#133,#203,.T.);
#150=EDGE_CURVE('',#136,#134,#204,.T.);
#151=EDGE_CURVE('',#137,#138,#205,.T.);
#152=EDGE_CURVE('',#137,#139,#90,.T.);
#153=EDGE_CURVE('',#139,#140,#206,.T.);
#154=EDGE_CURVE('',#140,#138,#91,.T.);
#155=EDGE_CURVE('',#138,#140,#92,.T.);
#156=EDGE_CURVE('',#139,#137,#93,.T.);
#157=EDGE_CURVE('',#139,#141,#207,.T.);
#158=EDGE_CURVE('',#141,#142,#94,.T.);
#159=EDGE_CURVE('',#137,#142,#208,.T.);
#160=EDGE_CURVE('',#142,#141,#95,.T.);
#161=COLOUR_RGB('Strong Stone',0.576470588235294,0.54508278019379,0.392156862745098);
#162=COLOUR_RGB('Medium Umber',0.372533760585946,0.313725490196078,0.270572976272221);
#163=COLOUR_RGB('Light Gray',0.8,0.8,0.8);
#164=COLOUR_RGB('non-cutting part and shank',0.501960784313725,0.501960784313725,
0.501960784313725);
#165=CURVE_STYLE('',#179,POSITIVE_LENGTH_MEASURE(0.18),#259);
#166=CURVE_STYLE('',#180,POSITIVE_LENGTH_MEASURE(0.18),#259);
#167=CURVE_STYLE('',#181,POSITIVE_LENGTH_MEASURE(0.18),#259);
#168=CURVE_STYLE('',#182,POSITIVE_LENGTH_MEASURE(0.18),#259);
#169=CURVE_STYLE('',#183,POSITIVE_LENGTH_MEASURE(0.13),#161);
#170=CURVE_STYLE('',#184,POSITIVE_LENGTH_MEASURE(0.13),#161);
#171=CURVE_STYLE('',#185,POSITIVE_LENGTH_MEASURE(0.13),#162);
#172=CURVE_STYLE('',#186,POSITIVE_LENGTH_MEASURE(0.13),#162);
#173=CURVE_STYLE('',#187,POSITIVE_LENGTH_MEASURE(0.13),#161);
#174=CURVE_STYLE('',#188,POSITIVE_LENGTH_MEASURE(0.13),#161);
#175=CURVE_STYLE('',#189,POSITIVE_LENGTH_MEASURE(0.13),#162);
#176=CURVE_STYLE('',#190,POSITIVE_LENGTH_MEASURE(0.13),#161);
#177=CURVE_STYLE('',#191,POSITIVE_LENGTH_MEASURE(0.13),#161);
#178=CURVE_STYLE('',#192,POSITIVE_LENGTH_MEASURE(0.13),#161);
#179=DRAUGHTING_PRE_DEFINED_CURVE_FONT('continuous');
#180=DRAUGHTING_PRE_DEFINED_CURVE_FONT('continuous');
#181=DRAUGHTING_PRE_DEFINED_CURVE_FONT('continuous');
#182=DRAUGHTING_PRE_DEFINED_CURVE_FONT('continuous');
#183=DRAUGHTING_PRE_DEFINED_CURVE_FONT('continuous');
#184=DRAUGHTING_PRE_DEFINED_CURVE_FONT('continuous');
#185=DRAUGHTING_PRE_DEFINED_CURVE_FONT('continuous');
#186=DRAUGHTING_PRE_DEFINED_CURVE_FONT('continuous');
#187=DRAUGHTING_PRE_DEFINED_CURVE_FONT('continuous');
#188=DRAUGHTING_PRE_DEFINED_CURVE_FONT('continuous');
#189=DRAUGHTING_PRE_DEFINED_CURVE_FONT('continuous');
#190=DRAUGHTING_PRE_DEFINED_CURVE_FONT('continuous');
#191=DRAUGHTING_PRE_DEFINED_CURVE_FONT('continuous');
#192=DRAUGHTING_PRE_DEFINED_CURVE_FONT('continuous');
#193=TRIMMED_CURVE('',#197,(PARAMETER_VALUE(0.)),(PARAMETER_VALUE(1.)),
 .T.,.PARAMETER.);
#194=TRIMMED_CURVE('',#198,(PARAMETER_VALUE(0.)),(PARAMETER_VALUE(1.)),
 .T.,.PARAMETER.);
#195=TRIMMED_CURVE('',#199,(PARAMETER_VALUE(0.)),(PARAMETER_VALUE(1.)),
 .T.,.PARAMETER.);
#196=TRIMMED_CURVE('',#200,(PARAMETER_VALUE(0.)),(PARAMETER_VALUE(1.)),
 .T.,.PARAMETER.);
#197=LINE('',#370,#209);
#198=LINE('',#371,#210);
#199=LINE('',#372,#211);
#200=LINE('',#373,#212);
#201=LINE('',#384,#213);
#202=LINE('',#389,#214);
#203=LINE('',#397,#215);
#204=LINE('',#399,#216);
#205=LINE('',#402,#217);
#206=LINE('',#407,#218);
#207=LINE('',#415,#219);
#208=LINE('',#419,#220);
#209=VECTOR('',#294,3.19253331742801);
#210=VECTOR('',#295,12.);
#211=VECTOR('',#296,3.);
#212=VECTOR('',#297,13.0919107028);
#213=VECTOR('',#318,1.);
#214=VECTOR('',#321,1.);
#215=VECTOR('',#334,1.);
#216=VECTOR('',#335,1.);
#217=VECTOR('',#340,1.);
#218=VECTOR('',#343,1.);
#219=VECTOR('',#356,1.);
#220=VECTOR('',#359,1.);
#221=PRESENTATION_LAYER_ASSIGNMENT('1','Layer 1',(#369,#193,#194,#195,#196,
#261,#262,#265,#266,#267,#268,#269,#270,#38,#39));
#222=PRESENTATION_LAYER_ASSIGNMENT('2','Layer 2',(#263,#264));
#223=STYLED_ITEM('',(#240),#369);
#224=STYLED_ITEM('',(#241),#193);
#225=STYLED_ITEM('',(#242),#194);
#226=STYLED_ITEM('',(#243),#195);
#227=STYLED_ITEM('',(#244),#196);
#228=STYLED_ITEM('',(#245),#261);
#229=STYLED_ITEM('',(#246),#262);
#230=STYLED_ITEM('',(#247),#263);
#231=STYLED_ITEM('',(#248),#264);
#232=STYLED_ITEM('',(#249),#265);
#233=STYLED_ITEM('',(#250),#266);
#234=STYLED_ITEM('',(#251),#267);
#235=STYLED_ITEM('',(#252),#268);
#236=STYLED_ITEM('',(#253),#269);
#237=STYLED_ITEM('',(#254),#270);
#238=STYLED_ITEM('',(#255),#38);
#239=STYLED_ITEM('',(#256),#39);
#240=PRESENTATION_STYLE_ASSIGNMENT((#257));
#241=PRESENTATION_STYLE_ASSIGNMENT((#165));
#242=PRESENTATION_STYLE_ASSIGNMENT((#166));
#243=PRESENTATION_STYLE_ASSIGNMENT((#167));
#244=PRESENTATION_STYLE_ASSIGNMENT((#168));
#245=PRESENTATION_STYLE_ASSIGNMENT((#169));
#246=PRESENTATION_STYLE_ASSIGNMENT((#170));
#247=PRESENTATION_STYLE_ASSIGNMENT((#171));
#248=PRESENTATION_STYLE_ASSIGNMENT((#172));
#249=PRESENTATION_STYLE_ASSIGNMENT((#173));
#250=PRESENTATION_STYLE_ASSIGNMENT((#174));
#251=PRESENTATION_STYLE_ASSIGNMENT((#175));
#252=PRESENTATION_STYLE_ASSIGNMENT((#176));
#253=PRESENTATION_STYLE_ASSIGNMENT((#177));
#254=PRESENTATION_STYLE_ASSIGNMENT((#178));
#255=PRESENTATION_STYLE_ASSIGNMENT((#28));
#256=PRESENTATION_STYLE_ASSIGNMENT((#29));
#257=POINT_STYLE('',#258,POSITIVE_LENGTH_MEASURE(3.),#259);
#258=PRE_DEFINED_POINT_MARKER_SYMBOL('plus');
#259=DRAUGHTING_PRE_DEFINED_COLOUR('blue');
#260=AXIS2_PLACEMENT_3D('',#368,#292,#293);
#261=AXIS2_PLACEMENT_3D('',#374,#298,#299);
#262=AXIS2_PLACEMENT_3D('',#375,#300,#301);
#263=AXIS2_PLACEMENT_3D('CIP',#376,#302,#303);
#264=AXIS2_PLACEMENT_3D('PCS',#377,#304,#305);
#265=AXIS2_PLACEMENT_3D('MCS',#378,#306,#307);
#266=AXIS2_PLACEMENT_3D('',#379,#308,#309);
#267=AXIS2_PLACEMENT_3D('STEP_TEMP_3_1',#380,#310,#311);
#268=AXIS2_PLACEMENT_3D('',#381,#312,#313);
#269=AXIS2_PLACEMENT_3D('',#382,#314,#315);
#270=AXIS2_PLACEMENT_3D('',#383,#316,#317);
#271=AXIS2_PLACEMENT_3D('',#387,#319,#320);
#272=AXIS2_PLACEMENT_3D('',#391,#322,#323);
#273=AXIS2_PLACEMENT_3D('',#392,#324,#325);
#274=AXIS2_PLACEMENT_3D('',#393,#326,#327);
#275=AXIS2_PLACEMENT_3D('',#394,#328,#329);
#276=AXIS2_PLACEMENT_3D('',#395,#330,#331);
#277=AXIS2_PLACEMENT_3D('',#396,#332,#333);
#278=AXIS2_PLACEMENT_3D('',#400,#336,#337);
#279=AXIS2_PLACEMENT_3D('',#401,#338,#339);
#280=AXIS2_PLACEMENT_3D('',#405,#341,#342);
#281=AXIS2_PLACEMENT_3D('',#409,#344,#345);
#282=AXIS2_PLACEMENT_3D('',#410,#346,#347);
#283=AXIS2_PLACEMENT_3D('',#411,#348,#349);
#284=AXIS2_PLACEMENT_3D('',#412,#350,#351);
#285=AXIS2_PLACEMENT_3D('',#413,#352,#353);
#286=AXIS2_PLACEMENT_3D('',#414,#354,#355);
#287=AXIS2_PLACEMENT_3D('',#417,#357,#358);
#288=AXIS2_PLACEMENT_3D('',#420,#360,#361);
#289=AXIS2_PLACEMENT_3D('',#421,#362,#363);
#290=AXIS2_PLACEMENT_3D('',#422,#364,#365);
#291=AXIS2_PLACEMENT_3D('',#423,#366,#367);
#292=DIRECTION('',(0.,0.,1.));
#293=DIRECTION('',(1.,0.,0.));
#294=DIRECTION('',(-0.939692620785897,0.,0.342020143325699));
#295=DIRECTION('',(0.,0.,1.));
#296=DIRECTION('',(1.,0.,0.));
#297=DIRECTION('',(0.,0.,-1.));
#298=DIRECTION('',(0.,0.,1.));
#299=DIRECTION('',(1.,0.,0.));
#300=DIRECTION('',(0.,0.,1.));
#301=DIRECTION('',(1.,0.,0.));
#302=DIRECTION('',(0.,0.,1.));
#303=DIRECTION('',(1.,0.,0.));
#304=DIRECTION('',(0.,0.,1.));
#305=DIRECTION('',(1.,0.,0.));
#306=DIRECTION('',(0.,0.,1.));
#307=DIRECTION('',(1.,0.,0.));
#308=DIRECTION('',(0.,0.,1.));
#309=DIRECTION('',(1.,0.,0.));
#310=DIRECTION('',(0.,0.,1.));
#311=DIRECTION('',(1.,0.,0.));
#312=DIRECTION('',(0.,0.,1.));
#313=DIRECTION('',(1.,0.,0.));
#314=DIRECTION('',(0.,0.,1.));
#315=DIRECTION('',(1.,0.,0.));
#316=DIRECTION('',(0.,0.,1.));
#317=DIRECTION('',(1.,0.,0.));
#318=DIRECTION('',(0.,0.,-1.));
#319=DIRECTION('',(0.,0.,1.));
#320=DIRECTION('',(0.,-1.,0.));
#321=DIRECTION('',(0.,0.,-1.));
#322=DIRECTION('',(0.,0.,-1.));
#323=DIRECTION('',(0.,1.,0.));
#324=DIRECTION('',(0.,0.,-1.));
#325=DIRECTION('',(0.,1.,0.));
#326=DIRECTION('',(0.,0.,-1.));
#327=DIRECTION('',(0.,-1.,0.));
#328=DIRECTION('',(0.,0.,-1.));
#329=DIRECTION('',(1.,0.,0.));
#330=DIRECTION('',(0.,0.,1.));
#331=DIRECTION('',(0.,1.,0.));
#332=DIRECTION('',(0.,0.,-1.));
#333=DIRECTION('',(0.,1.,0.));
#334=DIRECTION('',(0.,-0.939692620785897,0.342020143325699));
#335=DIRECTION('',(0.,0.939692620785897,0.342020143325699));
#336=DIRECTION('',(0.,0.,1.));
#337=DIRECTION('',(0.,-1.,-2.70556814456547E-17));
#338=DIRECTION('',(0.,0.,1.));
#339=DIRECTION('',(0.,-1.,-2.70556814456547E-17));
#340=DIRECTION('',(0.,0.,-1.));
#341=DIRECTION('',(0.,0.,-1.));
#342=DIRECTION('',(0.,1.,0.));
#343=DIRECTION('',(0.,0.,-1.));
#344=DIRECTION('',(0.,0.,1.));
#345=DIRECTION('',(0.,-1.,0.));
#346=DIRECTION('',(0.,0.,-1.));
#347=DIRECTION('',(0.,1.,0.));
#348=DIRECTION('',(0.,0.,1.));
#349=DIRECTION('',(0.,1.,0.));
#350=DIRECTION('',(0.,0.,1.));
#351=DIRECTION('',(-1.,0.,0.));
#352=DIRECTION('',(0.,0.,-1.));
#353=DIRECTION('',(0.,-1.,0.));
#354=DIRECTION('',(0.,0.,-1.));
#355=DIRECTION('',(0.,1.,0.));
#356=DIRECTION('',(0.,0.707106781186498,0.707106781186598));
#357=DIRECTION('',(0.,0.,-1.));
#358=DIRECTION('',(0.,-1.,0.));
#359=DIRECTION('',(0.,-0.707106781186498,0.707106781186598));
#360=DIRECTION('',(0.,0.,-1.));
#361=DIRECTION('',(0.,1.,0.));
#362=DIRECTION('',(0.,0.,-1.));
#363=DIRECTION('',(0.,1.,0.));
#364=DIRECTION('',(0.,0.,-1.));
#365=DIRECTION('',(0.,1.,0.));
#366=DIRECTION('',(0.,0.,-1.));
#367=DIRECTION('',(0.,1.,0.));
#368=CARTESIAN_POINT('',(0.,0.,0.));
#369=CARTESIAN_POINT('CRP',(-3.,0.,1.091910702799));
#370=CARTESIAN_POINT('',(0.,0.,0.));
#371=CARTESIAN_POINT('',(-3.,0.,1.091910702799));
#372=CARTESIAN_POINT('',(-3.,0.,13.0919107028));
#373=CARTESIAN_POINT('',(0.,0.,13.0919107028));
#374=CARTESIAN_POINT('',(0.,0.,0.));
#375=CARTESIAN_POINT('',(0.,0.,0.));
#376=CARTESIAN_POINT('',(0.,0.,0.));
#377=CARTESIAN_POINT('',(0.,0.,67.0919107028));
#378=CARTESIAN_POINT('',(0.,0.,31.0919107));
#379=CARTESIAN_POINT('',(0.,0.,0.));
#380=CARTESIAN_POINT('',(0.,0.,0.));
#381=CARTESIAN_POINT('',(0.,0.,0.));
#382=CARTESIAN_POINT('',(0.,0.,0.));
#383=CARTESIAN_POINT('',(0.,0.,0.));
#384=CARTESIAN_POINT('',(0.,-3.,13.0919107));
#385=CARTESIAN_POINT('',(0.,-3.,13.0919107));
#386=CARTESIAN_POINT('',(0.,-3.,1.091910702799));
#387=CARTESIAN_POINT('',(0.,-1.221798684837E-14,1.091910702799));
#388=CARTESIAN_POINT('',(0.,3.,1.091910702799));
#389=CARTESIAN_POINT('',(0.,3.,13.0919107));
#390=CARTESIAN_POINT('',(0.,3.,13.0919107));
#391=CARTESIAN_POINT('',(0.,0.,13.0919107));
#392=CARTESIAN_POINT('',(0.,0.,70.44650623794));
#393=CARTESIAN_POINT('',(0.,0.,13.0919107));
#394=CARTESIAN_POINT('',(150.,150.,13.0919107));
#395=CARTESIAN_POINT('',(0.,-1.221798684837E-14,1.091910702799));
#396=CARTESIAN_POINT('',(0.,0.,70.44650623794));
#397=CARTESIAN_POINT('',(0.,-3.,1.091910702799));
#398=CARTESIAN_POINT('',(0.,-1.24344978758E-14,1.021405182655E-14));
#399=CARTESIAN_POINT('',(0.,3.,1.091910702799));
#400=CARTESIAN_POINT('',(0.,-1.221798684837E-14,0.5568744584273));
#401=CARTESIAN_POINT('',(0.,-1.221798684837E-14,0.5568744584273));
#402=CARTESIAN_POINT('',(0.,3.,66.4919107028));
#403=CARTESIAN_POINT('',(0.,3.,66.4919107028));
#404=CARTESIAN_POINT('',(0.,3.,13.0919107));
#405=CARTESIAN_POINT('',(0.,0.,66.4919107028));
#406=CARTESIAN_POINT('',(0.,-3.,66.4919107028));
#407=CARTESIAN_POINT('',(0.,-3.,66.4919107028));
#408=CARTESIAN_POINT('',(0.,-3.,13.0919107));
#409=CARTESIAN_POINT('',(0.,0.,13.0919107));
#410=CARTESIAN_POINT('',(0.,0.,70.44650623794));
#411=CARTESIAN_POINT('',(0.,0.,13.0919107));
#412=CARTESIAN_POINT('',(-150.,150.,13.0919107));
#413=CARTESIAN_POINT('',(0.,0.,66.4919107028));
#414=CARTESIAN_POINT('',(0.,0.,70.44650623794));
#415=CARTESIAN_POINT('',(0.,-2.4,67.0919107028));
#416=CARTESIAN_POINT('',(0.,-2.4,67.0919107028));
#417=CARTESIAN_POINT('',(0.,0.,67.0919107028));
#418=CARTESIAN_POINT('',(0.,2.4,67.0919107028));
#419=CARTESIAN_POINT('',(0.,2.4,67.0919107028));
#420=CARTESIAN_POINT('',(0.,0.,66.7919107028));
#421=CARTESIAN_POINT('',(0.,0.,67.0919107028));
#422=CARTESIAN_POINT('',(0.,0.,66.7919107028));
#423=CARTESIAN_POINT('',(0.,0.,67.0919107028));
#424=MECHANICAL_DESIGN_GEOMETRIC_PRESENTATION_REPRESENTATION('',(#223,#224,
#225,#226,#227,#228,#229,#230,#231,#232,#233,#234,#235,#236,#237,#238,#239),
#425);
#425=(
GEOMETRIC_REPRESENTATION_CONTEXT(3)
GLOBAL_UNCERTAINTY_ASSIGNED_CONTEXT((#426))
GLOBAL_UNIT_ASSIGNED_CONTEXT((#432,#428,#427))
REPRESENTATION_CONTEXT('MVE0600X02S060','TOP_LEVEL_ASSEMBLY_PART')
);
#426=UNCERTAINTY_MEASURE_WITH_UNIT(LENGTH_MEASURE(2.E-5),#432,
'DISTANCE_ACCURACY_VALUE','Maximum Tolerance applied to model');
#427=(
NAMED_UNIT(*)
SI_UNIT($,.STERADIAN.)
SOLID_ANGLE_UNIT()
);
#428=(
CONVERSION_BASED_UNIT('DEGREE',#430)
NAMED_UNIT(#429)
PLANE_ANGLE_UNIT()
);
#429=DIMENSIONAL_EXPONENTS(0.,0.,0.,0.,0.,0.,0.);
#430=PLANE_ANGLE_MEASURE_WITH_UNIT(PLANE_ANGLE_MEASURE(0.0174532925),#431);
#431=(
NAMED_UNIT(*)
PLANE_ANGLE_UNIT()
SI_UNIT($,.RADIAN.)
);
#432=(
LENGTH_UNIT()
NAMED_UNIT(*)
SI_UNIT(.MILLI.,.METRE.)
);
ENDSEC;
END-ISO-10303-21;
