ISO-10303-21;
HEADER;
/* Generated by software containing ST-Developer
 * from STEP Tools, Inc. (www.steptools.com) 
 */
/* OPTION: using custom schema-name function */

FILE_DESCRIPTION(
/* description */ (''),
/* implementation_level */ '2;1');

FILE_NAME(
/* name */ 'VQMHVRBD0200R030.stp',
/* time_stamp */ '2023-03-17T09:17:56+09:00',
/* author */ (''),
/* organization */ (''),
/* preprocessor_version */ 'ST-DEVELOPER v16',
/* originating_system */ 'SIEMENS PLM Software NX 10.0',
/* authorisation */ '');

FILE_SCHEMA (('AUTOMOTIVE_DESIGN { 1 0 10303 214 3 1 1 1 }'));
ENDSEC;

DATA;
#10=CONSTRUCTIVE_GEOMETRY_REPRESENTATION_RELATIONSHIP(
'supplemental geometry','',#26,#11);
#11=CONSTRUCTIVE_GEOMETRY_REPRESENTATION('supplemental geometry',(#335,
#336,#337,#338,#339,#340,#341,#342,#343,#344),#563);
#12=GEOMETRICALLY_BOUNDED_WIREFRAME_SHAPE_REPRESENTATION(
'VQMHVRBD0200R030-None',(#27),#563);
#13=SHAPE_REPRESENTATION_RELATIONSHIP('None',
'relationship between VQMHVRBD0200R030-None and VQMHVRBD0200R030-None',
#26,#15);
#14=SHAPE_REPRESENTATION_RELATIONSHIP('None',
'relationship between VQMHVRBD0200R030-None and VQMHVRBD0200R030-None',
#26,#12);
#15=ADVANCED_BREP_SHAPE_REPRESENTATION('VQMHVRBD0200R030-None',(#42,#43),
#563);
#16=SHAPE_DEFINITION_REPRESENTATION(#17,#26);
#17=PRODUCT_DEFINITION_SHAPE('','SHAPE FOR VQMHVRBD0200R030_ASM.',#18);
#18=PRODUCT_DEFINITION('part definition','',#20,#19);
#19=PRODUCT_DEFINITION_CONTEXT('part definition',#25,'design');
#20=PRODUCT_DEFINITION_FORMATION_WITH_SPECIFIED_SOURCE(' ',' ',#22,
 .NOT_KNOWN.);
#21=PRODUCT_RELATED_PRODUCT_CATEGORY('part','',(#22));
#22=PRODUCT('VQMHVRBD0200R030_ASM','VQMHVRBD0200R030_ASM',
'NOT SPECIFIED',(#23));
#23=PRODUCT_CONTEXT('',#25,'mechanical');
#24=APPLICATION_PROTOCOL_DEFINITION('international standard',
'automotive_design',2010,#25);
#25=APPLICATION_CONTEXT(
'core data for automotive mechanical design processes');
#26=SHAPE_REPRESENTATION('VQMHVRBD0200R030-None',(#333),#563);
#27=GEOMETRIC_CURVE_SET('None',(#486,#255,#256,#257,#258,#259));
#28=CONICAL_SURFACE('',#367,1.5,15.);
#29=CONICAL_SURFACE('',#369,1.5,15.);
#30=CONICAL_SURFACE('',#375,1.75,45.);
#31=CONICAL_SURFACE('',#377,1.75,45.);
#32=SURFACE_STYLE_USAGE(.BOTH.,#34);
#33=SURFACE_STYLE_USAGE(.BOTH.,#35);
#34=SURFACE_SIDE_STYLE('',(#36));
#35=SURFACE_SIDE_STYLE('',(#37));
#36=SURFACE_STYLE_FILL_AREA(#38);
#37=SURFACE_STYLE_FILL_AREA(#39);
#38=FILL_AREA_STYLE('',(#40));
#39=FILL_AREA_STYLE('',(#41));
#40=FILL_AREA_STYLE_COLOUR('',#331);
#41=FILL_AREA_STYLE_COLOUR('',#332);
#42=MANIFOLD_SOLID_BREP('CUT',#44);
#43=MANIFOLD_SOLID_BREP('NOCUT',#45);
#44=CLOSED_SHELL('',(#52,#53,#54,#55,#56,#57));
#45=CLOSED_SHELL('',(#58,#59,#60,#61,#62,#63,#64,#65,#66,#67));
#46=TOROIDAL_SURFACE('',#355,0.7,0.3);
#47=TOROIDAL_SURFACE('',#357,0.7,0.3);
#48=PLANE('',#349);
#49=PLANE('',#358);
#50=PLANE('',#363);
#51=PLANE('',#378);
#52=ADVANCED_FACE('',(#74),#68,.T.);
#53=ADVANCED_FACE('',(#75),#48,.F.);
#54=ADVANCED_FACE('',(#76),#69,.T.);
#55=ADVANCED_FACE('',(#77),#46,.T.);
#56=ADVANCED_FACE('',(#78),#47,.T.);
#57=ADVANCED_FACE('',(#79),#49,.T.);
#58=ADVANCED_FACE('',(#80),#70,.T.);
#59=ADVANCED_FACE('',(#81),#50,.F.);
#60=ADVANCED_FACE('',(#82),#71,.T.);
#61=ADVANCED_FACE('',(#83),#28,.T.);
#62=ADVANCED_FACE('',(#84),#29,.T.);
#63=ADVANCED_FACE('',(#85),#72,.T.);
#64=ADVANCED_FACE('',(#86),#73,.T.);
#65=ADVANCED_FACE('',(#87),#30,.T.);
#66=ADVANCED_FACE('',(#88),#31,.T.);
#67=ADVANCED_FACE('',(#89),#51,.F.);
#68=CYLINDRICAL_SURFACE('',#347,1.);
#69=CYLINDRICAL_SURFACE('',#351,1.);
#70=CYLINDRICAL_SURFACE('',#361,1.);
#71=CYLINDRICAL_SURFACE('',#365,1.);
#72=CYLINDRICAL_SURFACE('',#371,2.);
#73=CYLINDRICAL_SURFACE('',#373,2.);
#74=FACE_OUTER_BOUND('',#90,.T.);
#75=FACE_OUTER_BOUND('',#91,.T.);
#76=FACE_OUTER_BOUND('',#92,.T.);
#77=FACE_OUTER_BOUND('',#93,.T.);
#78=FACE_OUTER_BOUND('',#94,.T.);
#79=FACE_OUTER_BOUND('',#95,.T.);
#80=FACE_OUTER_BOUND('',#96,.T.);
#81=FACE_OUTER_BOUND('',#97,.T.);
#82=FACE_OUTER_BOUND('',#98,.T.);
#83=FACE_OUTER_BOUND('',#99,.T.);
#84=FACE_OUTER_BOUND('',#100,.T.);
#85=FACE_OUTER_BOUND('',#101,.T.);
#86=FACE_OUTER_BOUND('',#102,.T.);
#87=FACE_OUTER_BOUND('',#103,.T.);
#88=FACE_OUTER_BOUND('',#104,.T.);
#89=FACE_OUTER_BOUND('',#105,.T.);
#90=EDGE_LOOP('',(#106,#107,#108,#109));
#91=EDGE_LOOP('',(#110,#111));
#92=EDGE_LOOP('',(#112,#113,#114,#115));
#93=EDGE_LOOP('',(#116,#117,#118,#119));
#94=EDGE_LOOP('',(#120,#121,#122,#123));
#95=EDGE_LOOP('',(#124,#125));
#96=EDGE_LOOP('',(#126,#127,#128,#129));
#97=EDGE_LOOP('',(#130,#131));
#98=EDGE_LOOP('',(#132,#133,#134,#135));
#99=EDGE_LOOP('',(#136,#137,#138,#139));
#100=EDGE_LOOP('',(#140,#141,#142,#143));
#101=EDGE_LOOP('',(#144,#145,#146,#147));
#102=EDGE_LOOP('',(#148,#149,#150,#151));
#103=EDGE_LOOP('',(#152,#153,#154,#155));
#104=EDGE_LOOP('',(#156,#157,#158,#159));
#105=EDGE_LOOP('',(#160,#161));
#106=ORIENTED_EDGE('',*,*,#178,.T.);
#107=ORIENTED_EDGE('',*,*,#179,.T.);
#108=ORIENTED_EDGE('',*,*,#180,.F.);
#109=ORIENTED_EDGE('',*,*,#181,.T.);
#110=ORIENTED_EDGE('',*,*,#182,.F.);
#111=ORIENTED_EDGE('',*,*,#181,.F.);
#112=ORIENTED_EDGE('',*,*,#180,.T.);
#113=ORIENTED_EDGE('',*,*,#183,.T.);
#114=ORIENTED_EDGE('',*,*,#178,.F.);
#115=ORIENTED_EDGE('',*,*,#182,.T.);
#116=ORIENTED_EDGE('',*,*,#184,.T.);
#117=ORIENTED_EDGE('',*,*,#185,.T.);
#118=ORIENTED_EDGE('',*,*,#183,.F.);
#119=ORIENTED_EDGE('',*,*,#186,.F.);
#120=ORIENTED_EDGE('',*,*,#179,.F.);
#121=ORIENTED_EDGE('',*,*,#185,.F.);
#122=ORIENTED_EDGE('',*,*,#187,.T.);
#123=ORIENTED_EDGE('',*,*,#186,.T.);
#124=ORIENTED_EDGE('',*,*,#187,.F.);
#125=ORIENTED_EDGE('',*,*,#184,.F.);
#126=ORIENTED_EDGE('',*,*,#188,.F.);
#127=ORIENTED_EDGE('',*,*,#189,.T.);
#128=ORIENTED_EDGE('',*,*,#190,.T.);
#129=ORIENTED_EDGE('',*,*,#191,.T.);
#130=ORIENTED_EDGE('',*,*,#192,.F.);
#131=ORIENTED_EDGE('',*,*,#191,.F.);
#132=ORIENTED_EDGE('',*,*,#190,.F.);
#133=ORIENTED_EDGE('',*,*,#193,.T.);
#134=ORIENTED_EDGE('',*,*,#188,.T.);
#135=ORIENTED_EDGE('',*,*,#192,.T.);
#136=ORIENTED_EDGE('',*,*,#193,.F.);
#137=ORIENTED_EDGE('',*,*,#194,.T.);
#138=ORIENTED_EDGE('',*,*,#195,.F.);
#139=ORIENTED_EDGE('',*,*,#196,.F.);
#140=ORIENTED_EDGE('',*,*,#197,.F.);
#141=ORIENTED_EDGE('',*,*,#194,.F.);
#142=ORIENTED_EDGE('',*,*,#189,.F.);
#143=ORIENTED_EDGE('',*,*,#196,.T.);
#144=ORIENTED_EDGE('',*,*,#198,.T.);
#145=ORIENTED_EDGE('',*,*,#199,.T.);
#146=ORIENTED_EDGE('',*,*,#197,.T.);
#147=ORIENTED_EDGE('',*,*,#200,.F.);
#148=ORIENTED_EDGE('',*,*,#195,.T.);
#149=ORIENTED_EDGE('',*,*,#199,.F.);
#150=ORIENTED_EDGE('',*,*,#201,.T.);
#151=ORIENTED_EDGE('',*,*,#200,.T.);
#152=ORIENTED_EDGE('',*,*,#201,.F.);
#153=ORIENTED_EDGE('',*,*,#202,.T.);
#154=ORIENTED_EDGE('',*,*,#203,.T.);
#155=ORIENTED_EDGE('',*,*,#204,.F.);
#156=ORIENTED_EDGE('',*,*,#205,.T.);
#157=ORIENTED_EDGE('',*,*,#202,.F.);
#158=ORIENTED_EDGE('',*,*,#198,.F.);
#159=ORIENTED_EDGE('',*,*,#204,.T.);
#160=ORIENTED_EDGE('',*,*,#205,.F.);
#161=ORIENTED_EDGE('',*,*,#203,.F.);
#162=VERTEX_POINT('',#503);
#163=VERTEX_POINT('',#504);
#164=VERTEX_POINT('',#506);
#165=VERTEX_POINT('',#508);
#166=VERTEX_POINT('',#516);
#167=VERTEX_POINT('',#517);
#168=VERTEX_POINT('',#525);
#169=VERTEX_POINT('',#526);
#170=VERTEX_POINT('',#528);
#171=VERTEX_POINT('',#530);
#172=VERTEX_POINT('',#538);
#173=VERTEX_POINT('',#540);
#174=VERTEX_POINT('',#546);
#175=VERTEX_POINT('',#547);
#176=VERTEX_POINT('',#554);
#177=VERTEX_POINT('',#556);
#178=EDGE_CURVE('',#162,#163,#264,.T.);
#179=EDGE_CURVE('',#163,#164,#207,.T.);
#180=EDGE_CURVE('',#165,#164,#265,.T.);
#181=EDGE_CURVE('',#165,#162,#208,.T.);
#182=EDGE_CURVE('',#162,#165,#209,.T.);
#183=EDGE_CURVE('',#164,#163,#210,.T.);
#184=EDGE_CURVE('',#166,#167,#211,.T.);
#185=EDGE_CURVE('',#167,#163,#212,.T.);
#186=EDGE_CURVE('',#166,#164,#213,.T.);
#187=EDGE_CURVE('',#167,#166,#214,.T.);
#188=EDGE_CURVE('',#168,#169,#266,.T.);
#189=EDGE_CURVE('',#168,#170,#215,.T.);
#190=EDGE_CURVE('',#170,#171,#267,.T.);
#191=EDGE_CURVE('',#171,#169,#216,.T.);
#192=EDGE_CURVE('',#169,#171,#217,.T.);
#193=EDGE_CURVE('',#170,#168,#218,.T.);
#194=EDGE_CURVE('',#170,#172,#268,.T.);
#195=EDGE_CURVE('',#173,#172,#219,.T.);
#196=EDGE_CURVE('',#168,#173,#269,.T.);
#197=EDGE_CURVE('',#172,#173,#220,.T.);
#198=EDGE_CURVE('',#174,#175,#221,.T.);
#199=EDGE_CURVE('',#175,#172,#270,.T.);
#200=EDGE_CURVE('',#174,#173,#271,.T.);
#201=EDGE_CURVE('',#175,#174,#222,.T.);
#202=EDGE_CURVE('',#175,#176,#272,.T.);
#203=EDGE_CURVE('',#176,#177,#223,.T.);
#204=EDGE_CURVE('',#174,#177,#273,.T.);
#205=EDGE_CURVE('',#177,#176,#224,.T.);
#206=CIRCLE('',#334,0.3);
#207=CIRCLE('',#345,1.);
#208=CIRCLE('',#346,1.);
#209=CIRCLE('',#348,1.);
#210=CIRCLE('',#350,1.);
#211=CIRCLE('',#352,0.7);
#212=CIRCLE('',#353,0.3);
#213=CIRCLE('',#354,0.3);
#214=CIRCLE('',#356,0.7);
#215=CIRCLE('',#359,1.);
#216=CIRCLE('',#360,1.);
#217=CIRCLE('',#362,1.);
#218=CIRCLE('',#364,1.);
#219=CIRCLE('',#366,2.);
#220=CIRCLE('',#368,2.);
#221=CIRCLE('',#370,2.);
#222=CIRCLE('',#372,2.);
#223=CIRCLE('',#374,1.5);
#224=CIRCLE('',#376,1.5);
#225=CURVE_STYLE('',#240,POSITIVE_LENGTH_MEASURE(0.18),#328);
#226=CURVE_STYLE('',#241,POSITIVE_LENGTH_MEASURE(0.18),#328);
#227=CURVE_STYLE('',#242,POSITIVE_LENGTH_MEASURE(0.18),#328);
#228=CURVE_STYLE('',#243,POSITIVE_LENGTH_MEASURE(0.18),#328);
#229=CURVE_STYLE('',#244,POSITIVE_LENGTH_MEASURE(0.18),#328);
#230=CURVE_STYLE('',#245,POSITIVE_LENGTH_MEASURE(0.13),#329);
#231=CURVE_STYLE('',#246,POSITIVE_LENGTH_MEASURE(0.13),#329);
#232=CURVE_STYLE('',#247,POSITIVE_LENGTH_MEASURE(0.13),#330);
#233=CURVE_STYLE('',#248,POSITIVE_LENGTH_MEASURE(0.13),#330);
#234=CURVE_STYLE('',#249,POSITIVE_LENGTH_MEASURE(0.13),#329);
#235=CURVE_STYLE('',#250,POSITIVE_LENGTH_MEASURE(0.13),#329);
#236=CURVE_STYLE('',#251,POSITIVE_LENGTH_MEASURE(0.13),#330);
#237=CURVE_STYLE('',#252,POSITIVE_LENGTH_MEASURE(0.13),#329);
#238=CURVE_STYLE('',#253,POSITIVE_LENGTH_MEASURE(0.13),#329);
#239=CURVE_STYLE('',#254,POSITIVE_LENGTH_MEASURE(0.13),#329);
#240=DRAUGHTING_PRE_DEFINED_CURVE_FONT('continuous');
#241=DRAUGHTING_PRE_DEFINED_CURVE_FONT('continuous');
#242=DRAUGHTING_PRE_DEFINED_CURVE_FONT('continuous');
#243=DRAUGHTING_PRE_DEFINED_CURVE_FONT('continuous');
#244=DRAUGHTING_PRE_DEFINED_CURVE_FONT('continuous');
#245=DRAUGHTING_PRE_DEFINED_CURVE_FONT('continuous');
#246=DRAUGHTING_PRE_DEFINED_CURVE_FONT('continuous');
#247=DRAUGHTING_PRE_DEFINED_CURVE_FONT('continuous');
#248=DRAUGHTING_PRE_DEFINED_CURVE_FONT('continuous');
#249=DRAUGHTING_PRE_DEFINED_CURVE_FONT('continuous');
#250=DRAUGHTING_PRE_DEFINED_CURVE_FONT('continuous');
#251=DRAUGHTING_PRE_DEFINED_CURVE_FONT('continuous');
#252=DRAUGHTING_PRE_DEFINED_CURVE_FONT('continuous');
#253=DRAUGHTING_PRE_DEFINED_CURVE_FONT('continuous');
#254=DRAUGHTING_PRE_DEFINED_CURVE_FONT('continuous');
#255=TRIMMED_CURVE('',#260,(PARAMETER_VALUE(0.)),(PARAMETER_VALUE(1.)),
 .T.,.PARAMETER.);
#256=TRIMMED_CURVE('',#261,(PARAMETER_VALUE(0.)),(PARAMETER_VALUE(1.)),
 .T.,.PARAMETER.);
#257=TRIMMED_CURVE('',#262,(PARAMETER_VALUE(0.)),(PARAMETER_VALUE(1.)),
 .T.,.PARAMETER.);
#258=TRIMMED_CURVE('',#263,(PARAMETER_VALUE(0.)),(PARAMETER_VALUE(1.)),
 .T.,.PARAMETER.);
#259=TRIMMED_CURVE('',#206,(PARAMETER_VALUE(0.)),(PARAMETER_VALUE(90.)),
 .T.,.PARAMETER.);
#260=LINE('',#487,#274);
#261=LINE('',#488,#275);
#262=LINE('',#489,#276);
#263=LINE('',#490,#277);
#264=LINE('',#502,#278);
#265=LINE('',#507,#279);
#266=LINE('',#524,#280);
#267=LINE('',#529,#281);
#268=LINE('',#537,#282);
#269=LINE('',#541,#283);
#270=LINE('',#548,#284);
#271=LINE('',#549,#285);
#272=LINE('',#553,#286);
#273=LINE('',#557,#287);
#274=VECTOR('',#381,0.7);
#275=VECTOR('',#382,3.7);
#276=VECTOR('',#383,1.);
#277=VECTOR('',#384,4.);
#278=VECTOR('',#407,1.);
#279=VECTOR('',#410,1.);
#280=VECTOR('',#437,1.);
#281=VECTOR('',#440,1.);
#282=VECTOR('',#453,1.);
#283=VECTOR('',#456,1.);
#284=VECTOR('',#465,1.);
#285=VECTOR('',#466,1.);
#286=VECTOR('',#473,1.);
#287=VECTOR('',#476,1.);
#288=PRESENTATION_LAYER_ASSIGNMENT('1','Layer 1',(#486,#255,#256,#257,#258,
#259,#335,#336,#339,#340,#341,#342,#343,#344,#42,#43));
#289=PRESENTATION_LAYER_ASSIGNMENT('2','Layer 2',(#337,#338));
#290=STYLED_ITEM('',(#308),#486);
#291=STYLED_ITEM('',(#309),#255);
#292=STYLED_ITEM('',(#310),#256);
#293=STYLED_ITEM('',(#311),#257);
#294=STYLED_ITEM('',(#312),#258);
#295=STYLED_ITEM('',(#313),#259);
#296=STYLED_ITEM('',(#314),#335);
#297=STYLED_ITEM('',(#315),#336);
#298=STYLED_ITEM('',(#316),#337);
#299=STYLED_ITEM('',(#317),#338);
#300=STYLED_ITEM('',(#318),#339);
#301=STYLED_ITEM('',(#319),#340);
#302=STYLED_ITEM('',(#320),#341);
#303=STYLED_ITEM('',(#321),#342);
#304=STYLED_ITEM('',(#322),#343);
#305=STYLED_ITEM('',(#323),#344);
#306=STYLED_ITEM('',(#324),#42);
#307=STYLED_ITEM('',(#325),#43);
#308=PRESENTATION_STYLE_ASSIGNMENT((#326));
#309=PRESENTATION_STYLE_ASSIGNMENT((#225));
#310=PRESENTATION_STYLE_ASSIGNMENT((#226));
#311=PRESENTATION_STYLE_ASSIGNMENT((#227));
#312=PRESENTATION_STYLE_ASSIGNMENT((#228));
#313=PRESENTATION_STYLE_ASSIGNMENT((#229));
#314=PRESENTATION_STYLE_ASSIGNMENT((#230));
#315=PRESENTATION_STYLE_ASSIGNMENT((#231));
#316=PRESENTATION_STYLE_ASSIGNMENT((#232));
#317=PRESENTATION_STYLE_ASSIGNMENT((#233));
#318=PRESENTATION_STYLE_ASSIGNMENT((#234));
#319=PRESENTATION_STYLE_ASSIGNMENT((#235));
#320=PRESENTATION_STYLE_ASSIGNMENT((#236));
#321=PRESENTATION_STYLE_ASSIGNMENT((#237));
#322=PRESENTATION_STYLE_ASSIGNMENT((#238));
#323=PRESENTATION_STYLE_ASSIGNMENT((#239));
#324=PRESENTATION_STYLE_ASSIGNMENT((#32));
#325=PRESENTATION_STYLE_ASSIGNMENT((#33));
#326=POINT_STYLE('',#327,POSITIVE_LENGTH_MEASURE(3.),#328);
#327=PRE_DEFINED_POINT_MARKER_SYMBOL('plus');
#328=COLOUR_RGB('Medium Royal',0.2,0.4,0.8);
#329=COLOUR_RGB('Strong Stone',0.576470588235294,0.54508278019379,0.392156862745098);
#330=COLOUR_RGB('Medium Umber',0.372533760585946,0.313725490196078,0.270572976272221);
#331=COLOUR_RGB('cutting part',0.8,0.8,0.8);
#332=COLOUR_RGB('non-cutting part and shank',0.501960784313725,0.501960784313725,
0.501960784313725);
#333=AXIS2_PLACEMENT_3D('',#485,#379,#380);
#334=AXIS2_PLACEMENT_3D('',#491,#385,#386);
#335=AXIS2_PLACEMENT_3D('',#492,#387,#388);
#336=AXIS2_PLACEMENT_3D('',#493,#389,#390);
#337=AXIS2_PLACEMENT_3D('CIP',#494,#391,#392);
#338=AXIS2_PLACEMENT_3D('PCS',#495,#393,#394);
#339=AXIS2_PLACEMENT_3D('MCS',#496,#395,#396);
#340=AXIS2_PLACEMENT_3D('',#497,#397,#398);
#341=AXIS2_PLACEMENT_3D('STEP_TEMP_EM3_1',#498,#399,#400);
#342=AXIS2_PLACEMENT_3D('',#499,#401,#402);
#343=AXIS2_PLACEMENT_3D('',#500,#403,#404);
#344=AXIS2_PLACEMENT_3D('',#501,#405,#406);
#345=AXIS2_PLACEMENT_3D('',#505,#408,#409);
#346=AXIS2_PLACEMENT_3D('',#509,#411,#412);
#347=AXIS2_PLACEMENT_3D('',#510,#413,#414);
#348=AXIS2_PLACEMENT_3D('',#511,#415,#416);
#349=AXIS2_PLACEMENT_3D('',#512,#417,#418);
#350=AXIS2_PLACEMENT_3D('',#513,#419,#420);
#351=AXIS2_PLACEMENT_3D('',#514,#421,#422);
#352=AXIS2_PLACEMENT_3D('',#515,#423,#424);
#353=AXIS2_PLACEMENT_3D('',#518,#425,#426);
#354=AXIS2_PLACEMENT_3D('',#519,#427,#428);
#355=AXIS2_PLACEMENT_3D('',#520,#429,#430);
#356=AXIS2_PLACEMENT_3D('',#521,#431,#432);
#357=AXIS2_PLACEMENT_3D('',#522,#433,#434);
#358=AXIS2_PLACEMENT_3D('',#523,#435,#436);
#359=AXIS2_PLACEMENT_3D('',#527,#438,#439);
#360=AXIS2_PLACEMENT_3D('',#531,#441,#442);
#361=AXIS2_PLACEMENT_3D('',#532,#443,#444);
#362=AXIS2_PLACEMENT_3D('',#533,#445,#446);
#363=AXIS2_PLACEMENT_3D('',#534,#447,#448);
#364=AXIS2_PLACEMENT_3D('',#535,#449,#450);
#365=AXIS2_PLACEMENT_3D('',#536,#451,#452);
#366=AXIS2_PLACEMENT_3D('',#539,#454,#455);
#367=AXIS2_PLACEMENT_3D('',#542,#457,#458);
#368=AXIS2_PLACEMENT_3D('',#543,#459,#460);
#369=AXIS2_PLACEMENT_3D('',#544,#461,#462);
#370=AXIS2_PLACEMENT_3D('',#545,#463,#464);
#371=AXIS2_PLACEMENT_3D('',#550,#467,#468);
#372=AXIS2_PLACEMENT_3D('',#551,#469,#470);
#373=AXIS2_PLACEMENT_3D('',#552,#471,#472);
#374=AXIS2_PLACEMENT_3D('',#555,#474,#475);
#375=AXIS2_PLACEMENT_3D('',#558,#477,#478);
#376=AXIS2_PLACEMENT_3D('',#559,#479,#480);
#377=AXIS2_PLACEMENT_3D('',#560,#481,#482);
#378=AXIS2_PLACEMENT_3D('',#561,#483,#484);
#379=DIRECTION('',(0.,0.,1.));
#380=DIRECTION('',(1.,0.,0.));
#381=DIRECTION('',(-1.,0.,0.));
#382=DIRECTION('',(0.,0.,1.));
#383=DIRECTION('',(1.,0.,0.));
#384=DIRECTION('',(0.,0.,-1.));
#385=DIRECTION('',(0.,1.,0.));
#386=DIRECTION('',(0.,0.,-1.));
#387=DIRECTION('',(0.,0.,1.));
#388=DIRECTION('',(1.,0.,0.));
#389=DIRECTION('',(0.,0.,1.));
#390=DIRECTION('',(1.,0.,0.));
#391=DIRECTION('',(0.,0.,1.));
#392=DIRECTION('',(1.,0.,0.));
#393=DIRECTION('',(0.,0.,1.));
#394=DIRECTION('',(1.,0.,0.));
#395=DIRECTION('',(0.,0.,1.));
#396=DIRECTION('',(1.,0.,0.));
#397=DIRECTION('',(0.,0.,1.));
#398=DIRECTION('',(1.,0.,0.));
#399=DIRECTION('',(0.,0.,1.));
#400=DIRECTION('',(1.,0.,0.));
#401=DIRECTION('',(0.,0.,1.));
#402=DIRECTION('',(1.,0.,0.));
#403=DIRECTION('',(0.,0.,1.));
#404=DIRECTION('',(1.,0.,0.));
#405=DIRECTION('',(0.,0.,1.));
#406=DIRECTION('',(1.,0.,0.));
#407=DIRECTION('',(0.,0.,-1.));
#408=DIRECTION('',(0.,0.,1.));
#409=DIRECTION('',(0.,-1.,0.));
#410=DIRECTION('',(0.,0.,-1.));
#411=DIRECTION('',(0.,0.,-1.));
#412=DIRECTION('',(0.,1.,0.));
#413=DIRECTION('',(0.,0.,-1.));
#414=DIRECTION('',(0.,1.,0.));
#415=DIRECTION('',(0.,0.,-1.));
#416=DIRECTION('',(0.,-1.,0.));
#417=DIRECTION('',(0.,0.,-1.));
#418=DIRECTION('',(1.,0.,0.));
#419=DIRECTION('',(0.,0.,1.));
#420=DIRECTION('',(0.,1.,0.));
#421=DIRECTION('',(0.,0.,-1.));
#422=DIRECTION('',(0.,1.,0.));
#423=DIRECTION('',(0.,0.,1.));
#424=DIRECTION('',(0.,1.,0.));
#425=DIRECTION('',(-1.,0.,0.));
#426=DIRECTION('',(0.,-1.,0.));
#427=DIRECTION('',(1.,0.,0.));
#428=DIRECTION('',(0.,1.,0.));
#429=DIRECTION('',(0.,0.,-1.));
#430=DIRECTION('',(0.,1.,0.));
#431=DIRECTION('',(0.,0.,1.));
#432=DIRECTION('',(0.,-1.,0.));
#433=DIRECTION('',(0.,0.,-1.));
#434=DIRECTION('',(0.,1.,0.));
#435=DIRECTION('',(0.,0.,-1.));
#436=DIRECTION('',(0.,1.,0.));
#437=DIRECTION('',(0.,-6.118562446823E-14,-1.));
#438=DIRECTION('',(0.,0.,-1.));
#439=DIRECTION('',(0.,1.,0.));
#440=DIRECTION('',(0.,6.118562446823E-14,-1.));
#441=DIRECTION('',(0.,0.,1.));
#442=DIRECTION('',(0.,-1.,0.));
#443=DIRECTION('',(0.,0.,-1.));
#444=DIRECTION('',(0.,1.,0.));
#445=DIRECTION('',(0.,0.,1.));
#446=DIRECTION('',(0.,1.,0.));
#447=DIRECTION('',(0.,0.,1.));
#448=DIRECTION('',(-1.,0.,0.));
#449=DIRECTION('',(0.,0.,-1.));
#450=DIRECTION('',(0.,-1.,0.));
#451=DIRECTION('',(0.,0.,-1.));
#452=DIRECTION('',(0.,1.,0.));
#453=DIRECTION('',(0.,-0.258819045102493,0.965925826289076));
#454=DIRECTION('',(0.,0.,1.));
#455=DIRECTION('',(0.,1.,0.));
#456=DIRECTION('',(0.,0.258819045102493,0.965925826289076));
#457=DIRECTION('',(0.,0.,1.));
#458=DIRECTION('',(0.,-1.,5.47233020546983E-17));
#459=DIRECTION('',(0.,0.,1.));
#460=DIRECTION('',(0.,-1.,0.));
#461=DIRECTION('',(0.,0.,1.));
#462=DIRECTION('',(0.,-1.,5.47233020546983E-17));
#463=DIRECTION('',(0.,0.,-1.));
#464=DIRECTION('',(0.,1.,0.));
#465=DIRECTION('',(0.,0.,-1.));
#466=DIRECTION('',(0.,0.,-1.));
#467=DIRECTION('',(0.,0.,-1.));
#468=DIRECTION('',(0.,1.,0.));
#469=DIRECTION('',(0.,0.,-1.));
#470=DIRECTION('',(0.,-1.,0.));
#471=DIRECTION('',(0.,0.,-1.));
#472=DIRECTION('',(0.,1.,0.));
#473=DIRECTION('',(0.,0.707106781186547,0.707106781186547));
#474=DIRECTION('',(0.,0.,-1.));
#475=DIRECTION('',(0.,-1.,0.));
#476=DIRECTION('',(0.,-0.707106781186547,0.707106781186547));
#477=DIRECTION('',(0.,0.,-1.));
#478=DIRECTION('',(0.,1.,-4.15606323168888E-17));
#479=DIRECTION('',(0.,0.,-1.));
#480=DIRECTION('',(0.,1.,0.));
#481=DIRECTION('',(0.,0.,-1.));
#482=DIRECTION('',(0.,1.,-4.15606323168888E-17));
#483=DIRECTION('',(0.,0.,-1.));
#484=DIRECTION('',(0.,1.,0.));
#485=CARTESIAN_POINT('',(0.,0.,0.));
#486=CARTESIAN_POINT('CRP',(-1.,0.,0.));
#487=CARTESIAN_POINT('',(0.,0.,0.));
#488=CARTESIAN_POINT('',(-1.,0.,0.3));
#489=CARTESIAN_POINT('',(-1.,0.,4.));
#490=CARTESIAN_POINT('',(0.,0.,4.));
#491=CARTESIAN_POINT('',(-0.7,0.,0.3));
#492=CARTESIAN_POINT('',(0.,0.,0.));
#493=CARTESIAN_POINT('',(0.,0.,0.));
#494=CARTESIAN_POINT('',(0.,0.,0.));
#495=CARTESIAN_POINT('',(0.,0.,45.));
#496=CARTESIAN_POINT('',(0.,0.,27.));
#497=CARTESIAN_POINT('',(0.,0.,0.));
#498=CARTESIAN_POINT('',(0.,0.,0.));
#499=CARTESIAN_POINT('',(0.,0.,0.));
#500=CARTESIAN_POINT('',(0.,0.,0.));
#501=CARTESIAN_POINT('',(0.,0.,0.));
#502=CARTESIAN_POINT('',(0.,-1.,4.));
#503=CARTESIAN_POINT('',(0.,-1.,4.));
#504=CARTESIAN_POINT('',(0.,-1.,0.3));
#505=CARTESIAN_POINT('',(0.,0.,0.3));
#506=CARTESIAN_POINT('',(0.,1.,0.3));
#507=CARTESIAN_POINT('',(0.,1.,4.));
#508=CARTESIAN_POINT('',(0.,1.,4.));
#509=CARTESIAN_POINT('',(0.,0.,4.));
#510=CARTESIAN_POINT('',(0.,0.,47.25));
#511=CARTESIAN_POINT('',(0.,0.,4.));
#512=CARTESIAN_POINT('',(150.,150.,4.));
#513=CARTESIAN_POINT('',(0.,0.,0.3));
#514=CARTESIAN_POINT('',(0.,0.,47.25));
#515=CARTESIAN_POINT('',(0.,0.,0.));
#516=CARTESIAN_POINT('',(0.,0.7,0.));
#517=CARTESIAN_POINT('',(0.,-0.7,0.));
#518=CARTESIAN_POINT('',(0.,-0.7,0.3));
#519=CARTESIAN_POINT('',(0.,0.7,0.3));
#520=CARTESIAN_POINT('',(0.,0.,0.3));
#521=CARTESIAN_POINT('',(0.,0.,0.));
#522=CARTESIAN_POINT('',(0.,0.,0.3));
#523=CARTESIAN_POINT('',(0.,0.,0.));
#524=CARTESIAN_POINT('',(0.,1.,4.9));
#525=CARTESIAN_POINT('',(0.,1.,4.9));
#526=CARTESIAN_POINT('',(0.,1.,4.));
#527=CARTESIAN_POINT('',(0.,0.,4.9));
#528=CARTESIAN_POINT('',(0.,-1.,4.9));
#529=CARTESIAN_POINT('',(0.,-1.,4.9));
#530=CARTESIAN_POINT('',(0.,-1.,4.));
#531=CARTESIAN_POINT('',(0.,0.,4.));
#532=CARTESIAN_POINT('',(0.,0.,47.25));
#533=CARTESIAN_POINT('',(0.,0.,4.));
#534=CARTESIAN_POINT('',(-150.,150.,4.));
#535=CARTESIAN_POINT('',(0.,0.,4.9));
#536=CARTESIAN_POINT('',(0.,0.,47.25));
#537=CARTESIAN_POINT('',(0.,-2.,8.632050807569));
#538=CARTESIAN_POINT('',(0.,-2.,8.632050807569));
#539=CARTESIAN_POINT('',(0.,0.,8.632050807569));
#540=CARTESIAN_POINT('',(0.,2.,8.632050807569));
#541=CARTESIAN_POINT('',(0.,2.,8.632050807569));
#542=CARTESIAN_POINT('',(0.,0.,6.766025403784));
#543=CARTESIAN_POINT('',(0.,0.,8.632050807569));
#544=CARTESIAN_POINT('',(0.,0.,6.766025403784));
#545=CARTESIAN_POINT('',(0.,0.,44.5));
#546=CARTESIAN_POINT('',(0.,2.,44.5));
#547=CARTESIAN_POINT('',(0.,-2.,44.5));
#548=CARTESIAN_POINT('',(0.,-2.,44.5));
#549=CARTESIAN_POINT('',(0.,2.,44.5));
#550=CARTESIAN_POINT('',(0.,0.,47.25));
#551=CARTESIAN_POINT('',(0.,0.,44.5));
#552=CARTESIAN_POINT('',(0.,0.,47.25));
#553=CARTESIAN_POINT('',(0.,-1.5,45.));
#554=CARTESIAN_POINT('',(0.,-1.5,45.));
#555=CARTESIAN_POINT('',(0.,0.,45.));
#556=CARTESIAN_POINT('',(0.,1.5,45.));
#557=CARTESIAN_POINT('',(0.,1.5,45.));
#558=CARTESIAN_POINT('',(0.,0.,44.75));
#559=CARTESIAN_POINT('',(0.,0.,45.));
#560=CARTESIAN_POINT('',(0.,0.,44.75));
#561=CARTESIAN_POINT('',(0.,0.,45.));
#562=MECHANICAL_DESIGN_GEOMETRIC_PRESENTATION_REPRESENTATION('',(#290,#291,
#292,#293,#294,#295,#296,#297,#298,#299,#300,#301,#302,#303,#304,#305,#306,
#307),#563);
#563=(
GEOMETRIC_REPRESENTATION_CONTEXT(3)
GLOBAL_UNCERTAINTY_ASSIGNED_CONTEXT((#564))
GLOBAL_UNIT_ASSIGNED_CONTEXT((#570,#566,#565))
REPRESENTATION_CONTEXT('VQMHVRBD0200R030','TOP_LEVEL_ASSEMBLY_PART')
);
#564=UNCERTAINTY_MEASURE_WITH_UNIT(LENGTH_MEASURE(2.E-5),#570,
'DISTANCE_ACCURACY_VALUE','Maximum Tolerance applied to model');
#565=(
NAMED_UNIT(*)
SI_UNIT($,.STERADIAN.)
SOLID_ANGLE_UNIT()
);
#566=(
CONVERSION_BASED_UNIT('DEGREE',#568)
NAMED_UNIT(#567)
PLANE_ANGLE_UNIT()
);
#567=DIMENSIONAL_EXPONENTS(0.,0.,0.,0.,0.,0.,0.);
#568=PLANE_ANGLE_MEASURE_WITH_UNIT(PLANE_ANGLE_MEASURE(0.0174532925),#569);
#569=(
NAMED_UNIT(*)
PLANE_ANGLE_UNIT()
SI_UNIT($,.RADIAN.)
);
#570=(
LENGTH_UNIT()
NAMED_UNIT(*)
SI_UNIT(.MILLI.,.METRE.)
);
ENDSEC;
END-ISO-10303-21;
