ISO-10303-21;
HEADER;
/* Generated by software containing ST-Developer
 * from STEP Tools, Inc. (www.steptools.com) 
 */
/* OPTION: using custom schema-name function */

FILE_DESCRIPTION(
/* description */ (''),
/* implementation_level */ '2;1');

FILE_NAME(
/* name */ 'MWS0260X30DB.stp',
/* time_stamp */ '2025-03-06T14:44:44+09:00',
/* author */ (''),
/* organization */ (''),
/* preprocessor_version */ 'ST-DEVELOPER v18.101',
/* originating_system */ 'SIEMENS PLM Software NX 2011',
/* authorisation */ '');

FILE_SCHEMA (('AUTOMOTIVE_DESIGN { 1 0 10303 214 3 1 1 1 }'));
ENDSEC;

DATA;
#10=CONSTRUCTIVE_GEOMETRY_REPRESENTATION_RELATIONSHIP(
'supplemental geometry','',#26,#11);
#11=CONSTRUCTIVE_GEOMETRY_REPRESENTATION('supplemental geometry',(#305,
#306,#307,#308,#309,#310,#311,#312,#313,#314),#505);
#12=GEOMETRICALLY_BOUNDED_WIREFRAME_SHAPE_REPRESENTATION(
'MWS0260X30DB-None',(#27),#505);
#13=SHAPE_REPRESENTATION_RELATIONSHIP('None',
'relationship between MWS0260X30DB-None and MWS0260X30DB-None',#26,#15);
#14=SHAPE_REPRESENTATION_RELATIONSHIP('None',
'relationship between MWS0260X30DB-None and MWS0260X30DB-None',#26,#12);
#15=ADVANCED_BREP_SHAPE_REPRESENTATION('MWS0260X30DB-None',(#40,#41),#505);
#16=SHAPE_DEFINITION_REPRESENTATION(#17,#26);
#17=PRODUCT_DEFINITION_SHAPE('','SHAPE FOR MWS0260X30DB_ASM.',#18);
#18=PRODUCT_DEFINITION('part definition','',#20,#19);
#19=PRODUCT_DEFINITION_CONTEXT('part definition',#25,'design');
#20=PRODUCT_DEFINITION_FORMATION_WITH_SPECIFIED_SOURCE(' ',' ',#22,
 .NOT_KNOWN.);
#21=PRODUCT_RELATED_PRODUCT_CATEGORY('part','',(#22));
#22=PRODUCT('MWS0260X30DB_ASM','MWS0260X30DB_ASM','NOT SPECIFIED',(#23));
#23=PRODUCT_CONTEXT('',#25,'mechanical');
#24=APPLICATION_PROTOCOL_DEFINITION('international standard',
'automotive_design',2010,#25);
#25=APPLICATION_CONTEXT(
'core data for automotive mechanical design processes');
#26=SHAPE_REPRESENTATION('MWS0260X30DB-None',(#304),#505);
#27=GEOMETRIC_CURVE_SET('None',(#436,#229,#230,#231,#232));
#28=FACE_BOUND('',#95,.T.);
#29=FACE_BOUND('',#96,.T.);
#30=SURFACE_STYLE_USAGE(.BOTH.,#32);
#31=SURFACE_STYLE_USAGE(.BOTH.,#33);
#32=SURFACE_SIDE_STYLE('',(#34));
#33=SURFACE_SIDE_STYLE('',(#35));
#34=SURFACE_STYLE_FILL_AREA(#36);
#35=SURFACE_STYLE_FILL_AREA(#37);
#36=FILL_AREA_STYLE('',(#38));
#37=FILL_AREA_STYLE('',(#39));
#38=FILL_AREA_STYLE_COLOUR('',#302);
#39=FILL_AREA_STYLE_COLOUR('',#303);
#40=MANIFOLD_SOLID_BREP('CUT',#42);
#41=MANIFOLD_SOLID_BREP('NOCUT',#43);
#42=CLOSED_SHELL('',(#54,#55,#56,#57,#58));
#43=CLOSED_SHELL('',(#59,#60,#61,#62,#63,#64,#65,#66,#67));
#44=PLANE('',#322);
#45=PLANE('',#326);
#46=PLANE('',#337);
#47=PLANE('',#341);
#48=CYLINDRICAL_SURFACE('',#320,1.3);
#49=CYLINDRICAL_SURFACE('',#323,1.3);
#50=CYLINDRICAL_SURFACE('',#332,1.5);
#51=CYLINDRICAL_SURFACE('',#334,1.5);
#52=CYLINDRICAL_SURFACE('',#339,1.3);
#53=CYLINDRICAL_SURFACE('',#342,1.3);
#54=ADVANCED_FACE('',(#72),#68,.T.);
#55=ADVANCED_FACE('',(#73),#69,.T.);
#56=ADVANCED_FACE('',(#74),#48,.T.);
#57=ADVANCED_FACE('',(#75),#44,.F.);
#58=ADVANCED_FACE('',(#76),#49,.T.);
#59=ADVANCED_FACE('',(#77),#45,.F.);
#60=ADVANCED_FACE('',(#78),#70,.T.);
#61=ADVANCED_FACE('',(#79),#71,.T.);
#62=ADVANCED_FACE('',(#80),#50,.T.);
#63=ADVANCED_FACE('',(#81),#51,.T.);
#64=ADVANCED_FACE('',(#28,#29),#46,.T.);
#65=ADVANCED_FACE('',(#82),#52,.T.);
#66=ADVANCED_FACE('',(#83),#47,.F.);
#67=ADVANCED_FACE('',(#84),#53,.T.);
#68=CONICAL_SURFACE('',#316,0.6942930640576,70.0000971436908);
#69=CONICAL_SURFACE('',#318,0.6942930640576,70.0000971436908);
#70=CONICAL_SURFACE('',#328,1.35,45.0000624495155);
#71=CONICAL_SURFACE('',#330,1.35,45.0000624495155);
#72=FACE_OUTER_BOUND('',#85,.T.);
#73=FACE_OUTER_BOUND('',#86,.T.);
#74=FACE_OUTER_BOUND('',#87,.T.);
#75=FACE_OUTER_BOUND('',#88,.T.);
#76=FACE_OUTER_BOUND('',#89,.T.);
#77=FACE_OUTER_BOUND('',#90,.T.);
#78=FACE_OUTER_BOUND('',#91,.T.);
#79=FACE_OUTER_BOUND('',#92,.T.);
#80=FACE_OUTER_BOUND('',#93,.T.);
#81=FACE_OUTER_BOUND('',#94,.T.);
#82=FACE_OUTER_BOUND('',#97,.T.);
#83=FACE_OUTER_BOUND('',#98,.T.);
#84=FACE_OUTER_BOUND('',#99,.T.);
#85=EDGE_LOOP('',(#100,#101,#102));
#86=EDGE_LOOP('',(#103,#104,#105));
#87=EDGE_LOOP('',(#106,#107,#108,#109));
#88=EDGE_LOOP('',(#110,#111));
#89=EDGE_LOOP('',(#112,#113,#114,#115));
#90=EDGE_LOOP('',(#116,#117));
#91=EDGE_LOOP('',(#118,#119,#120,#121));
#92=EDGE_LOOP('',(#122,#123,#124,#125));
#93=EDGE_LOOP('',(#126,#127,#128,#129));
#94=EDGE_LOOP('',(#130,#131,#132,#133));
#95=EDGE_LOOP('',(#134,#135));
#96=EDGE_LOOP('',(#136,#137));
#97=EDGE_LOOP('',(#138,#139,#140,#141));
#98=EDGE_LOOP('',(#142,#143));
#99=EDGE_LOOP('',(#144,#145,#146,#147));
#100=ORIENTED_EDGE('',*,*,#163,.F.);
#101=ORIENTED_EDGE('',*,*,#164,.F.);
#102=ORIENTED_EDGE('',*,*,#165,.T.);
#103=ORIENTED_EDGE('',*,*,#164,.T.);
#104=ORIENTED_EDGE('',*,*,#166,.F.);
#105=ORIENTED_EDGE('',*,*,#165,.F.);
#106=ORIENTED_EDGE('',*,*,#167,.F.);
#107=ORIENTED_EDGE('',*,*,#166,.T.);
#108=ORIENTED_EDGE('',*,*,#168,.T.);
#109=ORIENTED_EDGE('',*,*,#169,.T.);
#110=ORIENTED_EDGE('',*,*,#169,.F.);
#111=ORIENTED_EDGE('',*,*,#170,.F.);
#112=ORIENTED_EDGE('',*,*,#168,.F.);
#113=ORIENTED_EDGE('',*,*,#163,.T.);
#114=ORIENTED_EDGE('',*,*,#167,.T.);
#115=ORIENTED_EDGE('',*,*,#170,.T.);
#116=ORIENTED_EDGE('',*,*,#171,.F.);
#117=ORIENTED_EDGE('',*,*,#172,.F.);
#118=ORIENTED_EDGE('',*,*,#171,.T.);
#119=ORIENTED_EDGE('',*,*,#173,.F.);
#120=ORIENTED_EDGE('',*,*,#174,.F.);
#121=ORIENTED_EDGE('',*,*,#175,.T.);
#122=ORIENTED_EDGE('',*,*,#176,.F.);
#123=ORIENTED_EDGE('',*,*,#173,.T.);
#124=ORIENTED_EDGE('',*,*,#172,.T.);
#125=ORIENTED_EDGE('',*,*,#175,.F.);
#126=ORIENTED_EDGE('',*,*,#177,.T.);
#127=ORIENTED_EDGE('',*,*,#178,.T.);
#128=ORIENTED_EDGE('',*,*,#176,.T.);
#129=ORIENTED_EDGE('',*,*,#179,.F.);
#130=ORIENTED_EDGE('',*,*,#174,.T.);
#131=ORIENTED_EDGE('',*,*,#178,.F.);
#132=ORIENTED_EDGE('',*,*,#180,.T.);
#133=ORIENTED_EDGE('',*,*,#179,.T.);
#134=ORIENTED_EDGE('',*,*,#181,.F.);
#135=ORIENTED_EDGE('',*,*,#182,.F.);
#136=ORIENTED_EDGE('',*,*,#177,.F.);
#137=ORIENTED_EDGE('',*,*,#180,.F.);
#138=ORIENTED_EDGE('',*,*,#183,.F.);
#139=ORIENTED_EDGE('',*,*,#182,.T.);
#140=ORIENTED_EDGE('',*,*,#184,.T.);
#141=ORIENTED_EDGE('',*,*,#185,.T.);
#142=ORIENTED_EDGE('',*,*,#185,.F.);
#143=ORIENTED_EDGE('',*,*,#186,.F.);
#144=ORIENTED_EDGE('',*,*,#184,.F.);
#145=ORIENTED_EDGE('',*,*,#181,.T.);
#146=ORIENTED_EDGE('',*,*,#183,.T.);
#147=ORIENTED_EDGE('',*,*,#186,.T.);
#148=VERTEX_POINT('',#452);
#149=VERTEX_POINT('',#453);
#150=VERTEX_POINT('',#455);
#151=VERTEX_POINT('',#461);
#152=VERTEX_POINT('',#463);
#153=VERTEX_POINT('',#470);
#154=VERTEX_POINT('',#471);
#155=VERTEX_POINT('',#475);
#156=VERTEX_POINT('',#477);
#157=VERTEX_POINT('',#483);
#158=VERTEX_POINT('',#484);
#159=VERTEX_POINT('',#491);
#160=VERTEX_POINT('',#492);
#161=VERTEX_POINT('',#496);
#162=VERTEX_POINT('',#498);
#163=EDGE_CURVE('',#148,#149,#187,.T.);
#164=EDGE_CURVE('',#150,#148,#237,.T.);
#165=EDGE_CURVE('',#150,#149,#238,.T.);
#166=EDGE_CURVE('',#149,#148,#188,.T.);
#167=EDGE_CURVE('',#149,#151,#239,.T.);
#168=EDGE_CURVE('',#148,#152,#240,.T.);
#169=EDGE_CURVE('',#152,#151,#189,.T.);
#170=EDGE_CURVE('',#151,#152,#190,.T.);
#171=EDGE_CURVE('',#153,#154,#191,.T.);
#172=EDGE_CURVE('',#154,#153,#192,.T.);
#173=EDGE_CURVE('',#155,#154,#241,.T.);
#174=EDGE_CURVE('',#156,#155,#193,.T.);
#175=EDGE_CURVE('',#156,#153,#242,.T.);
#176=EDGE_CURVE('',#155,#156,#194,.T.);
#177=EDGE_CURVE('',#157,#158,#195,.T.);
#178=EDGE_CURVE('',#158,#155,#243,.T.);
#179=EDGE_CURVE('',#157,#156,#244,.T.);
#180=EDGE_CURVE('',#158,#157,#196,.T.);
#181=EDGE_CURVE('',#159,#160,#197,.T.);
#182=EDGE_CURVE('',#160,#159,#198,.T.);
#183=EDGE_CURVE('',#160,#161,#245,.T.);
#184=EDGE_CURVE('',#159,#162,#246,.T.);
#185=EDGE_CURVE('',#162,#161,#199,.T.);
#186=EDGE_CURVE('',#161,#162,#200,.T.);
#187=CIRCLE('',#315,1.3);
#188=CIRCLE('',#317,1.3);
#189=CIRCLE('',#319,1.3);
#190=CIRCLE('',#321,1.3);
#191=CIRCLE('',#324,1.2);
#192=CIRCLE('',#325,1.2);
#193=CIRCLE('',#327,1.5);
#194=CIRCLE('',#329,1.5);
#195=CIRCLE('',#331,1.5);
#196=CIRCLE('',#333,1.5);
#197=CIRCLE('',#335,1.3);
#198=CIRCLE('',#336,1.3);
#199=CIRCLE('',#338,1.3);
#200=CIRCLE('',#340,1.3);
#201=CURVE_STYLE('',#215,POSITIVE_LENGTH_MEASURE(0.7),#299);
#202=CURVE_STYLE('',#216,POSITIVE_LENGTH_MEASURE(0.7),#299);
#203=CURVE_STYLE('',#217,POSITIVE_LENGTH_MEASURE(0.7),#299);
#204=CURVE_STYLE('',#218,POSITIVE_LENGTH_MEASURE(0.7),#299);
#205=CURVE_STYLE('',#219,POSITIVE_LENGTH_MEASURE(0.13),#300);
#206=CURVE_STYLE('',#220,POSITIVE_LENGTH_MEASURE(0.13),#300);
#207=CURVE_STYLE('',#221,POSITIVE_LENGTH_MEASURE(0.13),#301);
#208=CURVE_STYLE('',#222,POSITIVE_LENGTH_MEASURE(0.13),#301);
#209=CURVE_STYLE('',#223,POSITIVE_LENGTH_MEASURE(0.13),#300);
#210=CURVE_STYLE('',#224,POSITIVE_LENGTH_MEASURE(0.13),#300);
#211=CURVE_STYLE('',#225,POSITIVE_LENGTH_MEASURE(0.13),#301);
#212=CURVE_STYLE('',#226,POSITIVE_LENGTH_MEASURE(0.13),#300);
#213=CURVE_STYLE('',#227,POSITIVE_LENGTH_MEASURE(0.13),#300);
#214=CURVE_STYLE('',#228,POSITIVE_LENGTH_MEASURE(0.13),#300);
#215=DRAUGHTING_PRE_DEFINED_CURVE_FONT('continuous');
#216=DRAUGHTING_PRE_DEFINED_CURVE_FONT('continuous');
#217=DRAUGHTING_PRE_DEFINED_CURVE_FONT('continuous');
#218=DRAUGHTING_PRE_DEFINED_CURVE_FONT('continuous');
#219=DRAUGHTING_PRE_DEFINED_CURVE_FONT('continuous');
#220=DRAUGHTING_PRE_DEFINED_CURVE_FONT('continuous');
#221=DRAUGHTING_PRE_DEFINED_CURVE_FONT('continuous');
#222=DRAUGHTING_PRE_DEFINED_CURVE_FONT('continuous');
#223=DRAUGHTING_PRE_DEFINED_CURVE_FONT('continuous');
#224=DRAUGHTING_PRE_DEFINED_CURVE_FONT('continuous');
#225=DRAUGHTING_PRE_DEFINED_CURVE_FONT('continuous');
#226=DRAUGHTING_PRE_DEFINED_CURVE_FONT('continuous');
#227=DRAUGHTING_PRE_DEFINED_CURVE_FONT('continuous');
#228=DRAUGHTING_PRE_DEFINED_CURVE_FONT('continuous');
#229=TRIMMED_CURVE('',#233,(PARAMETER_VALUE(0.)),(PARAMETER_VALUE(1.)),
 .T.,.PARAMETER.);
#230=TRIMMED_CURVE('',#234,(PARAMETER_VALUE(0.)),(PARAMETER_VALUE(1.)),
 .T.,.PARAMETER.);
#231=TRIMMED_CURVE('',#235,(PARAMETER_VALUE(0.)),(PARAMETER_VALUE(1.)),
 .T.,.PARAMETER.);
#232=TRIMMED_CURVE('',#236,(PARAMETER_VALUE(0.)),(PARAMETER_VALUE(1.)),
 .T.,.PARAMETER.);
#233=LINE('',#437,#247);
#234=LINE('',#438,#248);
#235=LINE('',#439,#249);
#236=LINE('',#440,#250);
#237=LINE('',#454,#251);
#238=LINE('',#456,#252);
#239=LINE('',#460,#253);
#240=LINE('',#462,#254);
#241=LINE('',#474,#255);
#242=LINE('',#478,#256);
#243=LINE('',#485,#257);
#244=LINE('',#486,#258);
#245=LINE('',#495,#259);
#246=LINE('',#497,#260);
#247=VECTOR('',#345,1.383431104219);
#248=VECTOR('',#346,78.);
#249=VECTOR('',#347,1.3);
#250=VECTOR('',#348,78.47316130455);
#251=VECTOR('',#371,1.);
#252=VECTOR('',#372,1.);
#253=VECTOR('',#379,1.);
#254=VECTOR('',#380,1.);
#255=VECTOR('',#397,1.);
#256=VECTOR('',#400,1.);
#257=VECTOR('',#409,1.);
#258=VECTOR('',#410,1.);
#259=VECTOR('',#423,1.);
#260=VECTOR('',#424,1.);
#261=PRESENTATION_LAYER_ASSIGNMENT('1','Layer 1',(#436,#229,#230,#231,#232,
#305,#306,#309,#310,#311,#312,#313,#314,#40,#41));
#262=PRESENTATION_LAYER_ASSIGNMENT('2','Layer 2',(#307,#308));
#263=STYLED_ITEM('',(#280),#436);
#264=STYLED_ITEM('',(#281),#229);
#265=STYLED_ITEM('',(#282),#230);
#266=STYLED_ITEM('',(#283),#231);
#267=STYLED_ITEM('',(#284),#232);
#268=STYLED_ITEM('',(#285),#305);
#269=STYLED_ITEM('',(#286),#306);
#270=STYLED_ITEM('',(#287),#307);
#271=STYLED_ITEM('',(#288),#308);
#272=STYLED_ITEM('',(#289),#309);
#273=STYLED_ITEM('',(#290),#310);
#274=STYLED_ITEM('',(#291),#311);
#275=STYLED_ITEM('',(#292),#312);
#276=STYLED_ITEM('',(#293),#313);
#277=STYLED_ITEM('',(#294),#314);
#278=STYLED_ITEM('',(#295),#40);
#279=STYLED_ITEM('',(#296),#41);
#280=PRESENTATION_STYLE_ASSIGNMENT((#297));
#281=PRESENTATION_STYLE_ASSIGNMENT((#201));
#282=PRESENTATION_STYLE_ASSIGNMENT((#202));
#283=PRESENTATION_STYLE_ASSIGNMENT((#203));
#284=PRESENTATION_STYLE_ASSIGNMENT((#204));
#285=PRESENTATION_STYLE_ASSIGNMENT((#205));
#286=PRESENTATION_STYLE_ASSIGNMENT((#206));
#287=PRESENTATION_STYLE_ASSIGNMENT((#207));
#288=PRESENTATION_STYLE_ASSIGNMENT((#208));
#289=PRESENTATION_STYLE_ASSIGNMENT((#209));
#290=PRESENTATION_STYLE_ASSIGNMENT((#210));
#291=PRESENTATION_STYLE_ASSIGNMENT((#211));
#292=PRESENTATION_STYLE_ASSIGNMENT((#212));
#293=PRESENTATION_STYLE_ASSIGNMENT((#213));
#294=PRESENTATION_STYLE_ASSIGNMENT((#214));
#295=PRESENTATION_STYLE_ASSIGNMENT((#30));
#296=PRESENTATION_STYLE_ASSIGNMENT((#31));
#297=POINT_STYLE('',#298,POSITIVE_LENGTH_MEASURE(3.),#299);
#298=PRE_DEFINED_POINT_MARKER_SYMBOL('plus');
#299=COLOUR_RGB('Medium Royal',0.301960784313725,0.427450980392157,0.701960784313725);
#300=COLOUR_RGB('Medium Maroon',0.6,0.4,0.4);
#301=COLOUR_RGB('Strong Fuchsia',0.505882352941176,0.254901960784314,0.403921568627451);
#302=COLOUR_RGB('light gray',0.8,0.8,0.8);
#303=COLOUR_RGB('medium gray',0.490196078431373,0.490196078431373,0.490196078431373);
#304=AXIS2_PLACEMENT_3D('',#435,#343,#344);
#305=AXIS2_PLACEMENT_3D('',#441,#349,#350);
#306=AXIS2_PLACEMENT_3D('',#442,#351,#352);
#307=AXIS2_PLACEMENT_3D('CIP',#443,#353,#354);
#308=AXIS2_PLACEMENT_3D('PCS',#444,#355,#356);
#309=AXIS2_PLACEMENT_3D('MCS',#445,#357,#358);
#310=AXIS2_PLACEMENT_3D('',#446,#359,#360);
#311=AXIS2_PLACEMENT_3D('STEP_TEMP_2_1',#447,#361,#362);
#312=AXIS2_PLACEMENT_3D('',#448,#363,#364);
#313=AXIS2_PLACEMENT_3D('',#449,#365,#366);
#314=AXIS2_PLACEMENT_3D('',#450,#367,#368);
#315=AXIS2_PLACEMENT_3D('',#451,#369,#370);
#316=AXIS2_PLACEMENT_3D('',#457,#373,#374);
#317=AXIS2_PLACEMENT_3D('',#458,#375,#376);
#318=AXIS2_PLACEMENT_3D('',#459,#377,#378);
#319=AXIS2_PLACEMENT_3D('',#464,#381,#382);
#320=AXIS2_PLACEMENT_3D('',#465,#383,#384);
#321=AXIS2_PLACEMENT_3D('',#466,#385,#386);
#322=AXIS2_PLACEMENT_3D('',#467,#387,#388);
#323=AXIS2_PLACEMENT_3D('',#468,#389,#390);
#324=AXIS2_PLACEMENT_3D('',#469,#391,#392);
#325=AXIS2_PLACEMENT_3D('',#472,#393,#394);
#326=AXIS2_PLACEMENT_3D('',#473,#395,#396);
#327=AXIS2_PLACEMENT_3D('',#476,#398,#399);
#328=AXIS2_PLACEMENT_3D('',#479,#401,#402);
#329=AXIS2_PLACEMENT_3D('',#480,#403,#404);
#330=AXIS2_PLACEMENT_3D('',#481,#405,#406);
#331=AXIS2_PLACEMENT_3D('',#482,#407,#408);
#332=AXIS2_PLACEMENT_3D('',#487,#411,#412);
#333=AXIS2_PLACEMENT_3D('',#488,#413,#414);
#334=AXIS2_PLACEMENT_3D('',#489,#415,#416);
#335=AXIS2_PLACEMENT_3D('',#490,#417,#418);
#336=AXIS2_PLACEMENT_3D('',#493,#419,#420);
#337=AXIS2_PLACEMENT_3D('',#494,#421,#422);
#338=AXIS2_PLACEMENT_3D('',#499,#425,#426);
#339=AXIS2_PLACEMENT_3D('',#500,#427,#428);
#340=AXIS2_PLACEMENT_3D('',#501,#429,#430);
#341=AXIS2_PLACEMENT_3D('',#502,#431,#432);
#342=AXIS2_PLACEMENT_3D('',#503,#433,#434);
#343=DIRECTION('',(0.,0.,1.));
#344=DIRECTION('',(1.,0.,0.));
#345=DIRECTION('',(-0.939692620785897,0.,0.342020143325699));
#346=DIRECTION('',(0.,0.,1.));
#347=DIRECTION('',(1.,0.,0.));
#348=DIRECTION('',(0.,0.,-1.));
#349=DIRECTION('',(0.,0.,1.));
#350=DIRECTION('',(1.,0.,0.));
#351=DIRECTION('',(0.,0.,1.));
#352=DIRECTION('',(1.,0.,0.));
#353=DIRECTION('',(0.,0.,1.));
#354=DIRECTION('',(1.,0.,0.));
#355=DIRECTION('',(0.,0.,1.));
#356=DIRECTION('',(1.,0.,0.));
#357=DIRECTION('',(0.,0.,1.));
#358=DIRECTION('',(1.,0.,0.));
#359=DIRECTION('',(0.,0.,1.));
#360=DIRECTION('',(1.,0.,0.));
#361=DIRECTION('',(0.,0.,1.));
#362=DIRECTION('',(1.,0.,0.));
#363=DIRECTION('',(0.,0.,1.));
#364=DIRECTION('',(1.,0.,0.));
#365=DIRECTION('',(0.,0.,1.));
#366=DIRECTION('',(1.,0.,0.));
#367=DIRECTION('',(0.,0.,1.));
#368=DIRECTION('',(1.,0.,0.));
#369=DIRECTION('',(0.,0.,1.));
#370=DIRECTION('',(0.,-1.,0.));
#371=DIRECTION('',(0.,-0.939692620785897,0.342020143325699));
#372=DIRECTION('',(0.,0.939692620785897,0.342020143325699));
#373=DIRECTION('',(0.,0.,1.));
#374=DIRECTION('',(0.,1.,-4.33967096869537E-18));
#375=DIRECTION('',(0.,0.,1.));
#376=DIRECTION('',(0.,1.,0.));
#377=DIRECTION('',(0.,0.,1.));
#378=DIRECTION('',(0.,1.,-4.33967096869537E-18));
#379=DIRECTION('',(0.,0.,1.));
#380=DIRECTION('',(0.,0.,1.));
#381=DIRECTION('',(0.,0.,-1.));
#382=DIRECTION('',(0.,-1.,0.));
#383=DIRECTION('',(0.,0.,-1.));
#384=DIRECTION('',(0.,-1.,0.));
#385=DIRECTION('',(0.,0.,-1.));
#386=DIRECTION('',(0.,1.,0.));
#387=DIRECTION('',(0.,0.,-1.));
#388=DIRECTION('',(-1.,0.,0.));
#389=DIRECTION('',(0.,0.,-1.));
#390=DIRECTION('',(0.,-1.,0.));
#391=DIRECTION('',(0.,0.,-1.));
#392=DIRECTION('',(0.,1.,0.));
#393=DIRECTION('',(0.,0.,-1.));
#394=DIRECTION('',(0.,-1.,0.));
#395=DIRECTION('',(0.,0.,-1.));
#396=DIRECTION('',(0.,-1.,0.));
#397=DIRECTION('',(0.,0.707106781186597,0.707106781186498));
#398=DIRECTION('',(0.,0.,-1.));
#399=DIRECTION('',(0.,1.,0.));
#400=DIRECTION('',(0.,-0.707106781186597,0.707106781186498));
#401=DIRECTION('',(0.,0.,-1.));
#402=DIRECTION('',(0.,-1.,-5.54361915272479E-17));
#403=DIRECTION('',(0.,0.,-1.));
#404=DIRECTION('',(0.,-1.,0.));
#405=DIRECTION('',(0.,0.,-1.));
#406=DIRECTION('',(0.,-1.,-5.54361915272479E-17));
#407=DIRECTION('',(0.,0.,1.));
#408=DIRECTION('',(0.,1.,0.));
#409=DIRECTION('',(0.,0.,1.));
#410=DIRECTION('',(0.,0.,1.));
#411=DIRECTION('',(0.,0.,-1.));
#412=DIRECTION('',(0.,-1.,0.));
#413=DIRECTION('',(0.,0.,1.));
#414=DIRECTION('',(0.,-1.,0.));
#415=DIRECTION('',(0.,0.,-1.));
#416=DIRECTION('',(0.,-1.,0.));
#417=DIRECTION('',(0.,0.,-1.));
#418=DIRECTION('',(0.,1.,0.));
#419=DIRECTION('',(0.,0.,-1.));
#420=DIRECTION('',(0.,-1.,0.));
#421=DIRECTION('',(0.,0.,-1.));
#422=DIRECTION('',(0.,-1.,0.));
#423=DIRECTION('',(0.,0.,-1.));
#424=DIRECTION('',(0.,0.,-1.));
#425=DIRECTION('',(0.,0.,1.));
#426=DIRECTION('',(0.,1.,0.));
#427=DIRECTION('',(0.,0.,-1.));
#428=DIRECTION('',(0.,-1.,0.));
#429=DIRECTION('',(0.,0.,1.));
#430=DIRECTION('',(0.,-1.,0.));
#431=DIRECTION('',(0.,0.,1.));
#432=DIRECTION('',(1.,0.,0.));
#433=DIRECTION('',(0.,0.,-1.));
#434=DIRECTION('',(0.,-1.,0.));
#435=CARTESIAN_POINT('',(0.,0.,0.));
#436=CARTESIAN_POINT('CRP',(-1.3,0.,0.4731613045461));
#437=CARTESIAN_POINT('',(0.,0.,0.));
#438=CARTESIAN_POINT('',(-1.3,0.,0.4731613045461));
#439=CARTESIAN_POINT('',(-1.3,0.,78.47316130455));
#440=CARTESIAN_POINT('',(0.,0.,78.47316130455));
#441=CARTESIAN_POINT('',(0.,0.,0.));
#442=CARTESIAN_POINT('',(0.,0.,0.));
#443=CARTESIAN_POINT('',(0.,0.,0.));
#444=CARTESIAN_POINT('',(0.,0.,132.4731613045));
#445=CARTESIAN_POINT('',(0.,0.,88.4731613));
#446=CARTESIAN_POINT('',(0.,0.,0.));
#447=CARTESIAN_POINT('',(0.,0.,0.));
#448=CARTESIAN_POINT('',(0.,0.,0.));
#449=CARTESIAN_POINT('',(0.,0.,0.));
#450=CARTESIAN_POINT('',(0.,0.,0.));
#451=CARTESIAN_POINT('',(0.,-2.428389398583E-14,0.4731613045461));
#452=CARTESIAN_POINT('',(0.,-1.3,0.4731613045461));
#453=CARTESIAN_POINT('',(0.,1.3,0.4731613045461));
#454=CARTESIAN_POINT('',(0.,-1.3,0.4731613045461));
#455=CARTESIAN_POINT('',(0.,-2.420286193683E-14,0.));
#456=CARTESIAN_POINT('',(0.,1.3,0.4731613045461));
#457=CARTESIAN_POINT('',(0.,-2.428389398583E-14,0.2527020091745));
#458=CARTESIAN_POINT('',(0.,-2.428389398583E-14,0.4731613045461));
#459=CARTESIAN_POINT('',(0.,-2.428389398583E-14,0.2527020091745));
#460=CARTESIAN_POINT('',(0.,1.3,78.4731613));
#461=CARTESIAN_POINT('',(0.,1.3,78.4731613));
#462=CARTESIAN_POINT('',(0.,-1.3,78.4731613));
#463=CARTESIAN_POINT('',(0.,-1.3,78.4731613));
#464=CARTESIAN_POINT('',(0.,0.,78.4731613));
#465=CARTESIAN_POINT('',(0.,0.,139.0968193698));
#466=CARTESIAN_POINT('',(0.,0.,78.4731613));
#467=CARTESIAN_POINT('',(150.,150.,78.4731613));
#468=CARTESIAN_POINT('',(0.,0.,139.0968193698));
#469=CARTESIAN_POINT('',(0.,0.,132.4731613045));
#470=CARTESIAN_POINT('',(0.,1.2,132.4731613045));
#471=CARTESIAN_POINT('',(0.,-1.2,132.4731613045));
#472=CARTESIAN_POINT('',(0.,0.,132.4731613045));
#473=CARTESIAN_POINT('',(0.,0.,132.4731613045));
#474=CARTESIAN_POINT('',(0.,-1.2,132.4731613045));
#475=CARTESIAN_POINT('',(0.,-1.5,132.1731613045));
#476=CARTESIAN_POINT('',(0.,0.,132.1731613045));
#477=CARTESIAN_POINT('',(0.,1.5,132.1731613045));
#478=CARTESIAN_POINT('',(0.,1.2,132.4731613045));
#479=CARTESIAN_POINT('',(0.,0.,132.3231613045));
#480=CARTESIAN_POINT('',(0.,0.,132.1731613045));
#481=CARTESIAN_POINT('',(0.,0.,132.3231613045));
#482=CARTESIAN_POINT('',(0.,0.,86.47316130455));
#483=CARTESIAN_POINT('',(0.,1.5,86.47316130455));
#484=CARTESIAN_POINT('',(0.,-1.5,86.47316130455));
#485=CARTESIAN_POINT('',(0.,-1.5,132.1731613045));
#486=CARTESIAN_POINT('',(0.,1.5,132.1731613045));
#487=CARTESIAN_POINT('',(0.,0.,139.0968193698));
#488=CARTESIAN_POINT('',(0.,0.,86.47316130455));
#489=CARTESIAN_POINT('',(0.,0.,139.0968193698));
#490=CARTESIAN_POINT('',(0.,0.,86.47316130455));
#491=CARTESIAN_POINT('',(0.,1.3,86.47316130455));
#492=CARTESIAN_POINT('',(0.,-1.3,86.47316130455));
#493=CARTESIAN_POINT('',(0.,0.,86.47316130455));
#494=CARTESIAN_POINT('',(0.,0.,86.47316130455));
#495=CARTESIAN_POINT('',(0.,-1.3,86.47316130455));
#496=CARTESIAN_POINT('',(0.,-1.3,78.4731613));
#497=CARTESIAN_POINT('',(0.,1.3,86.47316130455));
#498=CARTESIAN_POINT('',(0.,1.3,78.4731613));
#499=CARTESIAN_POINT('',(0.,0.,78.4731613));
#500=CARTESIAN_POINT('',(0.,0.,139.0968193698));
#501=CARTESIAN_POINT('',(0.,0.,78.4731613));
#502=CARTESIAN_POINT('',(-150.,150.,78.4731613));
#503=CARTESIAN_POINT('',(0.,0.,139.0968193698));
#504=MECHANICAL_DESIGN_GEOMETRIC_PRESENTATION_REPRESENTATION('',(#263,#264,
#265,#266,#267,#268,#269,#270,#271,#272,#273,#274,#275,#276,#277,#278,#279),
#505);
#505=(
GEOMETRIC_REPRESENTATION_CONTEXT(3)
GLOBAL_UNCERTAINTY_ASSIGNED_CONTEXT((#506))
GLOBAL_UNIT_ASSIGNED_CONTEXT((#512,#508,#507))
REPRESENTATION_CONTEXT('MWS0260X30DB','TOP_LEVEL_ASSEMBLY_PART')
);
#506=UNCERTAINTY_MEASURE_WITH_UNIT(LENGTH_MEASURE(0.001),#512,
'DISTANCE_ACCURACY_VALUE','Maximum Tolerance applied to model');
#507=(
NAMED_UNIT(*)
SI_UNIT($,.STERADIAN.)
SOLID_ANGLE_UNIT()
);
#508=(
CONVERSION_BASED_UNIT('DEGREE',#510)
NAMED_UNIT(#509)
PLANE_ANGLE_UNIT()
);
#509=DIMENSIONAL_EXPONENTS(0.,0.,0.,0.,0.,0.,0.);
#510=PLANE_ANGLE_MEASURE_WITH_UNIT(PLANE_ANGLE_MEASURE(0.0174532925),#511);
#511=(
NAMED_UNIT(*)
PLANE_ANGLE_UNIT()
SI_UNIT($,.RADIAN.)
);
#512=(
LENGTH_UNIT()
NAMED_UNIT(*)
SI_UNIT(.MILLI.,.METRE.)
);
ENDSEC;
END-ISO-10303-21;
