ISO-10303-21;
HEADER;
/* Generated by software containing ST-Developer
 * from STEP Tools, Inc. (www.steptools.com) 
 */
/* OPTION: using custom schema-name function */

FILE_DESCRIPTION(
/* description */ (''),
/* implementation_level */ '2;1');

FILE_NAME(
/* name */ 'TAWLN0100_ID0_9688.stp',
/* time_stamp */ '2025-06-11T17:03:18+09:00',
/* author */ (''),
/* organization */ (''),
/* preprocessor_version */ 'ST-DEVELOPER v18.101',
/* originating_system */ 'SIEMENS PLM Software NX 2011',
/* authorisation */ '');

FILE_SCHEMA (('AUTOMOTIVE_DESIGN { 1 0 10303 214 3 1 1 1 }'));
ENDSEC;

DATA;
#10=CONSTRUCTIVE_GEOMETRY_REPRESENTATION_RELATIONSHIP(
'supplemental geometry','',#26,#11);
#11=CONSTRUCTIVE_GEOMETRY_REPRESENTATION('supplemental geometry',(#359,
#360,#361,#362,#363,#364,#365),#619);
#12=GEOMETRICALLY_BOUNDED_WIREFRAME_SHAPE_REPRESENTATION(
'TAWLN0100_ID0_9688-None',(#27),#619);
#13=SHAPE_REPRESENTATION_RELATIONSHIP('None',
'relationship between TAWLN0100_ID0_9688-None and TAWLN0100_ID0_9688-N
one',#26,#15);
#14=SHAPE_REPRESENTATION_RELATIONSHIP('None',
'relationship between TAWLN0100_ID0_9688-None and TAWLN0100_ID0_9688-N
one',#26,#12);
#15=ADVANCED_BREP_SHAPE_REPRESENTATION('TAWLN0100_ID0_9688-None',(#42,#43),
#619);
#16=SHAPE_DEFINITION_REPRESENTATION(#17,#26);
#17=PRODUCT_DEFINITION_SHAPE('','SHAPE FOR TAWLN0100_ID0_9688_ASM.',#18);
#18=PRODUCT_DEFINITION('part definition','',#20,#19);
#19=PRODUCT_DEFINITION_CONTEXT('part definition',#25,'design');
#20=PRODUCT_DEFINITION_FORMATION_WITH_SPECIFIED_SOURCE(' ',' ',#22,
 .NOT_KNOWN.);
#21=PRODUCT_RELATED_PRODUCT_CATEGORY('part','',(#22));
#22=PRODUCT('TAWLN0100_ID0_9688_ASM','TAWLN0100_ID0_9688_ASM',
'NOT SPECIFIED',(#23));
#23=PRODUCT_CONTEXT('',#25,'mechanical');
#24=APPLICATION_PROTOCOL_DEFINITION('international standard',
'automotive_design',2010,#25);
#25=APPLICATION_CONTEXT(
'core data for automotive mechanical design processes');
#26=SHAPE_REPRESENTATION('TAWLN0100_ID0_9688-None',(#358),#619);
#27=GEOMETRIC_CURVE_SET('None',(#516,#285,#286,#287,#288));
#28=TOROIDAL_SURFACE('',#389,15.9837296594,0.4);
#29=TOROIDAL_SURFACE('',#391,15.9837296594,0.4);
#30=TOROIDAL_SURFACE('',#401,12.4,0.4);
#31=TOROIDAL_SURFACE('',#403,12.4,0.4);
#32=SURFACE_STYLE_USAGE(.BOTH.,#34);
#33=SURFACE_STYLE_USAGE(.BOTH.,#35);
#34=SURFACE_SIDE_STYLE('',(#36));
#35=SURFACE_SIDE_STYLE('',(#37));
#36=SURFACE_STYLE_FILL_AREA(#38);
#37=SURFACE_STYLE_FILL_AREA(#39);
#38=FILL_AREA_STYLE('',(#40));
#39=FILL_AREA_STYLE('',(#41));
#40=FILL_AREA_STYLE_COLOUR('',#356);
#41=FILL_AREA_STYLE_COLOUR('',#357);
#42=MANIFOLD_SOLID_BREP('CUT',#44);
#43=MANIFOLD_SOLID_BREP('NOCUT',#45);
#44=CLOSED_SHELL('',(#75,#76,#77,#78,#79));
#45=CLOSED_SHELL('',(#80,#81,#82,#83,#84,#85,#86,#87,#88,#89,#90,#91,#92,
#93));
#46=PLANE('',#372);
#47=PLANE('',#378);
#48=PLANE('',#396);
#49=CYLINDRICAL_SURFACE('',#369,12.30376);
#50=CYLINDRICAL_SURFACE('',#371,12.30376);
#51=CYLINDRICAL_SURFACE('',#375,15.875);
#52=CYLINDRICAL_SURFACE('',#383,15.875);
#53=CYLINDRICAL_SURFACE('',#398,12.);
#54=CYLINDRICAL_SURFACE('',#404,12.);
#55=CIRCLE('',#368,12.30376);
#56=CIRCLE('',#370,12.30376);
#57=CIRCLE('',#373,15.875);
#58=CIRCLE('',#374,15.875);
#59=CIRCLE('',#376,14.72029946162);
#60=CIRCLE('',#377,14.72029946162);
#61=CIRCLE('',#380,15.875);
#62=CIRCLE('',#382,15.875);
#63=CIRCLE('',#384,12.20693175073);
#64=CIRCLE('',#385,15.58630091713);
#65=CIRCLE('',#387,0.4);
#66=CIRCLE('',#388,0.4);
#67=CIRCLE('',#390,15.58630091713);
#68=CIRCLE('',#392,12.20693175072);
#69=CIRCLE('',#394,12.);
#70=CIRCLE('',#395,12.);
#71=CIRCLE('',#397,12.);
#72=CIRCLE('',#399,0.4);
#73=CIRCLE('',#400,0.4);
#74=CIRCLE('',#402,12.);
#75=ADVANCED_FACE('',(#100),#94,.T.);
#76=ADVANCED_FACE('',(#101),#95,.T.);
#77=ADVANCED_FACE('',(#102),#49,.T.);
#78=ADVANCED_FACE('',(#103),#50,.T.);
#79=ADVANCED_FACE('',(#104),#46,.T.);
#80=ADVANCED_FACE('',(#105),#51,.T.);
#81=ADVANCED_FACE('',(#106),#47,.T.);
#82=ADVANCED_FACE('',(#107),#96,.T.);
#83=ADVANCED_FACE('',(#108),#97,.T.);
#84=ADVANCED_FACE('',(#109),#52,.T.);
#85=ADVANCED_FACE('',(#110),#98,.T.);
#86=ADVANCED_FACE('',(#111),#28,.F.);
#87=ADVANCED_FACE('',(#112),#29,.F.);
#88=ADVANCED_FACE('',(#113),#99,.T.);
#89=ADVANCED_FACE('',(#114),#48,.F.);
#90=ADVANCED_FACE('',(#115),#53,.T.);
#91=ADVANCED_FACE('',(#116),#30,.F.);
#92=ADVANCED_FACE('',(#117),#31,.F.);
#93=ADVANCED_FACE('',(#118),#54,.T.);
#94=CONICAL_SURFACE('',#366,6.274917600003,70.0000971436908);
#95=CONICAL_SURFACE('',#367,6.274917600003,70.0000971436908);
#96=CONICAL_SURFACE('',#379,15.29764973081,30.0000416330103);
#97=CONICAL_SURFACE('',#381,15.29764973081,30.0000416330103);
#98=CONICAL_SURFACE('',#386,13.89661633392,6.50000902048557);
#99=CONICAL_SURFACE('',#393,13.89661633392,6.50000902048557);
#100=FACE_OUTER_BOUND('',#119,.T.);
#101=FACE_OUTER_BOUND('',#120,.T.);
#102=FACE_OUTER_BOUND('',#121,.T.);
#103=FACE_OUTER_BOUND('',#122,.T.);
#104=FACE_OUTER_BOUND('',#123,.T.);
#105=FACE_OUTER_BOUND('',#124,.T.);
#106=FACE_OUTER_BOUND('',#125,.T.);
#107=FACE_OUTER_BOUND('',#126,.T.);
#108=FACE_OUTER_BOUND('',#127,.T.);
#109=FACE_OUTER_BOUND('',#128,.T.);
#110=FACE_OUTER_BOUND('',#129,.T.);
#111=FACE_OUTER_BOUND('',#130,.T.);
#112=FACE_OUTER_BOUND('',#131,.T.);
#113=FACE_OUTER_BOUND('',#132,.T.);
#114=FACE_OUTER_BOUND('',#133,.T.);
#115=FACE_OUTER_BOUND('',#134,.T.);
#116=FACE_OUTER_BOUND('',#135,.T.);
#117=FACE_OUTER_BOUND('',#136,.T.);
#118=FACE_OUTER_BOUND('',#137,.T.);
#119=EDGE_LOOP('',(#138,#139,#140));
#120=EDGE_LOOP('',(#141,#142,#143));
#121=EDGE_LOOP('',(#144,#145,#146,#147));
#122=EDGE_LOOP('',(#148,#149,#150,#151));
#123=EDGE_LOOP('',(#152,#153));
#124=EDGE_LOOP('',(#154,#155,#156,#157));
#125=EDGE_LOOP('',(#158,#159));
#126=EDGE_LOOP('',(#160,#161,#162,#163));
#127=EDGE_LOOP('',(#164,#165,#166,#167));
#128=EDGE_LOOP('',(#168,#169,#170,#171));
#129=EDGE_LOOP('',(#172,#173,#174,#175));
#130=EDGE_LOOP('',(#176,#177,#178,#179));
#131=EDGE_LOOP('',(#180,#181,#182,#183));
#132=EDGE_LOOP('',(#184,#185,#186,#187));
#133=EDGE_LOOP('',(#188,#189));
#134=EDGE_LOOP('',(#190,#191,#192,#193));
#135=EDGE_LOOP('',(#194,#195,#196,#197));
#136=EDGE_LOOP('',(#198,#199,#200,#201));
#137=EDGE_LOOP('',(#202,#203,#204,#205));
#138=ORIENTED_EDGE('',*,*,#225,.T.);
#139=ORIENTED_EDGE('',*,*,#226,.F.);
#140=ORIENTED_EDGE('',*,*,#227,.T.);
#141=ORIENTED_EDGE('',*,*,#227,.F.);
#142=ORIENTED_EDGE('',*,*,#226,.T.);
#143=ORIENTED_EDGE('',*,*,#228,.T.);
#144=ORIENTED_EDGE('',*,*,#228,.F.);
#145=ORIENTED_EDGE('',*,*,#229,.F.);
#146=ORIENTED_EDGE('',*,*,#230,.F.);
#147=ORIENTED_EDGE('',*,*,#231,.T.);
#148=ORIENTED_EDGE('',*,*,#225,.F.);
#149=ORIENTED_EDGE('',*,*,#231,.F.);
#150=ORIENTED_EDGE('',*,*,#232,.F.);
#151=ORIENTED_EDGE('',*,*,#229,.T.);
#152=ORIENTED_EDGE('',*,*,#230,.T.);
#153=ORIENTED_EDGE('',*,*,#232,.T.);
#154=ORIENTED_EDGE('',*,*,#233,.T.);
#155=ORIENTED_EDGE('',*,*,#234,.F.);
#156=ORIENTED_EDGE('',*,*,#235,.F.);
#157=ORIENTED_EDGE('',*,*,#236,.F.);
#158=ORIENTED_EDGE('',*,*,#237,.T.);
#159=ORIENTED_EDGE('',*,*,#238,.T.);
#160=ORIENTED_EDGE('',*,*,#236,.T.);
#161=ORIENTED_EDGE('',*,*,#239,.T.);
#162=ORIENTED_EDGE('',*,*,#238,.F.);
#163=ORIENTED_EDGE('',*,*,#240,.F.);
#164=ORIENTED_EDGE('',*,*,#237,.F.);
#165=ORIENTED_EDGE('',*,*,#239,.F.);
#166=ORIENTED_EDGE('',*,*,#241,.T.);
#167=ORIENTED_EDGE('',*,*,#240,.T.);
#168=ORIENTED_EDGE('',*,*,#235,.T.);
#169=ORIENTED_EDGE('',*,*,#242,.F.);
#170=ORIENTED_EDGE('',*,*,#233,.F.);
#171=ORIENTED_EDGE('',*,*,#241,.F.);
#172=ORIENTED_EDGE('',*,*,#243,.F.);
#173=ORIENTED_EDGE('',*,*,#244,.F.);
#174=ORIENTED_EDGE('',*,*,#245,.T.);
#175=ORIENTED_EDGE('',*,*,#246,.F.);
#176=ORIENTED_EDGE('',*,*,#247,.T.);
#177=ORIENTED_EDGE('',*,*,#242,.T.);
#178=ORIENTED_EDGE('',*,*,#248,.F.);
#179=ORIENTED_EDGE('',*,*,#246,.T.);
#180=ORIENTED_EDGE('',*,*,#248,.T.);
#181=ORIENTED_EDGE('',*,*,#234,.T.);
#182=ORIENTED_EDGE('',*,*,#247,.F.);
#183=ORIENTED_EDGE('',*,*,#249,.T.);
#184=ORIENTED_EDGE('',*,*,#245,.F.);
#185=ORIENTED_EDGE('',*,*,#250,.F.);
#186=ORIENTED_EDGE('',*,*,#243,.T.);
#187=ORIENTED_EDGE('',*,*,#249,.F.);
#188=ORIENTED_EDGE('',*,*,#251,.T.);
#189=ORIENTED_EDGE('',*,*,#252,.T.);
#190=ORIENTED_EDGE('',*,*,#253,.T.);
#191=ORIENTED_EDGE('',*,*,#251,.F.);
#192=ORIENTED_EDGE('',*,*,#254,.F.);
#193=ORIENTED_EDGE('',*,*,#255,.F.);
#194=ORIENTED_EDGE('',*,*,#256,.F.);
#195=ORIENTED_EDGE('',*,*,#250,.T.);
#196=ORIENTED_EDGE('',*,*,#257,.T.);
#197=ORIENTED_EDGE('',*,*,#255,.T.);
#198=ORIENTED_EDGE('',*,*,#257,.F.);
#199=ORIENTED_EDGE('',*,*,#244,.T.);
#200=ORIENTED_EDGE('',*,*,#256,.T.);
#201=ORIENTED_EDGE('',*,*,#258,.T.);
#202=ORIENTED_EDGE('',*,*,#254,.T.);
#203=ORIENTED_EDGE('',*,*,#252,.F.);
#204=ORIENTED_EDGE('',*,*,#253,.F.);
#205=ORIENTED_EDGE('',*,*,#258,.F.);
#206=VERTEX_POINT('',#538);
#207=VERTEX_POINT('',#539);
#208=VERTEX_POINT('',#541);
#209=VERTEX_POINT('',#556);
#210=VERTEX_POINT('',#558);
#211=VERTEX_POINT('',#565);
#212=VERTEX_POINT('',#566);
#213=VERTEX_POINT('',#568);
#214=VERTEX_POINT('',#570);
#215=VERTEX_POINT('',#574);
#216=VERTEX_POINT('',#575);
#217=VERTEX_POINT('',#586);
#218=VERTEX_POINT('',#587);
#219=VERTEX_POINT('',#589);
#220=VERTEX_POINT('',#591);
#221=VERTEX_POINT('',#602);
#222=VERTEX_POINT('',#603);
#223=VERTEX_POINT('',#607);
#224=VERTEX_POINT('',#609);
#225=EDGE_CURVE('',#206,#207,#259,.T.);
#226=EDGE_CURVE('',#208,#207,#293,.T.);
#227=EDGE_CURVE('',#208,#206,#294,.T.);
#228=EDGE_CURVE('',#207,#206,#260,.T.);
#229=EDGE_CURVE('',#209,#207,#295,.T.);
#230=EDGE_CURVE('',#210,#209,#55,.T.);
#231=EDGE_CURVE('',#210,#206,#296,.T.);
#232=EDGE_CURVE('',#209,#210,#56,.T.);
#233=EDGE_CURVE('',#211,#212,#297,.T.);
#234=EDGE_CURVE('',#213,#212,#57,.T.);
#235=EDGE_CURVE('',#214,#213,#298,.T.);
#236=EDGE_CURVE('',#211,#214,#58,.T.);
#237=EDGE_CURVE('',#215,#216,#59,.T.);
#238=EDGE_CURVE('',#216,#215,#60,.T.);
#239=EDGE_CURVE('',#214,#215,#299,.T.);
#240=EDGE_CURVE('',#211,#216,#300,.T.);
#241=EDGE_CURVE('',#214,#211,#61,.T.);
#242=EDGE_CURVE('',#212,#213,#62,.T.);
#243=EDGE_CURVE('',#217,#218,#301,.T.);
#244=EDGE_CURVE('',#219,#217,#63,.T.);
#245=EDGE_CURVE('',#219,#220,#302,.T.);
#246=EDGE_CURVE('',#218,#220,#64,.T.);
#247=EDGE_CURVE('',#220,#212,#65,.T.);
#248=EDGE_CURVE('',#218,#213,#66,.T.);
#249=EDGE_CURVE('',#220,#218,#67,.T.);
#250=EDGE_CURVE('',#217,#219,#68,.T.);
#251=EDGE_CURVE('',#221,#222,#69,.T.);
#252=EDGE_CURVE('',#222,#221,#70,.T.);
#253=EDGE_CURVE('',#223,#222,#303,.T.);
#254=EDGE_CURVE('',#224,#221,#304,.T.);
#255=EDGE_CURVE('',#223,#224,#71,.T.);
#256=EDGE_CURVE('',#217,#224,#72,.T.);
#257=EDGE_CURVE('',#219,#223,#73,.T.);
#258=EDGE_CURVE('',#224,#223,#74,.T.);
#259=B_SPLINE_CURVE_WITH_KNOTS('',3,(#528,#529,#530,#531,#532,#533,#534,
#535,#536,#537),.UNSPECIFIED.,.F.,.F.,(4,2,2,2,4),(0.,0.25,0.5,0.75,1.),
 .UNSPECIFIED.);
#260=B_SPLINE_CURVE_WITH_KNOTS('',3,(#544,#545,#546,#547,#548,#549,#550,
#551,#552,#553),.UNSPECIFIED.,.F.,.F.,(4,2,2,2,4),(0.,0.25,0.5,0.75,1.),
 .UNSPECIFIED.);
#261=CURVE_STYLE('',#274,POSITIVE_LENGTH_MEASURE(0.13),#272);
#262=CURVE_STYLE('',#275,POSITIVE_LENGTH_MEASURE(0.13),#272);
#263=CURVE_STYLE('',#276,POSITIVE_LENGTH_MEASURE(0.13),#272);
#264=CURVE_STYLE('',#277,POSITIVE_LENGTH_MEASURE(0.13),#272);
#265=CURVE_STYLE('',#278,POSITIVE_LENGTH_MEASURE(0.13),#354);
#266=CURVE_STYLE('',#279,POSITIVE_LENGTH_MEASURE(0.13),#354);
#267=CURVE_STYLE('',#280,POSITIVE_LENGTH_MEASURE(0.13),#355);
#268=CURVE_STYLE('',#281,POSITIVE_LENGTH_MEASURE(0.13),#273);
#269=CURVE_STYLE('',#282,POSITIVE_LENGTH_MEASURE(0.13),#273);
#270=CURVE_STYLE('',#283,POSITIVE_LENGTH_MEASURE(0.13),#354);
#271=CURVE_STYLE('',#284,POSITIVE_LENGTH_MEASURE(0.13),#354);
#272=DRAUGHTING_PRE_DEFINED_COLOUR('blue');
#273=DRAUGHTING_PRE_DEFINED_COLOUR('yellow');
#274=DRAUGHTING_PRE_DEFINED_CURVE_FONT('continuous');
#275=DRAUGHTING_PRE_DEFINED_CURVE_FONT('continuous');
#276=DRAUGHTING_PRE_DEFINED_CURVE_FONT('continuous');
#277=DRAUGHTING_PRE_DEFINED_CURVE_FONT('continuous');
#278=DRAUGHTING_PRE_DEFINED_CURVE_FONT('continuous');
#279=DRAUGHTING_PRE_DEFINED_CURVE_FONT('continuous');
#280=DRAUGHTING_PRE_DEFINED_CURVE_FONT('continuous');
#281=DRAUGHTING_PRE_DEFINED_CURVE_FONT('continuous');
#282=DRAUGHTING_PRE_DEFINED_CURVE_FONT('continuous');
#283=DRAUGHTING_PRE_DEFINED_CURVE_FONT('continuous');
#284=DRAUGHTING_PRE_DEFINED_CURVE_FONT('continuous');
#285=TRIMMED_CURVE('',#289,(PARAMETER_VALUE(0.)),(PARAMETER_VALUE(1.)),
 .T.,.PARAMETER.);
#286=TRIMMED_CURVE('',#290,(PARAMETER_VALUE(0.)),(PARAMETER_VALUE(1.)),
 .T.,.PARAMETER.);
#287=TRIMMED_CURVE('',#291,(PARAMETER_VALUE(0.)),(PARAMETER_VALUE(1.)),
 .T.,.PARAMETER.);
#288=TRIMMED_CURVE('',#292,(PARAMETER_VALUE(0.)),(PARAMETER_VALUE(1.)),
 .T.,.PARAMETER.);
#289=LINE('',#517,#305);
#290=LINE('',#518,#306);
#291=LINE('',#519,#307);
#292=LINE('',#520,#308);
#293=LINE('',#540,#309);
#294=LINE('',#542,#310);
#295=LINE('',#555,#311);
#296=LINE('',#559,#312);
#297=LINE('',#564,#313);
#298=LINE('',#569,#314);
#299=LINE('',#578,#315);
#300=LINE('',#579,#316);
#301=LINE('',#585,#317);
#302=LINE('',#590,#318);
#303=LINE('',#606,#319);
#304=LINE('',#608,#320);
#305=VECTOR('',#407,12.30376);
#306=VECTOR('',#408,16.18760240956);
#307=VECTOR('',#409,13.09338790988);
#308=VECTOR('',#410,11.7094);
#309=VECTOR('',#425,1.);
#310=VECTOR('',#426,1.);
#311=VECTOR('',#431,1.);
#312=VECTOR('',#434,1.);
#313=VECTOR('',#443,1.);
#314=VECTOR('',#446,1.);
#315=VECTOR('',#457,1.);
#316=VECTOR('',#458,1.);
#317=VECTOR('',#469,1.);
#318=VECTOR('',#472,1.);
#319=VECTOR('',#497,1.);
#320=VECTOR('',#498,1.);
#321=PRESENTATION_LAYER_ASSIGNMENT('1','Layer 1',(#516,#359,#360,#361,#362,
#364,#365,#42,#43));
#322=PRESENTATION_LAYER_ASSIGNMENT('2','Layer 2',(#285,#286,#287,#288,#363));
#323=STYLED_ITEM('',(#337),#516);
#324=STYLED_ITEM('',(#338),#285);
#325=STYLED_ITEM('',(#339),#286);
#326=STYLED_ITEM('',(#340),#287);
#327=STYLED_ITEM('',(#341),#288);
#328=STYLED_ITEM('',(#342),#359);
#329=STYLED_ITEM('',(#343),#360);
#330=STYLED_ITEM('',(#344),#361);
#331=STYLED_ITEM('',(#345),#362);
#332=STYLED_ITEM('',(#346),#363);
#333=STYLED_ITEM('',(#347),#364);
#334=STYLED_ITEM('',(#348),#365);
#335=STYLED_ITEM('',(#349),#42);
#336=STYLED_ITEM('',(#350),#43);
#337=PRESENTATION_STYLE_ASSIGNMENT((#351));
#338=PRESENTATION_STYLE_ASSIGNMENT((#261));
#339=PRESENTATION_STYLE_ASSIGNMENT((#262));
#340=PRESENTATION_STYLE_ASSIGNMENT((#263));
#341=PRESENTATION_STYLE_ASSIGNMENT((#264));
#342=PRESENTATION_STYLE_ASSIGNMENT((#265));
#343=PRESENTATION_STYLE_ASSIGNMENT((#266));
#344=PRESENTATION_STYLE_ASSIGNMENT((#267));
#345=PRESENTATION_STYLE_ASSIGNMENT((#268));
#346=PRESENTATION_STYLE_ASSIGNMENT((#269));
#347=PRESENTATION_STYLE_ASSIGNMENT((#270));
#348=PRESENTATION_STYLE_ASSIGNMENT((#271));
#349=PRESENTATION_STYLE_ASSIGNMENT((#32));
#350=PRESENTATION_STYLE_ASSIGNMENT((#33));
#351=POINT_STYLE('',#352,POSITIVE_LENGTH_MEASURE(3.),#353);
#352=PRE_DEFINED_POINT_MARKER_SYMBOL('plus');
#353=COLOUR_RGB('Medium Royal',0.301960784313725,0.427450980392157,0.701960784313725);
#354=COLOUR_RGB('Medium Maroon',0.6,0.4,0.4);
#355=COLOUR_RGB('Strong Gold',0.611764705882353,0.556862745098039,0.380392156862745);
#356=COLOUR_RGB('light gray',0.8,0.8,0.8);
#357=COLOUR_RGB('medium gray',0.490196078431373,0.490196078431373,0.490196078431373);
#358=AXIS2_PLACEMENT_3D('',#515,#405,#406);
#359=AXIS2_PLACEMENT_3D('',#521,#411,#412);
#360=AXIS2_PLACEMENT_3D('',#522,#413,#414);
#361=AXIS2_PLACEMENT_3D('MCS',#523,#415,#416);
#362=AXIS2_PLACEMENT_3D('CIP',#524,#417,#418);
#363=AXIS2_PLACEMENT_3D('PCS',#525,#419,#420);
#364=AXIS2_PLACEMENT_3D('',#526,#421,#422);
#365=AXIS2_PLACEMENT_3D('',#527,#423,#424);
#366=AXIS2_PLACEMENT_3D('',#543,#427,#428);
#367=AXIS2_PLACEMENT_3D('',#554,#429,#430);
#368=AXIS2_PLACEMENT_3D('',#557,#432,#433);
#369=AXIS2_PLACEMENT_3D('',#560,#435,#436);
#370=AXIS2_PLACEMENT_3D('',#561,#437,#438);
#371=AXIS2_PLACEMENT_3D('',#562,#439,#440);
#372=AXIS2_PLACEMENT_3D('',#563,#441,#442);
#373=AXIS2_PLACEMENT_3D('',#567,#444,#445);
#374=AXIS2_PLACEMENT_3D('',#571,#447,#448);
#375=AXIS2_PLACEMENT_3D('',#572,#449,#450);
#376=AXIS2_PLACEMENT_3D('',#573,#451,#452);
#377=AXIS2_PLACEMENT_3D('',#576,#453,#454);
#378=AXIS2_PLACEMENT_3D('',#577,#455,#456);
#379=AXIS2_PLACEMENT_3D('',#580,#459,#460);
#380=AXIS2_PLACEMENT_3D('',#581,#461,#462);
#381=AXIS2_PLACEMENT_3D('',#582,#463,#464);
#382=AXIS2_PLACEMENT_3D('',#583,#465,#466);
#383=AXIS2_PLACEMENT_3D('',#584,#467,#468);
#384=AXIS2_PLACEMENT_3D('',#588,#470,#471);
#385=AXIS2_PLACEMENT_3D('',#592,#473,#474);
#386=AXIS2_PLACEMENT_3D('',#593,#475,#476);
#387=AXIS2_PLACEMENT_3D('',#594,#477,#478);
#388=AXIS2_PLACEMENT_3D('',#595,#479,#480);
#389=AXIS2_PLACEMENT_3D('',#596,#481,#482);
#390=AXIS2_PLACEMENT_3D('',#597,#483,#484);
#391=AXIS2_PLACEMENT_3D('',#598,#485,#486);
#392=AXIS2_PLACEMENT_3D('',#599,#487,#488);
#393=AXIS2_PLACEMENT_3D('',#600,#489,#490);
#394=AXIS2_PLACEMENT_3D('',#601,#491,#492);
#395=AXIS2_PLACEMENT_3D('',#604,#493,#494);
#396=AXIS2_PLACEMENT_3D('',#605,#495,#496);
#397=AXIS2_PLACEMENT_3D('',#610,#499,#500);
#398=AXIS2_PLACEMENT_3D('',#611,#501,#502);
#399=AXIS2_PLACEMENT_3D('',#612,#503,#504);
#400=AXIS2_PLACEMENT_3D('',#613,#505,#506);
#401=AXIS2_PLACEMENT_3D('',#614,#507,#508);
#402=AXIS2_PLACEMENT_3D('',#615,#509,#510);
#403=AXIS2_PLACEMENT_3D('',#616,#511,#512);
#404=AXIS2_PLACEMENT_3D('',#617,#513,#514);
#405=DIRECTION('',(0.,0.,1.));
#406=DIRECTION('',(1.,0.,0.));
#407=DIRECTION('',(1.,0.,0.));
#408=DIRECTION('',(0.,0.,-1.));
#409=DIRECTION('',(-0.939692620785897,0.,0.3420201433257));
#410=DIRECTION('',(0.,0.,1.));
#411=DIRECTION('',(0.,0.,1.));
#412=DIRECTION('',(1.,0.,0.));
#413=DIRECTION('',(0.,0.,1.));
#414=DIRECTION('',(1.,0.,0.));
#415=DIRECTION('',(0.,0.,1.));
#416=DIRECTION('',(1.,0.,0.));
#417=DIRECTION('',(0.,0.,1.));
#418=DIRECTION('',(1.,0.,0.));
#419=DIRECTION('',(0.,0.,1.));
#420=DIRECTION('',(1.,0.,0.));
#421=DIRECTION('',(0.,0.,1.));
#422=DIRECTION('',(1.,0.,0.));
#423=DIRECTION('',(0.,0.,1.));
#424=DIRECTION('',(1.,0.,0.));
#425=DIRECTION('',(-0.939692620785681,0.,0.342020143326293));
#426=DIRECTION('',(0.939692620785681,0.,0.342020143326293));
#427=DIRECTION('',(0.,0.,1.));
#428=DIRECTION('',(1.,0.,0.));
#429=DIRECTION('',(0.,0.,1.));
#430=DIRECTION('',(1.,0.,0.));
#431=DIRECTION('',(-2.47580094787E-13,0.,-1.));
#432=DIRECTION('',(0.,0.,1.));
#433=DIRECTION('',(1.,0.,0.));
#434=DIRECTION('',(2.47580094787E-13,0.,-1.));
#435=DIRECTION('',(0.,0.,-1.));
#436=DIRECTION('',(-1.,0.,0.));
#437=DIRECTION('',(0.,0.,1.));
#438=DIRECTION('',(-1.,0.,0.));
#439=DIRECTION('',(0.,0.,-1.));
#440=DIRECTION('',(-1.,0.,0.));
#441=DIRECTION('',(0.,0.,1.));
#442=DIRECTION('',(-1.,0.,0.));
#443=DIRECTION('',(-1.06550027042605E-11,1.70349245776308E-6,-0.999999999998549));
#444=DIRECTION('',(0.,0.,-1.));
#445=DIRECTION('',(-1.,0.,0.));
#446=DIRECTION('',(1.06550331735005E-11,-1.70349245776308E-6,-0.999999999998549));
#447=DIRECTION('',(0.,0.,1.));
#448=DIRECTION('',(0.999999999998761,1.57431626878094E-6,0.));
#449=DIRECTION('',(0.,0.,1.));
#450=DIRECTION('',(-1.,0.,0.));
#451=DIRECTION('',(0.,0.,1.));
#452=DIRECTION('',(-1.,0.,0.));
#453=DIRECTION('',(0.,0.,1.));
#454=DIRECTION('',(1.,0.,0.));
#455=DIRECTION('',(0.,0.,1.));
#456=DIRECTION('',(-1.,0.,0.));
#457=DIRECTION('',(0.500000000000092,0.,0.866025403784386));
#458=DIRECTION('',(-0.499999999989617,-5.41098534530018E-6,0.866025403773529));
#459=DIRECTION('',(0.,0.,-1.));
#460=DIRECTION('',(1.,0.,1.17082711992853E-17));
#461=DIRECTION('',(0.,0.,1.));
#462=DIRECTION('',(-1.,0.,0.));
#463=DIRECTION('',(0.,0.,-1.));
#464=DIRECTION('',(1.,0.,1.17082711992853E-17));
#465=DIRECTION('',(0.,0.,-1.));
#466=DIRECTION('',(0.999999999998761,1.57431626878094E-6,0.));
#467=DIRECTION('',(0.,0.,1.));
#468=DIRECTION('',(-1.,0.,0.));
#469=DIRECTION('',(-0.1132032137608,-1.606807776475E-6,0.993571855676098));
#470=DIRECTION('',(0.,0.,-1.));
#471=DIRECTION('',(0.999999999993684,3.55427525087494E-6,0.));
#472=DIRECTION('',(0.113203213760099,1.82993529889099E-6,0.993571855675792));
#473=DIRECTION('',(0.,0.,1.));
#474=DIRECTION('',(-1.,0.,0.));
#475=DIRECTION('',(0.,0.,1.));
#476=DIRECTION('',(-1.,0.,-3.25687138757468E-16));
#477=DIRECTION('',(-1.25945301519199E-5,0.999999999920689,0.));
#478=DIRECTION('',(-0.271824148478407,-3.42349743430309E-6,0.962346939670025));
#479=DIRECTION('',(1.24293716535694E-5,-0.999999999922755,0.));
#480=DIRECTION('',(0.271824148479005,3.37860336612105E-6,0.962346939670016));
#481=DIRECTION('',(0.,0.,1.));
#482=DIRECTION('',(0.999999999922755,1.24293716536894E-5,0.));
#483=DIRECTION('',(0.,0.,1.));
#484=DIRECTION('',(0.999999999993684,3.55427525087494E-6,0.));
#485=DIRECTION('',(0.,0.,1.));
#486=DIRECTION('',(-0.999999999920689,-1.25945301520399E-5,0.));
#487=DIRECTION('',(0.,0.,-1.));
#488=DIRECTION('',(-1.,0.,0.));
#489=DIRECTION('',(0.,0.,1.));
#490=DIRECTION('',(-1.,0.,-2.17124759171645E-16));
#491=DIRECTION('',(0.,0.,-1.));
#492=DIRECTION('',(-1.,0.,0.));
#493=DIRECTION('',(0.,0.,-1.));
#494=DIRECTION('',(1.,0.,0.));
#495=DIRECTION('',(0.,0.,1.));
#496=DIRECTION('',(0.,-1.,0.));
#497=DIRECTION('',(1.91660521971695E-12,-2.21453670073695E-7,-0.999999999999976));
#498=DIRECTION('',(-1.98961585677794E-12,2.45122682310593E-7,-0.99999999999997));
#499=DIRECTION('',(0.,0.,1.));
#500=DIRECTION('',(0.999999999997941,2.02920399537808E-6,0.));
#501=DIRECTION('',(0.,0.,1.));
#502=DIRECTION('',(-1.,0.,0.));
#503=DIRECTION('',(0.,1.,0.));
#504=DIRECTION('',(0.482670623179514,0.,0.875801957933124));
#505=DIRECTION('',(0.,-1.,0.));
#506=DIRECTION('',(-0.482670623198679,0.,0.87580195792256));
#507=DIRECTION('',(0.,0.,1.));
#508=DIRECTION('',(-0.999999999868235,-1.62336319687906E-5,0.));
#509=DIRECTION('',(0.,0.,1.));
#510=DIRECTION('',(-1.,0.,0.));
#511=DIRECTION('',(0.,0.,1.));
#512=DIRECTION('',(0.999999999871697,1.601891737899E-5,0.));
#513=DIRECTION('',(0.,0.,1.));
#514=DIRECTION('',(-1.,0.,0.));
#515=CARTESIAN_POINT('',(0.,0.,0.));
#516=CARTESIAN_POINT('',(-12.30376,0.,-270.8397777232));
#517=CARTESIAN_POINT('',(-12.30376,0.,-259.1303777232));
#518=CARTESIAN_POINT('',(0.,0.,-259.1303777232));
#519=CARTESIAN_POINT('',(0.,0.,-275.3179801328));
#520=CARTESIAN_POINT('',(-12.30376,0.,-270.8397777232));
#521=CARTESIAN_POINT('',(0.,0.,-30.1));
#522=CARTESIAN_POINT('',(0.,0.,-30.1));
#523=CARTESIAN_POINT('',(0.,0.,-30.1));
#524=CARTESIAN_POINT('',(0.,0.,-275.317980133));
#525=CARTESIAN_POINT('',(0.,0.,0.));
#526=CARTESIAN_POINT('',(0.,0.,-30.1));
#527=CARTESIAN_POINT('',(0.,0.,-30.1));
#528=CARTESIAN_POINT('',(12.30376000001,-3.0135520602979E-15,-270.839789299095));
#529=CARTESIAN_POINT('',(12.30376000001,-3.22111683563028,-270.839789299095));
#530=CARTESIAN_POINT('',(10.9777456875672,-6.42239857263055,-270.839789299095));
#531=CARTESIAN_POINT('',(6.42239857263054,-10.9777456875672,-270.839789299095));
#532=CARTESIAN_POINT('',(3.22111683563028,-12.30376000001,-270.839789299095));
#533=CARTESIAN_POINT('',(-3.22111683563028,-12.30376000001,-270.839789299095));
#534=CARTESIAN_POINT('',(-6.42239857263055,-10.9777456875672,-270.839789299095));
#535=CARTESIAN_POINT('',(-10.9777456875672,-6.42239857263054,-270.839789299095));
#536=CARTESIAN_POINT('',(-12.30376000001,-3.22111683563028,-270.839789299095));
#537=CARTESIAN_POINT('',(-12.30376000001,1.50677603014895E-15,-270.839789299095));
#538=CARTESIAN_POINT('',(12.30376,0.,-270.8397777232));
#539=CARTESIAN_POINT('',(-12.30376000001,0.,-270.8397777232));
#540=CARTESIAN_POINT('',(0.,0.,-275.3179801328));
#541=CARTESIAN_POINT('',(0.,0.,-275.3179801328));
#542=CARTESIAN_POINT('',(0.,0.,-275.3179801328));
#543=CARTESIAN_POINT('',(0.,0.,-273.0340969039));
#544=CARTESIAN_POINT('',(-12.30376000001,1.50677603014895E-15,-270.839789299095));
#545=CARTESIAN_POINT('',(-12.30376000001,3.22111683563028,-270.839789299095));
#546=CARTESIAN_POINT('',(-10.9777456875672,6.42239857263054,-270.839789299095));
#547=CARTESIAN_POINT('',(-6.42239857263054,10.9777456875672,-270.839789299095));
#548=CARTESIAN_POINT('',(-3.22111683563028,12.30376000001,-270.839789299095));
#549=CARTESIAN_POINT('',(3.22111683563028,12.30376000001,-270.839789299095));
#550=CARTESIAN_POINT('',(6.42239857263054,10.9777456875672,-270.839789299095));
#551=CARTESIAN_POINT('',(10.9777456875672,6.42239857263054,-270.839789299095));
#552=CARTESIAN_POINT('',(12.30376000001,3.22111683563028,-270.839789299095));
#553=CARTESIAN_POINT('',(12.30376000001,-2.78461366096041E-15,-270.839789299095));
#554=CARTESIAN_POINT('',(0.,0.,-273.0340969039));
#555=CARTESIAN_POINT('',(-12.30376,0.,-259.1303777232));
#556=CARTESIAN_POINT('',(-12.30376,0.,-259.1303777232));
#557=CARTESIAN_POINT('',(0.,0.,-259.1303777232));
#558=CARTESIAN_POINT('',(12.30376,0.,-259.1303777232));
#559=CARTESIAN_POINT('',(12.30376,0.,-259.1303777232));
#560=CARTESIAN_POINT('',(0.,0.,-17.83910099336));
#561=CARTESIAN_POINT('',(0.,0.,-259.1303777232));
#562=CARTESIAN_POINT('',(0.,0.,-17.83910099336));
#563=CARTESIAN_POINT('',(0.,0.,-259.1303777232));
#564=CARTESIAN_POINT('',(15.87499999937,0.0001118097456735,-30.100000000787));
#565=CARTESIAN_POINT('',(15.87499999998,2.499227075985E-5,28.2));
#566=CARTESIAN_POINT('',(15.87499999998,2.49922707669E-5,-30.100000000792));
#567=CARTESIAN_POINT('',(0.,0.,-30.100000000792));
#568=CARTESIAN_POINT('',(-15.87499999877,-0.0001973162750004,-30.100000000782));
#569=CARTESIAN_POINT('',(-15.87499999938,-9.931361028906E-5,-30.100000000787));
#570=CARTESIAN_POINT('',(-15.875,0.,28.2));
#571=CARTESIAN_POINT('',(0.,0.,28.2));
#572=CARTESIAN_POINT('',(0.,0.,-337.615));
#573=CARTESIAN_POINT('',(0.,0.,30.2));
#574=CARTESIAN_POINT('',(-14.72029946162,0.,30.2));
#575=CARTESIAN_POINT('',(14.72029946162,0.,30.2));
#576=CARTESIAN_POINT('',(0.,0.,30.2));
#577=CARTESIAN_POINT('',(0.,0.,30.2));
#578=CARTESIAN_POINT('',(-14.72029946162,0.,30.2));
#579=CARTESIAN_POINT('',(14.72029946162,0.,30.2));
#580=CARTESIAN_POINT('',(0.,0.,29.2));
#581=CARTESIAN_POINT('',(0.,0.,28.2));
#582=CARTESIAN_POINT('',(0.,0.,29.2));
#583=CARTESIAN_POINT('',(0.,0.,-30.100000000782));
#584=CARTESIAN_POINT('',(0.,0.,-337.615));
#585=CARTESIAN_POINT('',(-12.20693175032,-4.954070935919E-5,-60.10000000198));
#586=CARTESIAN_POINT('',(-12.20693175073,6.659115238078E-14,-60.10000000197));
#587=CARTESIAN_POINT('',(-15.58630091713,0.,-30.4396574911492));
#588=CARTESIAN_POINT('',(0.,0.,-60.10000000197));
#589=CARTESIAN_POINT('',(12.20693175064,4.338679541071E-5,-60.100000002));
#590=CARTESIAN_POINT('',(12.20693175029,7.057885548128E-5,-60.10000000198));
#591=CARTESIAN_POINT('',(15.58630091703,5.539800359553E-5,-30.4396574911492));
#592=CARTESIAN_POINT('',(0.,0.,-30.4396574911492));
#593=CARTESIAN_POINT('',(0.,0.,-45.26982874656));
#594=CARTESIAN_POINT('',(15.98372965813,0.0002013075651354,-30.48493877666));
#595=CARTESIAN_POINT('',(-15.98372965817,-0.0001986677163468,-30.48493877665));
#596=CARTESIAN_POINT('',(0.,0.,-30.48493877665));
#597=CARTESIAN_POINT('',(0.,0.,-30.4396574911592));
#598=CARTESIAN_POINT('',(0.,0.,-30.48493877666));
#599=CARTESIAN_POINT('',(0.,0.,-60.100000002));
#600=CARTESIAN_POINT('',(0.,0.,-45.26982874658));
#601=CARTESIAN_POINT('',(0.,0.,-259.13));
#602=CARTESIAN_POINT('',(-12.,0.,-259.13));
#603=CARTESIAN_POINT('',(12.,0.,-259.13));
#604=CARTESIAN_POINT('',(0.,0.,-259.13));
#605=CARTESIAN_POINT('',(0.,0.,-259.13));
#606=CARTESIAN_POINT('',(11.99999999998,1.623363196278E-5,-259.13));
#607=CARTESIAN_POINT('',(11.99999999998,2.43504479392E-5,-60.45032078514));
#608=CARTESIAN_POINT('',(-12.,0.,-259.13));
#609=CARTESIAN_POINT('',(-12.,0.,-60.45032078514));
#610=CARTESIAN_POINT('',(0.,0.,-60.45032078517));
#611=CARTESIAN_POINT('',(0.,0.,-337.615));
#612=CARTESIAN_POINT('',(-12.4,6.764437642838E-14,-60.45032078514));
#613=CARTESIAN_POINT('',(12.4,-6.009282698186E-14,-60.45032078517));
#614=CARTESIAN_POINT('',(0.,0.,-60.45032078517));
#615=CARTESIAN_POINT('',(0.,0.,-60.45032078514));
#616=CARTESIAN_POINT('',(0.,0.,-60.45032078514));
#617=CARTESIAN_POINT('',(0.,0.,-337.615));
#618=MECHANICAL_DESIGN_GEOMETRIC_PRESENTATION_REPRESENTATION('',(#323,#324,
#325,#326,#327,#328,#329,#330,#331,#332,#333,#334,#335,#336),#619);
#619=(
GEOMETRIC_REPRESENTATION_CONTEXT(3)
GLOBAL_UNCERTAINTY_ASSIGNED_CONTEXT((#620))
GLOBAL_UNIT_ASSIGNED_CONTEXT((#626,#622,#621))
REPRESENTATION_CONTEXT('TAWLN0100_ID0_9688','TOP_LEVEL_ASSEMBLY_PART')
);
#620=UNCERTAINTY_MEASURE_WITH_UNIT(LENGTH_MEASURE(0.0508),#626,
'DISTANCE_ACCURACY_VALUE','Maximum Tolerance applied to model');
#621=(
NAMED_UNIT(*)
SI_UNIT($,.STERADIAN.)
SOLID_ANGLE_UNIT()
);
#622=(
CONVERSION_BASED_UNIT('DEGREE',#624)
NAMED_UNIT(#623)
PLANE_ANGLE_UNIT()
);
#623=DIMENSIONAL_EXPONENTS(0.,0.,0.,0.,0.,0.,0.);
#624=PLANE_ANGLE_MEASURE_WITH_UNIT(PLANE_ANGLE_MEASURE(0.0174532925),#625);
#625=(
NAMED_UNIT(*)
PLANE_ANGLE_UNIT()
SI_UNIT($,.RADIAN.)
);
#626=(
LENGTH_UNIT()
NAMED_UNIT(*)
SI_UNIT(.MILLI.,.METRE.)
);
ENDSEC;
END-ISO-10303-21;
