ISO-10303-21;
HEADER;
/* Generated by software containing ST-Developer
 * from STEP Tools, Inc. (www.steptools.com) 
 */
/* OPTION: using custom schema-name function */

FILE_DESCRIPTION(
/* description */ (''),
/* implementation_level */ '2;1');

FILE_NAME(
/* name */ 'TAWLN0102_ID1_0313.stp',
/* time_stamp */ '2025-06-11T17:03:18+09:00',
/* author */ (''),
/* organization */ (''),
/* preprocessor_version */ 'ST-DEVELOPER v18.101',
/* originating_system */ 'SIEMENS PLM Software NX 2011',
/* authorisation */ '');

FILE_SCHEMA (('AUTOMOTIVE_DESIGN { 1 0 10303 214 3 1 1 1 }'));
ENDSEC;

DATA;
#10=CONSTRUCTIVE_GEOMETRY_REPRESENTATION_RELATIONSHIP(
'supplemental geometry','',#26,#11);
#11=CONSTRUCTIVE_GEOMETRY_REPRESENTATION('supplemental geometry',(#358,
#359,#360,#361,#362,#363,#364),#618);
#12=GEOMETRICALLY_BOUNDED_WIREFRAME_SHAPE_REPRESENTATION(
'TAWLN0102_ID1_0313-None',(#27),#618);
#13=SHAPE_REPRESENTATION_RELATIONSHIP('None',
'relationship between TAWLN0102_ID1_0313-None and TAWLN0102_ID1_0313-N
one',#26,#15);
#14=SHAPE_REPRESENTATION_RELATIONSHIP('None',
'relationship between TAWLN0102_ID1_0313-None and TAWLN0102_ID1_0313-N
one',#26,#12);
#15=ADVANCED_BREP_SHAPE_REPRESENTATION('TAWLN0102_ID1_0313-None',(#42,#43),
#618);
#16=SHAPE_DEFINITION_REPRESENTATION(#17,#26);
#17=PRODUCT_DEFINITION_SHAPE('','SHAPE FOR TAWLN0102_ID1_0313_ASM.',#18);
#18=PRODUCT_DEFINITION('part definition','',#20,#19);
#19=PRODUCT_DEFINITION_CONTEXT('part definition',#25,'design');
#20=PRODUCT_DEFINITION_FORMATION_WITH_SPECIFIED_SOURCE(' ',' ',#22,
 .NOT_KNOWN.);
#21=PRODUCT_RELATED_PRODUCT_CATEGORY('part','',(#22));
#22=PRODUCT('TAWLN0102_ID1_0313_ASM','TAWLN0102_ID1_0313_ASM',
'NOT SPECIFIED',(#23));
#23=PRODUCT_CONTEXT('',#25,'mechanical');
#24=APPLICATION_PROTOCOL_DEFINITION('international standard',
'automotive_design',2010,#25);
#25=APPLICATION_CONTEXT(
'core data for automotive mechanical design processes');
#26=SHAPE_REPRESENTATION('TAWLN0102_ID1_0313-None',(#357),#618);
#27=GEOMETRIC_CURVE_SET('None',(#515,#285,#286,#287,#288));
#28=TOROIDAL_SURFACE('',#388,15.98995934865,0.4);
#29=TOROIDAL_SURFACE('',#390,15.98995934865,0.4);
#30=TOROIDAL_SURFACE('',#400,12.9,0.4);
#31=TOROIDAL_SURFACE('',#402,12.9,0.4);
#32=SURFACE_STYLE_USAGE(.BOTH.,#34);
#33=SURFACE_STYLE_USAGE(.BOTH.,#35);
#34=SURFACE_SIDE_STYLE('',(#36));
#35=SURFACE_SIDE_STYLE('',(#37));
#36=SURFACE_STYLE_FILL_AREA(#38);
#37=SURFACE_STYLE_FILL_AREA(#39);
#38=FILL_AREA_STYLE('',(#40));
#39=FILL_AREA_STYLE('',(#41));
#40=FILL_AREA_STYLE_COLOUR('',#355);
#41=FILL_AREA_STYLE_COLOUR('',#356);
#42=MANIFOLD_SOLID_BREP('CUT',#44);
#43=MANIFOLD_SOLID_BREP('NOCUT',#45);
#44=CLOSED_SHELL('',(#75,#76,#77,#78,#79));
#45=CLOSED_SHELL('',(#80,#81,#82,#83,#84,#85,#86,#87,#88,#89,#90,#91,#92,
#93));
#46=PLANE('',#371);
#47=PLANE('',#377);
#48=PLANE('',#395);
#49=CYLINDRICAL_SURFACE('',#368,13.09751);
#50=CYLINDRICAL_SURFACE('',#370,13.09751);
#51=CYLINDRICAL_SURFACE('',#374,15.875);
#52=CYLINDRICAL_SURFACE('',#382,15.875);
#53=CYLINDRICAL_SURFACE('',#397,12.5);
#54=CYLINDRICAL_SURFACE('',#403,12.5);
#55=CIRCLE('',#367,13.09751);
#56=CIRCLE('',#369,13.09751);
#57=CIRCLE('',#372,15.875);
#58=CIRCLE('',#373,15.875);
#59=CIRCLE('',#375,14.72029946162);
#60=CIRCLE('',#376,14.72029946162);
#61=CIRCLE('',#379,15.875);
#62=CIRCLE('',#381,15.875);
#63=CIRCLE('',#383,12.73632855393);
#64=CIRCLE('',#384,15.5918008693);
#65=CIRCLE('',#386,0.4);
#66=CIRCLE('',#387,0.4);
#67=CIRCLE('',#389,15.5918008693);
#68=CIRCLE('',#391,12.73632855393);
#69=CIRCLE('',#393,12.5);
#70=CIRCLE('',#394,12.5);
#71=CIRCLE('',#396,12.5);
#72=CIRCLE('',#398,0.4);
#73=CIRCLE('',#399,0.4);
#74=CIRCLE('',#401,12.5);
#75=ADVANCED_FACE('',(#100),#94,.T.);
#76=ADVANCED_FACE('',(#101),#95,.T.);
#77=ADVANCED_FACE('',(#102),#49,.T.);
#78=ADVANCED_FACE('',(#103),#50,.T.);
#79=ADVANCED_FACE('',(#104),#46,.T.);
#80=ADVANCED_FACE('',(#105),#51,.T.);
#81=ADVANCED_FACE('',(#106),#47,.T.);
#82=ADVANCED_FACE('',(#107),#96,.T.);
#83=ADVANCED_FACE('',(#108),#97,.T.);
#84=ADVANCED_FACE('',(#109),#52,.T.);
#85=ADVANCED_FACE('',(#110),#98,.T.);
#86=ADVANCED_FACE('',(#111),#28,.F.);
#87=ADVANCED_FACE('',(#112),#29,.F.);
#88=ADVANCED_FACE('',(#113),#99,.T.);
#89=ADVANCED_FACE('',(#114),#48,.F.);
#90=ADVANCED_FACE('',(#115),#53,.T.);
#91=ADVANCED_FACE('',(#116),#30,.F.);
#92=ADVANCED_FACE('',(#117),#31,.F.);
#93=ADVANCED_FACE('',(#118),#54,.T.);
#94=CONICAL_SURFACE('',#365,6.679730100005,70.0000971436908);
#95=CONICAL_SURFACE('',#366,6.679730100005,70.0000971436908);
#96=CONICAL_SURFACE('',#378,15.29764973081,30.0000416330103);
#97=CONICAL_SURFACE('',#380,15.29764973081,30.0000416330103);
#98=CONICAL_SURFACE('',#385,14.16406471162,5.50000763271856);
#99=CONICAL_SURFACE('',#392,14.16406471162,5.50000763271856);
#100=FACE_OUTER_BOUND('',#119,.T.);
#101=FACE_OUTER_BOUND('',#120,.T.);
#102=FACE_OUTER_BOUND('',#121,.T.);
#103=FACE_OUTER_BOUND('',#122,.T.);
#104=FACE_OUTER_BOUND('',#123,.T.);
#105=FACE_OUTER_BOUND('',#124,.T.);
#106=FACE_OUTER_BOUND('',#125,.T.);
#107=FACE_OUTER_BOUND('',#126,.T.);
#108=FACE_OUTER_BOUND('',#127,.T.);
#109=FACE_OUTER_BOUND('',#128,.T.);
#110=FACE_OUTER_BOUND('',#129,.T.);
#111=FACE_OUTER_BOUND('',#130,.T.);
#112=FACE_OUTER_BOUND('',#131,.T.);
#113=FACE_OUTER_BOUND('',#132,.T.);
#114=FACE_OUTER_BOUND('',#133,.T.);
#115=FACE_OUTER_BOUND('',#134,.T.);
#116=FACE_OUTER_BOUND('',#135,.T.);
#117=FACE_OUTER_BOUND('',#136,.T.);
#118=FACE_OUTER_BOUND('',#137,.T.);
#119=EDGE_LOOP('',(#138,#139,#140));
#120=EDGE_LOOP('',(#141,#142,#143));
#121=EDGE_LOOP('',(#144,#145,#146,#147));
#122=EDGE_LOOP('',(#148,#149,#150,#151));
#123=EDGE_LOOP('',(#152,#153));
#124=EDGE_LOOP('',(#154,#155,#156,#157));
#125=EDGE_LOOP('',(#158,#159));
#126=EDGE_LOOP('',(#160,#161,#162,#163));
#127=EDGE_LOOP('',(#164,#165,#166,#167));
#128=EDGE_LOOP('',(#168,#169,#170,#171));
#129=EDGE_LOOP('',(#172,#173,#174,#175));
#130=EDGE_LOOP('',(#176,#177,#178,#179));
#131=EDGE_LOOP('',(#180,#181,#182,#183));
#132=EDGE_LOOP('',(#184,#185,#186,#187));
#133=EDGE_LOOP('',(#188,#189));
#134=EDGE_LOOP('',(#190,#191,#192,#193));
#135=EDGE_LOOP('',(#194,#195,#196,#197));
#136=EDGE_LOOP('',(#198,#199,#200,#201));
#137=EDGE_LOOP('',(#202,#203,#204,#205));
#138=ORIENTED_EDGE('',*,*,#225,.T.);
#139=ORIENTED_EDGE('',*,*,#226,.F.);
#140=ORIENTED_EDGE('',*,*,#227,.T.);
#141=ORIENTED_EDGE('',*,*,#227,.F.);
#142=ORIENTED_EDGE('',*,*,#226,.T.);
#143=ORIENTED_EDGE('',*,*,#228,.T.);
#144=ORIENTED_EDGE('',*,*,#228,.F.);
#145=ORIENTED_EDGE('',*,*,#229,.F.);
#146=ORIENTED_EDGE('',*,*,#230,.F.);
#147=ORIENTED_EDGE('',*,*,#231,.T.);
#148=ORIENTED_EDGE('',*,*,#225,.F.);
#149=ORIENTED_EDGE('',*,*,#231,.F.);
#150=ORIENTED_EDGE('',*,*,#232,.F.);
#151=ORIENTED_EDGE('',*,*,#229,.T.);
#152=ORIENTED_EDGE('',*,*,#230,.T.);
#153=ORIENTED_EDGE('',*,*,#232,.T.);
#154=ORIENTED_EDGE('',*,*,#233,.T.);
#155=ORIENTED_EDGE('',*,*,#234,.F.);
#156=ORIENTED_EDGE('',*,*,#235,.F.);
#157=ORIENTED_EDGE('',*,*,#236,.F.);
#158=ORIENTED_EDGE('',*,*,#237,.T.);
#159=ORIENTED_EDGE('',*,*,#238,.T.);
#160=ORIENTED_EDGE('',*,*,#236,.T.);
#161=ORIENTED_EDGE('',*,*,#239,.T.);
#162=ORIENTED_EDGE('',*,*,#238,.F.);
#163=ORIENTED_EDGE('',*,*,#240,.F.);
#164=ORIENTED_EDGE('',*,*,#237,.F.);
#165=ORIENTED_EDGE('',*,*,#239,.F.);
#166=ORIENTED_EDGE('',*,*,#241,.T.);
#167=ORIENTED_EDGE('',*,*,#240,.T.);
#168=ORIENTED_EDGE('',*,*,#235,.T.);
#169=ORIENTED_EDGE('',*,*,#242,.F.);
#170=ORIENTED_EDGE('',*,*,#233,.F.);
#171=ORIENTED_EDGE('',*,*,#241,.F.);
#172=ORIENTED_EDGE('',*,*,#243,.F.);
#173=ORIENTED_EDGE('',*,*,#244,.F.);
#174=ORIENTED_EDGE('',*,*,#245,.T.);
#175=ORIENTED_EDGE('',*,*,#246,.F.);
#176=ORIENTED_EDGE('',*,*,#247,.T.);
#177=ORIENTED_EDGE('',*,*,#242,.T.);
#178=ORIENTED_EDGE('',*,*,#248,.F.);
#179=ORIENTED_EDGE('',*,*,#246,.T.);
#180=ORIENTED_EDGE('',*,*,#248,.T.);
#181=ORIENTED_EDGE('',*,*,#234,.T.);
#182=ORIENTED_EDGE('',*,*,#247,.F.);
#183=ORIENTED_EDGE('',*,*,#249,.T.);
#184=ORIENTED_EDGE('',*,*,#245,.F.);
#185=ORIENTED_EDGE('',*,*,#250,.F.);
#186=ORIENTED_EDGE('',*,*,#243,.T.);
#187=ORIENTED_EDGE('',*,*,#249,.F.);
#188=ORIENTED_EDGE('',*,*,#251,.T.);
#189=ORIENTED_EDGE('',*,*,#252,.T.);
#190=ORIENTED_EDGE('',*,*,#253,.T.);
#191=ORIENTED_EDGE('',*,*,#251,.F.);
#192=ORIENTED_EDGE('',*,*,#254,.F.);
#193=ORIENTED_EDGE('',*,*,#255,.F.);
#194=ORIENTED_EDGE('',*,*,#256,.F.);
#195=ORIENTED_EDGE('',*,*,#250,.T.);
#196=ORIENTED_EDGE('',*,*,#257,.T.);
#197=ORIENTED_EDGE('',*,*,#255,.T.);
#198=ORIENTED_EDGE('',*,*,#257,.F.);
#199=ORIENTED_EDGE('',*,*,#244,.T.);
#200=ORIENTED_EDGE('',*,*,#256,.T.);
#201=ORIENTED_EDGE('',*,*,#258,.T.);
#202=ORIENTED_EDGE('',*,*,#254,.T.);
#203=ORIENTED_EDGE('',*,*,#252,.F.);
#204=ORIENTED_EDGE('',*,*,#253,.F.);
#205=ORIENTED_EDGE('',*,*,#258,.F.);
#206=VERTEX_POINT('',#537);
#207=VERTEX_POINT('',#538);
#208=VERTEX_POINT('',#540);
#209=VERTEX_POINT('',#555);
#210=VERTEX_POINT('',#557);
#211=VERTEX_POINT('',#564);
#212=VERTEX_POINT('',#565);
#213=VERTEX_POINT('',#567);
#214=VERTEX_POINT('',#569);
#215=VERTEX_POINT('',#573);
#216=VERTEX_POINT('',#574);
#217=VERTEX_POINT('',#585);
#218=VERTEX_POINT('',#586);
#219=VERTEX_POINT('',#588);
#220=VERTEX_POINT('',#590);
#221=VERTEX_POINT('',#601);
#222=VERTEX_POINT('',#602);
#223=VERTEX_POINT('',#606);
#224=VERTEX_POINT('',#608);
#225=EDGE_CURVE('',#206,#207,#259,.T.);
#226=EDGE_CURVE('',#208,#207,#293,.T.);
#227=EDGE_CURVE('',#208,#206,#294,.T.);
#228=EDGE_CURVE('',#207,#206,#260,.T.);
#229=EDGE_CURVE('',#209,#207,#295,.T.);
#230=EDGE_CURVE('',#210,#209,#55,.T.);
#231=EDGE_CURVE('',#210,#206,#296,.T.);
#232=EDGE_CURVE('',#209,#210,#56,.T.);
#233=EDGE_CURVE('',#211,#212,#297,.T.);
#234=EDGE_CURVE('',#213,#212,#57,.T.);
#235=EDGE_CURVE('',#214,#213,#298,.T.);
#236=EDGE_CURVE('',#211,#214,#58,.T.);
#237=EDGE_CURVE('',#215,#216,#59,.T.);
#238=EDGE_CURVE('',#216,#215,#60,.T.);
#239=EDGE_CURVE('',#214,#215,#299,.T.);
#240=EDGE_CURVE('',#211,#216,#300,.T.);
#241=EDGE_CURVE('',#214,#211,#61,.T.);
#242=EDGE_CURVE('',#212,#213,#62,.T.);
#243=EDGE_CURVE('',#217,#218,#301,.T.);
#244=EDGE_CURVE('',#219,#217,#63,.T.);
#245=EDGE_CURVE('',#219,#220,#302,.T.);
#246=EDGE_CURVE('',#218,#220,#64,.T.);
#247=EDGE_CURVE('',#220,#212,#65,.T.);
#248=EDGE_CURVE('',#218,#213,#66,.T.);
#249=EDGE_CURVE('',#220,#218,#67,.T.);
#250=EDGE_CURVE('',#217,#219,#68,.T.);
#251=EDGE_CURVE('',#221,#222,#69,.T.);
#252=EDGE_CURVE('',#222,#221,#70,.T.);
#253=EDGE_CURVE('',#223,#222,#303,.T.);
#254=EDGE_CURVE('',#224,#221,#304,.T.);
#255=EDGE_CURVE('',#223,#224,#71,.T.);
#256=EDGE_CURVE('',#217,#224,#72,.T.);
#257=EDGE_CURVE('',#219,#223,#73,.T.);
#258=EDGE_CURVE('',#224,#223,#74,.T.);
#259=B_SPLINE_CURVE_WITH_KNOTS('',3,(#527,#528,#529,#530,#531,#532,#533,
#534,#535,#536),.UNSPECIFIED.,.F.,.F.,(4,2,2,2,4),(0.,0.25,0.5,0.75,1.),
 .UNSPECIFIED.);
#260=B_SPLINE_CURVE_WITH_KNOTS('',3,(#543,#544,#545,#546,#547,#548,#549,
#550,#551,#552),.UNSPECIFIED.,.F.,.F.,(4,2,2,2,4),(0.,0.25,0.5,0.75,1.),
 .UNSPECIFIED.);
#261=CURVE_STYLE('',#274,POSITIVE_LENGTH_MEASURE(0.13),#272);
#262=CURVE_STYLE('',#275,POSITIVE_LENGTH_MEASURE(0.13),#272);
#263=CURVE_STYLE('',#276,POSITIVE_LENGTH_MEASURE(0.13),#272);
#264=CURVE_STYLE('',#277,POSITIVE_LENGTH_MEASURE(0.13),#272);
#265=CURVE_STYLE('',#278,POSITIVE_LENGTH_MEASURE(0.13),#354);
#266=CURVE_STYLE('',#279,POSITIVE_LENGTH_MEASURE(0.13),#354);
#267=CURVE_STYLE('',#280,POSITIVE_LENGTH_MEASURE(0.13),#273);
#268=CURVE_STYLE('',#281,POSITIVE_LENGTH_MEASURE(0.13),#273);
#269=CURVE_STYLE('',#282,POSITIVE_LENGTH_MEASURE(0.13),#273);
#270=CURVE_STYLE('',#283,POSITIVE_LENGTH_MEASURE(0.13),#354);
#271=CURVE_STYLE('',#284,POSITIVE_LENGTH_MEASURE(0.13),#354);
#272=DRAUGHTING_PRE_DEFINED_COLOUR('blue');
#273=DRAUGHTING_PRE_DEFINED_COLOUR('yellow');
#274=DRAUGHTING_PRE_DEFINED_CURVE_FONT('continuous');
#275=DRAUGHTING_PRE_DEFINED_CURVE_FONT('continuous');
#276=DRAUGHTING_PRE_DEFINED_CURVE_FONT('continuous');
#277=DRAUGHTING_PRE_DEFINED_CURVE_FONT('continuous');
#278=DRAUGHTING_PRE_DEFINED_CURVE_FONT('continuous');
#279=DRAUGHTING_PRE_DEFINED_CURVE_FONT('continuous');
#280=DRAUGHTING_PRE_DEFINED_CURVE_FONT('continuous');
#281=DRAUGHTING_PRE_DEFINED_CURVE_FONT('continuous');
#282=DRAUGHTING_PRE_DEFINED_CURVE_FONT('continuous');
#283=DRAUGHTING_PRE_DEFINED_CURVE_FONT('continuous');
#284=DRAUGHTING_PRE_DEFINED_CURVE_FONT('continuous');
#285=TRIMMED_CURVE('',#289,(PARAMETER_VALUE(0.)),(PARAMETER_VALUE(1.)),
 .T.,.PARAMETER.);
#286=TRIMMED_CURVE('',#290,(PARAMETER_VALUE(0.)),(PARAMETER_VALUE(1.)),
 .T.,.PARAMETER.);
#287=TRIMMED_CURVE('',#291,(PARAMETER_VALUE(0.)),(PARAMETER_VALUE(1.)),
 .T.,.PARAMETER.);
#288=TRIMMED_CURVE('',#292,(PARAMETER_VALUE(0.)),(PARAMETER_VALUE(1.)),
 .T.,.PARAMETER.);
#289=LINE('',#516,#305);
#290=LINE('',#517,#306);
#291=LINE('',#518,#307);
#292=LINE('',#519,#308);
#293=LINE('',#539,#309);
#294=LINE('',#541,#310);
#295=LINE('',#554,#311);
#296=LINE('',#558,#312);
#297=LINE('',#563,#313);
#298=LINE('',#568,#314);
#299=LINE('',#577,#315);
#300=LINE('',#578,#316);
#301=LINE('',#584,#317);
#302=LINE('',#589,#318);
#303=LINE('',#605,#319);
#304=LINE('',#607,#320);
#305=VECTOR('',#406,13.09751);
#306=VECTOR('',#407,16.171703783);
#307=VECTOR('',#408,13.93807901678);
#308=VECTOR('',#409,11.4046);
#309=VECTOR('',#424,1.);
#310=VECTOR('',#425,1.);
#311=VECTOR('',#430,1.);
#312=VECTOR('',#433,1.);
#313=VECTOR('',#442,1.);
#314=VECTOR('',#445,1.);
#315=VECTOR('',#456,1.);
#316=VECTOR('',#457,1.);
#317=VECTOR('',#468,1.);
#318=VECTOR('',#471,1.);
#319=VECTOR('',#496,1.);
#320=VECTOR('',#497,1.);
#321=PRESENTATION_LAYER_ASSIGNMENT('1','Layer 1',(#515,#358,#359,#360,#361,
#363,#364,#42,#43));
#322=PRESENTATION_LAYER_ASSIGNMENT('2','Layer 2',(#285,#286,#287,#288,#362));
#323=STYLED_ITEM('',(#337),#515);
#324=STYLED_ITEM('',(#338),#285);
#325=STYLED_ITEM('',(#339),#286);
#326=STYLED_ITEM('',(#340),#287);
#327=STYLED_ITEM('',(#341),#288);
#328=STYLED_ITEM('',(#342),#358);
#329=STYLED_ITEM('',(#343),#359);
#330=STYLED_ITEM('',(#344),#360);
#331=STYLED_ITEM('',(#345),#361);
#332=STYLED_ITEM('',(#346),#362);
#333=STYLED_ITEM('',(#347),#363);
#334=STYLED_ITEM('',(#348),#364);
#335=STYLED_ITEM('',(#349),#42);
#336=STYLED_ITEM('',(#350),#43);
#337=PRESENTATION_STYLE_ASSIGNMENT((#351));
#338=PRESENTATION_STYLE_ASSIGNMENT((#261));
#339=PRESENTATION_STYLE_ASSIGNMENT((#262));
#340=PRESENTATION_STYLE_ASSIGNMENT((#263));
#341=PRESENTATION_STYLE_ASSIGNMENT((#264));
#342=PRESENTATION_STYLE_ASSIGNMENT((#265));
#343=PRESENTATION_STYLE_ASSIGNMENT((#266));
#344=PRESENTATION_STYLE_ASSIGNMENT((#267));
#345=PRESENTATION_STYLE_ASSIGNMENT((#268));
#346=PRESENTATION_STYLE_ASSIGNMENT((#269));
#347=PRESENTATION_STYLE_ASSIGNMENT((#270));
#348=PRESENTATION_STYLE_ASSIGNMENT((#271));
#349=PRESENTATION_STYLE_ASSIGNMENT((#32));
#350=PRESENTATION_STYLE_ASSIGNMENT((#33));
#351=POINT_STYLE('',#352,POSITIVE_LENGTH_MEASURE(3.),#353);
#352=PRE_DEFINED_POINT_MARKER_SYMBOL('plus');
#353=COLOUR_RGB('Medium Royal',0.301960784313725,0.427450980392157,0.701960784313725);
#354=COLOUR_RGB('Medium Maroon',0.6,0.4,0.4);
#355=COLOUR_RGB('light gray',0.8,0.8,0.8);
#356=COLOUR_RGB('medium gray',0.490196078431373,0.490196078431373,0.490196078431373);
#357=AXIS2_PLACEMENT_3D('',#514,#404,#405);
#358=AXIS2_PLACEMENT_3D('',#520,#410,#411);
#359=AXIS2_PLACEMENT_3D('',#521,#412,#413);
#360=AXIS2_PLACEMENT_3D('MCS',#522,#414,#415);
#361=AXIS2_PLACEMENT_3D('CIP',#523,#416,#417);
#362=AXIS2_PLACEMENT_3D('PCS',#524,#418,#419);
#363=AXIS2_PLACEMENT_3D('',#525,#420,#421);
#364=AXIS2_PLACEMENT_3D('',#526,#422,#423);
#365=AXIS2_PLACEMENT_3D('',#542,#426,#427);
#366=AXIS2_PLACEMENT_3D('',#553,#428,#429);
#367=AXIS2_PLACEMENT_3D('',#556,#431,#432);
#368=AXIS2_PLACEMENT_3D('',#559,#434,#435);
#369=AXIS2_PLACEMENT_3D('',#560,#436,#437);
#370=AXIS2_PLACEMENT_3D('',#561,#438,#439);
#371=AXIS2_PLACEMENT_3D('',#562,#440,#441);
#372=AXIS2_PLACEMENT_3D('',#566,#443,#444);
#373=AXIS2_PLACEMENT_3D('',#570,#446,#447);
#374=AXIS2_PLACEMENT_3D('',#571,#448,#449);
#375=AXIS2_PLACEMENT_3D('',#572,#450,#451);
#376=AXIS2_PLACEMENT_3D('',#575,#452,#453);
#377=AXIS2_PLACEMENT_3D('',#576,#454,#455);
#378=AXIS2_PLACEMENT_3D('',#579,#458,#459);
#379=AXIS2_PLACEMENT_3D('',#580,#460,#461);
#380=AXIS2_PLACEMENT_3D('',#581,#462,#463);
#381=AXIS2_PLACEMENT_3D('',#582,#464,#465);
#382=AXIS2_PLACEMENT_3D('',#583,#466,#467);
#383=AXIS2_PLACEMENT_3D('',#587,#469,#470);
#384=AXIS2_PLACEMENT_3D('',#591,#472,#473);
#385=AXIS2_PLACEMENT_3D('',#592,#474,#475);
#386=AXIS2_PLACEMENT_3D('',#593,#476,#477);
#387=AXIS2_PLACEMENT_3D('',#594,#478,#479);
#388=AXIS2_PLACEMENT_3D('',#595,#480,#481);
#389=AXIS2_PLACEMENT_3D('',#596,#482,#483);
#390=AXIS2_PLACEMENT_3D('',#597,#484,#485);
#391=AXIS2_PLACEMENT_3D('',#598,#486,#487);
#392=AXIS2_PLACEMENT_3D('',#599,#488,#489);
#393=AXIS2_PLACEMENT_3D('',#600,#490,#491);
#394=AXIS2_PLACEMENT_3D('',#603,#492,#493);
#395=AXIS2_PLACEMENT_3D('',#604,#494,#495);
#396=AXIS2_PLACEMENT_3D('',#609,#498,#499);
#397=AXIS2_PLACEMENT_3D('',#610,#500,#501);
#398=AXIS2_PLACEMENT_3D('',#611,#502,#503);
#399=AXIS2_PLACEMENT_3D('',#612,#504,#505);
#400=AXIS2_PLACEMENT_3D('',#613,#506,#507);
#401=AXIS2_PLACEMENT_3D('',#614,#508,#509);
#402=AXIS2_PLACEMENT_3D('',#615,#510,#511);
#403=AXIS2_PLACEMENT_3D('',#616,#512,#513);
#404=DIRECTION('',(0.,0.,1.));
#405=DIRECTION('',(1.,0.,0.));
#406=DIRECTION('',(1.,0.,0.));
#407=DIRECTION('',(0.,0.,-1.));
#408=DIRECTION('',(-0.939692620785898,0.,0.342020143325698));
#409=DIRECTION('',(0.,0.,1.));
#410=DIRECTION('',(0.,0.,1.));
#411=DIRECTION('',(1.,0.,0.));
#412=DIRECTION('',(0.,0.,1.));
#413=DIRECTION('',(1.,0.,0.));
#414=DIRECTION('',(0.,0.,1.));
#415=DIRECTION('',(1.,0.,0.));
#416=DIRECTION('',(0.,0.,1.));
#417=DIRECTION('',(1.,0.,0.));
#418=DIRECTION('',(0.,0.,1.));
#419=DIRECTION('',(1.,0.,0.));
#420=DIRECTION('',(0.,0.,1.));
#421=DIRECTION('',(1.,0.,0.));
#422=DIRECTION('',(0.,0.,1.));
#423=DIRECTION('',(1.,0.,0.));
#424=DIRECTION('',(-0.939692620785573,0.,0.34202014332659));
#425=DIRECTION('',(0.939692620785573,0.,0.34202014332659));
#426=DIRECTION('',(0.,0.,1.));
#427=DIRECTION('',(1.,0.,-2.01552983669613E-17));
#428=DIRECTION('',(0.,0.,1.));
#429=DIRECTION('',(1.,0.,-2.01552983669613E-17));
#430=DIRECTION('',(-3.950020995663E-13,0.,-1.));
#431=DIRECTION('',(0.,0.,1.));
#432=DIRECTION('',(1.,0.,0.));
#433=DIRECTION('',(3.950020995663E-13,0.,-1.));
#434=DIRECTION('',(0.,0.,-1.));
#435=DIRECTION('',(-1.,0.,0.));
#436=DIRECTION('',(0.,0.,1.));
#437=DIRECTION('',(-1.,0.,0.));
#438=DIRECTION('',(0.,0.,-1.));
#439=DIRECTION('',(-1.,0.,0.));
#440=DIRECTION('',(0.,0.,1.));
#441=DIRECTION('',(-1.,0.,0.));
#442=DIRECTION('',(-1.06438509614895E-11,1.70259772781392E-6,-0.999999999998551));
#443=DIRECTION('',(0.,0.,-1.));
#444=DIRECTION('',(-1.,0.,0.));
#445=DIRECTION('',(1.06438814307295E-11,-1.70259772781392E-6,-0.999999999998551));
#446=DIRECTION('',(0.,0.,1.));
#447=DIRECTION('',(0.999999999998762,1.57349092676394E-6,0.));
#448=DIRECTION('',(0.,0.,1.));
#449=DIRECTION('',(-1.,0.,0.));
#450=DIRECTION('',(0.,0.,1.));
#451=DIRECTION('',(-1.,0.,0.));
#452=DIRECTION('',(0.,0.,1.));
#453=DIRECTION('',(1.,0.,0.));
#454=DIRECTION('',(0.,0.,1.));
#455=DIRECTION('',(-1.,0.,0.));
#456=DIRECTION('',(0.500000000000092,0.,0.866025403784386));
#457=DIRECTION('',(-0.499999999989581,-5.4081486131598E-6,0.866025403773568));
#458=DIRECTION('',(0.,0.,-1.));
#459=DIRECTION('',(1.,0.,1.17082711992853E-17));
#460=DIRECTION('',(0.,0.,1.));
#461=DIRECTION('',(-1.,0.,0.));
#462=DIRECTION('',(0.,0.,-1.));
#463=DIRECTION('',(1.,0.,1.17082711992853E-17));
#464=DIRECTION('',(0.,0.,-1.));
#465=DIRECTION('',(0.999999999998762,1.57349092676394E-6,0.));
#466=DIRECTION('',(0.,0.,1.));
#467=DIRECTION('',(-1.,0.,0.));
#468=DIRECTION('',(-0.0958457525126317,-1.60386731735603E-6,0.995396198366618));
#469=DIRECTION('',(0.,0.,-1.));
#470=DIRECTION('',(0.999999999993906,3.49100406347502E-6,0.));
#471=DIRECTION('',(0.095845752511966,1.79316904430993E-6,0.995396198366359));
#472=DIRECTION('',(0.,0.,1.));
#473=DIRECTION('',(-1.,0.,0.));
#474=DIRECTION('',(0.,0.,1.));
#475=DIRECTION('',(-1.,0.,-3.76931999904127E-16));
#476=DIRECTION('',(-1.25879274141396E-5,0.999999999920772,0.));
#477=DIRECTION('',(-0.287398371602212,-3.61774984095723E-6,0.957811137953252));
#478=DIRECTION('',(1.24228310197705E-5,-0.999999999922837,0.));
#479=DIRECTION('',(0.287398371602819,3.57030140605422E-6,0.957811137953252));
#480=DIRECTION('',(0.,0.,1.));
#481=DIRECTION('',(0.999999999922837,1.24228310198905E-5,0.));
#482=DIRECTION('',(0.,0.,1.));
#483=DIRECTION('',(0.999999999993906,3.49100406347502E-6,0.));
#484=DIRECTION('',(0.,0.,1.));
#485=DIRECTION('',(-0.999999999920772,-1.25879274142596E-5,0.));
#486=DIRECTION('',(0.,0.,-1.));
#487=DIRECTION('',(-1.,0.,0.));
#488=DIRECTION('',(0.,0.,1.));
#489=DIRECTION('',(-1.,0.,-2.51287999936085E-16));
#490=DIRECTION('',(0.,0.,-1.));
#491=DIRECTION('',(-1.,0.,0.));
#492=DIRECTION('',(0.,0.,-1.));
#493=DIRECTION('',(1.,0.,0.));
#494=DIRECTION('',(0.,0.,1.));
#495=DIRECTION('',(0.,-1.,0.));
#496=DIRECTION('',(1.77350564951696E-12,-2.13079358625195E-7,-0.999999999999977));
#497=DIRECTION('',(-1.84090853366595E-12,2.35843106788193E-7,-0.999999999999972));
#498=DIRECTION('',(0.,0.,1.));
#499=DIRECTION('',(0.999999999998096,1.95141320689999E-6,0.));
#500=DIRECTION('',(0.,0.,1.));
#501=DIRECTION('',(-1.,0.,0.));
#502=DIRECTION('',(0.,1.,0.));
#503=DIRECTION('',(0.409178615171013,0.,0.912454306191135));
#504=DIRECTION('',(0.,-1.,0.));
#505=DIRECTION('',(-0.409178615171013,0.,0.912454306191135));
#506=DIRECTION('',(0.,0.,1.));
#507=DIRECTION('',(-0.999999999878144,-1.56113056541707E-5,0.));
#508=DIRECTION('',(0.,0.,1.));
#509=DIRECTION('',(-1.,0.,0.));
#510=DIRECTION('',(0.,0.,1.));
#511=DIRECTION('',(0.999999999881336,1.54054332117506E-5,0.));
#512=DIRECTION('',(0.,0.,1.));
#513=DIRECTION('',(-1.,0.,0.));
#514=CARTESIAN_POINT('',(0.,0.,0.));
#515=CARTESIAN_POINT('',(-13.09751,0.,-278.7247672801));
#516=CARTESIAN_POINT('',(-13.09751,0.,-267.3201672801));
#517=CARTESIAN_POINT('',(0.,0.,-267.3201672801));
#518=CARTESIAN_POINT('',(0.,0.,-283.4918710631));
#519=CARTESIAN_POINT('',(-13.09751,0.,-278.7247672801));
#520=CARTESIAN_POINT('',(0.,0.,-30.1));
#521=CARTESIAN_POINT('',(0.,0.,-30.1));
#522=CARTESIAN_POINT('',(0.,0.,-30.1));
#523=CARTESIAN_POINT('',(0.,0.,-283.491871063));
#524=CARTESIAN_POINT('',(0.,0.,0.));
#525=CARTESIAN_POINT('',(0.,0.,-30.1));
#526=CARTESIAN_POINT('',(0.,0.,-30.1));
#527=CARTESIAN_POINT('',(13.09751000001,-3.20796473966254E-15,-278.724779602798));
#528=CARTESIAN_POINT('',(13.09751000001,-3.42892009969586,-278.724779602798));
#529=CARTESIAN_POINT('',(11.6859507923075,-6.8367254830239,-278.724779602798));
#530=CARTESIAN_POINT('',(6.83672548302389,-11.6859507923075,-278.724779602798));
#531=CARTESIAN_POINT('',(3.42892009969585,-13.09751000001,-278.724779602798));
#532=CARTESIAN_POINT('',(-3.42892009969586,-13.09751000001,-278.724779602798));
#533=CARTESIAN_POINT('',(-6.8367254830239,-11.6859507923075,-278.724779602798));
#534=CARTESIAN_POINT('',(-11.6859507923075,-6.8367254830239,-278.724779602798));
#535=CARTESIAN_POINT('',(-13.09751000001,-3.42892009969585,-278.724779602798));
#536=CARTESIAN_POINT('',(-13.09751000001,1.60398236983127E-15,-278.724779602798));
#537=CARTESIAN_POINT('',(13.09751,0.,-278.7247672801));
#538=CARTESIAN_POINT('',(-13.09751000001,0.,-278.7247672801));
#539=CARTESIAN_POINT('',(0.,0.,-283.4918710631));
#540=CARTESIAN_POINT('',(0.,0.,-283.4918710631));
#541=CARTESIAN_POINT('',(0.,0.,-283.4918710631));
#542=CARTESIAN_POINT('',(0.,0.,-281.0606481338));
#543=CARTESIAN_POINT('',(-13.09751000001,1.60398236983127E-15,-278.724779602798));
#544=CARTESIAN_POINT('',(-13.09751000001,3.42892009969586,-278.724779602798));
#545=CARTESIAN_POINT('',(-11.6859507923075,6.8367254830239,-278.724779602798));
#546=CARTESIAN_POINT('',(-6.8367254830239,11.6859507923075,-278.724779602798));
#547=CARTESIAN_POINT('',(-3.42892009969585,13.09751000001,-278.724779602798));
#548=CARTESIAN_POINT('',(3.42892009969586,13.09751000001,-278.724779602798));
#549=CARTESIAN_POINT('',(6.8367254830239,11.6859507923075,-278.724779602798));
#550=CARTESIAN_POINT('',(11.6859507923075,6.8367254830239,-278.724779602798));
#551=CARTESIAN_POINT('',(13.09751000001,3.42892009969586,-278.724779602798));
#552=CARTESIAN_POINT('',(13.09751000001,1.60398236983127E-15,-278.724779602798));
#553=CARTESIAN_POINT('',(0.,0.,-281.0606481338));
#554=CARTESIAN_POINT('',(-13.09751,0.,-267.3201672801));
#555=CARTESIAN_POINT('',(-13.09751,0.,-267.3201672801));
#556=CARTESIAN_POINT('',(0.,0.,-267.3201672801));
#557=CARTESIAN_POINT('',(13.09751,0.,-267.3201672801));
#558=CARTESIAN_POINT('',(13.09751,0.,-267.3201672801));
#559=CARTESIAN_POINT('',(0.,0.,-17.43040644684));
#560=CARTESIAN_POINT('',(0.,0.,-267.3201672801));
#561=CARTESIAN_POINT('',(0.,0.,-17.43040644684));
#562=CARTESIAN_POINT('',(0.,0.,-267.3201672801));
#563=CARTESIAN_POINT('',(15.87499999937,0.0001117510317653,-30.1000000008137));
#564=CARTESIAN_POINT('',(15.87499999998,2.497916845533E-5,28.2));
#565=CARTESIAN_POINT('',(15.87499999998,2.497916846238E-5,-30.1000000008187));
#566=CARTESIAN_POINT('',(0.,0.,-30.1000000008187));
#567=CARTESIAN_POINT('',(-15.87499999878,-0.0001972124424388,-30.1000000008087));
#568=CARTESIAN_POINT('',(-15.87499999938,-9.92614475331E-5,-30.1000000008137));
#569=CARTESIAN_POINT('',(-15.875,0.,28.2));
#570=CARTESIAN_POINT('',(0.,0.,28.2));
#571=CARTESIAN_POINT('',(0.,0.,-346.015));
#572=CARTESIAN_POINT('',(0.,0.,30.2));
#573=CARTESIAN_POINT('',(-14.72029946162,0.,30.2));
#574=CARTESIAN_POINT('',(14.72029946162,0.,30.2));
#575=CARTESIAN_POINT('',(0.,0.,30.2));
#576=CARTESIAN_POINT('',(0.,0.,30.2));
#577=CARTESIAN_POINT('',(-14.72029946162,0.,30.2));
#578=CARTESIAN_POINT('',(14.72029946162,0.,30.2));
#579=CARTESIAN_POINT('',(0.,0.,29.2));
#580=CARTESIAN_POINT('',(0.,0.,28.2));
#581=CARTESIAN_POINT('',(0.,0.,29.2));
#582=CARTESIAN_POINT('',(0.,0.,-30.1000000008087));
#583=CARTESIAN_POINT('',(0.,0.,-346.015));
#584=CARTESIAN_POINT('',(-12.73632855354,-4.970767948612E-5,-60.10000000152));
#585=CARTESIAN_POINT('',(-12.73632855393,1.664621363993E-14,-60.10000000151));
#586=CARTESIAN_POINT('',(-15.5918008693,0.,-30.4447861549812));
#587=CARTESIAN_POINT('',(0.,0.,-60.10000000151));
#588=CARTESIAN_POINT('',(12.73632855385,4.446257473553E-5,-60.10000000153));
#589=CARTESIAN_POINT('',(12.73632855351,7.128345210993E-5,-60.10000000152));
#590=CARTESIAN_POINT('',(15.59180086921,5.443104018471E-5,-30.4447861549812));
#591=CARTESIAN_POINT('',(0.,0.,-30.4447861549812));
#592=CARTESIAN_POINT('',(0.,0.,-45.27239307825));
#593=CARTESIAN_POINT('',(15.98995934738,0.0002012804476358,-30.483124456));
#594=CARTESIAN_POINT('',(-15.98995934742,-0.0001986405630012,-30.48312445599));
#595=CARTESIAN_POINT('',(0.,0.,-30.48312445599));
#596=CARTESIAN_POINT('',(0.,0.,-30.4447861549912));
#597=CARTESIAN_POINT('',(0.,0.,-30.483124456));
#598=CARTESIAN_POINT('',(0.,0.,-60.10000000153));
#599=CARTESIAN_POINT('',(0.,0.,-45.27239307826));
#600=CARTESIAN_POINT('',(0.,0.,-267.32));
#601=CARTESIAN_POINT('',(-12.5,0.,-267.32));
#602=CARTESIAN_POINT('',(12.5,0.,-267.32));
#603=CARTESIAN_POINT('',(0.,0.,-267.32));
#604=CARTESIAN_POINT('',(0.,0.,-267.32));
#605=CARTESIAN_POINT('',(12.49999999998,1.626177672392E-5,-267.32));
#606=CARTESIAN_POINT('',(12.49999999998,2.43926650807E-5,-60.46498172399));
#607=CARTESIAN_POINT('',(-12.5,0.,-267.32));
#608=CARTESIAN_POINT('',(-12.5,0.,-60.46498172399));
#609=CARTESIAN_POINT('',(0.,0.,-60.46498172401));
#610=CARTESIAN_POINT('',(0.,0.,-346.015));
#611=CARTESIAN_POINT('',(-12.9,1.686012982872E-14,-60.46498172399));
#612=CARTESIAN_POINT('',(12.9,7.216593316851E-14,-60.46498172401));
#613=CARTESIAN_POINT('',(0.,0.,-60.46498172401));
#614=CARTESIAN_POINT('',(0.,0.,-60.46498172399));
#615=CARTESIAN_POINT('',(0.,0.,-60.46498172399));
#616=CARTESIAN_POINT('',(0.,0.,-346.015));
#617=MECHANICAL_DESIGN_GEOMETRIC_PRESENTATION_REPRESENTATION('',(#323,#324,
#325,#326,#327,#328,#329,#330,#331,#332,#333,#334,#335,#336),#618);
#618=(
GEOMETRIC_REPRESENTATION_CONTEXT(3)
GLOBAL_UNCERTAINTY_ASSIGNED_CONTEXT((#619))
GLOBAL_UNIT_ASSIGNED_CONTEXT((#625,#621,#620))
REPRESENTATION_CONTEXT('TAWLN0102_ID1_0313','TOP_LEVEL_ASSEMBLY_PART')
);
#619=UNCERTAINTY_MEASURE_WITH_UNIT(LENGTH_MEASURE(0.0508),#625,
'DISTANCE_ACCURACY_VALUE','Maximum Tolerance applied to model');
#620=(
NAMED_UNIT(*)
SI_UNIT($,.STERADIAN.)
SOLID_ANGLE_UNIT()
);
#621=(
CONVERSION_BASED_UNIT('DEGREE',#623)
NAMED_UNIT(#622)
PLANE_ANGLE_UNIT()
);
#622=DIMENSIONAL_EXPONENTS(0.,0.,0.,0.,0.,0.,0.);
#623=PLANE_ANGLE_MEASURE_WITH_UNIT(PLANE_ANGLE_MEASURE(0.0174532925),#624);
#624=(
NAMED_UNIT(*)
PLANE_ANGLE_UNIT()
SI_UNIT($,.RADIAN.)
);
#625=(
LENGTH_UNIT()
NAMED_UNIT(*)
SI_UNIT(.MILLI.,.METRE.)
);
ENDSEC;
END-ISO-10303-21;
