ISO-10303-21;
HEADER;
/* Generated by software containing ST-Developer
 * from STEP Tools, Inc. (www.steptools.com) 
 */
/* OPTION: using custom schema-name function */

FILE_DESCRIPTION(
/* description */ (''),
/* implementation_level */ '2;1');

FILE_NAME(
/* name */ 'TAWLN0061_ID0_9375.stp',
/* time_stamp */ '2025-06-11T17:03:18+09:00',
/* author */ (''),
/* organization */ (''),
/* preprocessor_version */ 'ST-DEVELOPER v18.101',
/* originating_system */ 'SIEMENS PLM Software NX 2011',
/* authorisation */ '');

FILE_SCHEMA (('AUTOMOTIVE_DESIGN { 1 0 10303 214 3 1 1 1 }'));
ENDSEC;

DATA;
#10=CONSTRUCTIVE_GEOMETRY_REPRESENTATION_RELATIONSHIP(
'supplemental geometry','',#26,#11);
#11=CONSTRUCTIVE_GEOMETRY_REPRESENTATION('supplemental geometry',(#360,
#361,#362,#363,#364,#365,#366),#620);
#12=GEOMETRICALLY_BOUNDED_WIREFRAME_SHAPE_REPRESENTATION(
'TAWLN0061_ID0_9375-None',(#27),#620);
#13=SHAPE_REPRESENTATION_RELATIONSHIP('None',
'relationship between TAWLN0061_ID0_9375-None and TAWLN0061_ID0_9375-N
one',#26,#15);
#14=SHAPE_REPRESENTATION_RELATIONSHIP('None',
'relationship between TAWLN0061_ID0_9375-None and TAWLN0061_ID0_9375-N
one',#26,#12);
#15=ADVANCED_BREP_SHAPE_REPRESENTATION('TAWLN0061_ID0_9375-None',(#42,#43),
#620);
#16=SHAPE_DEFINITION_REPRESENTATION(#17,#26);
#17=PRODUCT_DEFINITION_SHAPE('','SHAPE FOR TAWLN0061_ID0_9375_ASM.',#18);
#18=PRODUCT_DEFINITION('part definition','',#20,#19);
#19=PRODUCT_DEFINITION_CONTEXT('part definition',#25,'design');
#20=PRODUCT_DEFINITION_FORMATION_WITH_SPECIFIED_SOURCE(' ',' ',#22,
 .NOT_KNOWN.);
#21=PRODUCT_RELATED_PRODUCT_CATEGORY('part','',(#22));
#22=PRODUCT('TAWLN0061_ID0_9375_ASM','TAWLN0061_ID0_9375_ASM',
'NOT SPECIFIED',(#23));
#23=PRODUCT_CONTEXT('',#25,'mechanical');
#24=APPLICATION_PROTOCOL_DEFINITION('international standard',
'automotive_design',2010,#25);
#25=APPLICATION_CONTEXT(
'core data for automotive mechanical design processes');
#26=SHAPE_REPRESENTATION('TAWLN0061_ID0_9375-None',(#359),#620);
#27=GEOMETRIC_CURVE_SET('None',(#517,#285,#286,#287,#288));
#28=TOROIDAL_SURFACE('',#390,15.97755067652,0.4);
#29=TOROIDAL_SURFACE('',#392,15.97755067652,0.4);
#30=TOROIDAL_SURFACE('',#402,11.9,0.4);
#31=TOROIDAL_SURFACE('',#404,11.9,0.4);
#32=SURFACE_STYLE_USAGE(.BOTH.,#34);
#33=SURFACE_STYLE_USAGE(.BOTH.,#35);
#34=SURFACE_SIDE_STYLE('',(#36));
#35=SURFACE_SIDE_STYLE('',(#37));
#36=SURFACE_STYLE_FILL_AREA(#38);
#37=SURFACE_STYLE_FILL_AREA(#39);
#38=FILL_AREA_STYLE('',(#40));
#39=FILL_AREA_STYLE('',(#41));
#40=FILL_AREA_STYLE_COLOUR('',#357);
#41=FILL_AREA_STYLE_COLOUR('',#358);
#42=MANIFOLD_SOLID_BREP('CUT',#44);
#43=MANIFOLD_SOLID_BREP('NOCUT',#45);
#44=CLOSED_SHELL('',(#75,#76,#77,#78,#79));
#45=CLOSED_SHELL('',(#80,#81,#82,#83,#84,#85,#86,#87,#88,#89,#90,#91,#92,
#93));
#46=PLANE('',#373);
#47=PLANE('',#379);
#48=PLANE('',#397);
#49=CYLINDRICAL_SURFACE('',#370,11.90625);
#50=CYLINDRICAL_SURFACE('',#372,11.90625);
#51=CYLINDRICAL_SURFACE('',#376,15.875);
#52=CYLINDRICAL_SURFACE('',#384,15.875);
#53=CYLINDRICAL_SURFACE('',#399,11.5);
#54=CYLINDRICAL_SURFACE('',#405,11.5);
#55=CIRCLE('',#369,11.90625);
#56=CIRCLE('',#371,11.90625);
#57=CIRCLE('',#374,15.875);
#58=CIRCLE('',#375,15.875);
#59=CIRCLE('',#377,14.72029946162);
#60=CIRCLE('',#378,14.72029946162);
#61=CIRCLE('',#381,15.875);
#62=CIRCLE('',#383,15.875);
#63=CIRCLE('',#385,11.67542507202);
#64=CIRCLE('',#386,15.58097273197);
#65=CIRCLE('',#388,0.4);
#66=CIRCLE('',#389,0.4);
#67=CIRCLE('',#391,15.58097273197);
#68=CIRCLE('',#393,11.67542507202);
#69=CIRCLE('',#395,11.5);
#70=CIRCLE('',#396,11.5);
#71=CIRCLE('',#398,11.5);
#72=CIRCLE('',#400,0.4);
#73=CIRCLE('',#401,0.4);
#74=CIRCLE('',#403,11.5);
#75=ADVANCED_FACE('',(#100),#94,.T.);
#76=ADVANCED_FACE('',(#101),#95,.T.);
#77=ADVANCED_FACE('',(#102),#49,.T.);
#78=ADVANCED_FACE('',(#103),#50,.T.);
#79=ADVANCED_FACE('',(#104),#46,.T.);
#80=ADVANCED_FACE('',(#105),#51,.T.);
#81=ADVANCED_FACE('',(#106),#47,.T.);
#82=ADVANCED_FACE('',(#107),#96,.T.);
#83=ADVANCED_FACE('',(#108),#97,.T.);
#84=ADVANCED_FACE('',(#109),#52,.T.);
#85=ADVANCED_FACE('',(#110),#98,.T.);
#86=ADVANCED_FACE('',(#111),#28,.F.);
#87=ADVANCED_FACE('',(#112),#29,.F.);
#88=ADVANCED_FACE('',(#113),#99,.T.);
#89=ADVANCED_FACE('',(#114),#48,.F.);
#90=ADVANCED_FACE('',(#115),#53,.T.);
#91=ADVANCED_FACE('',(#116),#30,.F.);
#92=ADVANCED_FACE('',(#117),#31,.F.);
#93=ADVANCED_FACE('',(#118),#54,.T.);
#94=CONICAL_SURFACE('',#367,6.072187499992,70.0000971436908);
#95=CONICAL_SURFACE('',#368,6.072187499992,70.0000971436908);
#96=CONICAL_SURFACE('',#380,15.29764973081,30.0000416330103);
#97=CONICAL_SURFACE('',#382,15.29764973081,30.0000416330103);
#98=CONICAL_SURFACE('',#387,13.628198902,7.50001040825258);
#99=CONICAL_SURFACE('',#394,13.62819890199,7.50001040825258);
#100=FACE_OUTER_BOUND('',#119,.T.);
#101=FACE_OUTER_BOUND('',#120,.T.);
#102=FACE_OUTER_BOUND('',#121,.T.);
#103=FACE_OUTER_BOUND('',#122,.T.);
#104=FACE_OUTER_BOUND('',#123,.T.);
#105=FACE_OUTER_BOUND('',#124,.T.);
#106=FACE_OUTER_BOUND('',#125,.T.);
#107=FACE_OUTER_BOUND('',#126,.T.);
#108=FACE_OUTER_BOUND('',#127,.T.);
#109=FACE_OUTER_BOUND('',#128,.T.);
#110=FACE_OUTER_BOUND('',#129,.T.);
#111=FACE_OUTER_BOUND('',#130,.T.);
#112=FACE_OUTER_BOUND('',#131,.T.);
#113=FACE_OUTER_BOUND('',#132,.T.);
#114=FACE_OUTER_BOUND('',#133,.T.);
#115=FACE_OUTER_BOUND('',#134,.T.);
#116=FACE_OUTER_BOUND('',#135,.T.);
#117=FACE_OUTER_BOUND('',#136,.T.);
#118=FACE_OUTER_BOUND('',#137,.T.);
#119=EDGE_LOOP('',(#138,#139,#140));
#120=EDGE_LOOP('',(#141,#142,#143));
#121=EDGE_LOOP('',(#144,#145,#146,#147));
#122=EDGE_LOOP('',(#148,#149,#150,#151));
#123=EDGE_LOOP('',(#152,#153));
#124=EDGE_LOOP('',(#154,#155,#156,#157));
#125=EDGE_LOOP('',(#158,#159));
#126=EDGE_LOOP('',(#160,#161,#162,#163));
#127=EDGE_LOOP('',(#164,#165,#166,#167));
#128=EDGE_LOOP('',(#168,#169,#170,#171));
#129=EDGE_LOOP('',(#172,#173,#174,#175));
#130=EDGE_LOOP('',(#176,#177,#178,#179));
#131=EDGE_LOOP('',(#180,#181,#182,#183));
#132=EDGE_LOOP('',(#184,#185,#186,#187));
#133=EDGE_LOOP('',(#188,#189));
#134=EDGE_LOOP('',(#190,#191,#192,#193));
#135=EDGE_LOOP('',(#194,#195,#196,#197));
#136=EDGE_LOOP('',(#198,#199,#200,#201));
#137=EDGE_LOOP('',(#202,#203,#204,#205));
#138=ORIENTED_EDGE('',*,*,#225,.T.);
#139=ORIENTED_EDGE('',*,*,#226,.F.);
#140=ORIENTED_EDGE('',*,*,#227,.T.);
#141=ORIENTED_EDGE('',*,*,#227,.F.);
#142=ORIENTED_EDGE('',*,*,#226,.T.);
#143=ORIENTED_EDGE('',*,*,#228,.T.);
#144=ORIENTED_EDGE('',*,*,#228,.F.);
#145=ORIENTED_EDGE('',*,*,#229,.F.);
#146=ORIENTED_EDGE('',*,*,#230,.F.);
#147=ORIENTED_EDGE('',*,*,#231,.T.);
#148=ORIENTED_EDGE('',*,*,#225,.F.);
#149=ORIENTED_EDGE('',*,*,#231,.F.);
#150=ORIENTED_EDGE('',*,*,#232,.F.);
#151=ORIENTED_EDGE('',*,*,#229,.T.);
#152=ORIENTED_EDGE('',*,*,#230,.T.);
#153=ORIENTED_EDGE('',*,*,#232,.T.);
#154=ORIENTED_EDGE('',*,*,#233,.T.);
#155=ORIENTED_EDGE('',*,*,#234,.F.);
#156=ORIENTED_EDGE('',*,*,#235,.F.);
#157=ORIENTED_EDGE('',*,*,#236,.F.);
#158=ORIENTED_EDGE('',*,*,#237,.T.);
#159=ORIENTED_EDGE('',*,*,#238,.T.);
#160=ORIENTED_EDGE('',*,*,#236,.T.);
#161=ORIENTED_EDGE('',*,*,#239,.T.);
#162=ORIENTED_EDGE('',*,*,#238,.F.);
#163=ORIENTED_EDGE('',*,*,#240,.F.);
#164=ORIENTED_EDGE('',*,*,#237,.F.);
#165=ORIENTED_EDGE('',*,*,#239,.F.);
#166=ORIENTED_EDGE('',*,*,#241,.T.);
#167=ORIENTED_EDGE('',*,*,#240,.T.);
#168=ORIENTED_EDGE('',*,*,#235,.T.);
#169=ORIENTED_EDGE('',*,*,#242,.F.);
#170=ORIENTED_EDGE('',*,*,#233,.F.);
#171=ORIENTED_EDGE('',*,*,#241,.F.);
#172=ORIENTED_EDGE('',*,*,#243,.F.);
#173=ORIENTED_EDGE('',*,*,#244,.F.);
#174=ORIENTED_EDGE('',*,*,#245,.T.);
#175=ORIENTED_EDGE('',*,*,#246,.F.);
#176=ORIENTED_EDGE('',*,*,#247,.T.);
#177=ORIENTED_EDGE('',*,*,#242,.T.);
#178=ORIENTED_EDGE('',*,*,#248,.F.);
#179=ORIENTED_EDGE('',*,*,#246,.T.);
#180=ORIENTED_EDGE('',*,*,#248,.T.);
#181=ORIENTED_EDGE('',*,*,#234,.T.);
#182=ORIENTED_EDGE('',*,*,#247,.F.);
#183=ORIENTED_EDGE('',*,*,#249,.T.);
#184=ORIENTED_EDGE('',*,*,#245,.F.);
#185=ORIENTED_EDGE('',*,*,#250,.F.);
#186=ORIENTED_EDGE('',*,*,#243,.T.);
#187=ORIENTED_EDGE('',*,*,#249,.F.);
#188=ORIENTED_EDGE('',*,*,#251,.T.);
#189=ORIENTED_EDGE('',*,*,#252,.T.);
#190=ORIENTED_EDGE('',*,*,#253,.T.);
#191=ORIENTED_EDGE('',*,*,#251,.F.);
#192=ORIENTED_EDGE('',*,*,#254,.F.);
#193=ORIENTED_EDGE('',*,*,#255,.F.);
#194=ORIENTED_EDGE('',*,*,#256,.F.);
#195=ORIENTED_EDGE('',*,*,#250,.T.);
#196=ORIENTED_EDGE('',*,*,#257,.T.);
#197=ORIENTED_EDGE('',*,*,#255,.T.);
#198=ORIENTED_EDGE('',*,*,#257,.F.);
#199=ORIENTED_EDGE('',*,*,#244,.T.);
#200=ORIENTED_EDGE('',*,*,#256,.T.);
#201=ORIENTED_EDGE('',*,*,#258,.T.);
#202=ORIENTED_EDGE('',*,*,#254,.T.);
#203=ORIENTED_EDGE('',*,*,#252,.F.);
#204=ORIENTED_EDGE('',*,*,#253,.F.);
#205=ORIENTED_EDGE('',*,*,#258,.F.);
#206=VERTEX_POINT('',#539);
#207=VERTEX_POINT('',#540);
#208=VERTEX_POINT('',#542);
#209=VERTEX_POINT('',#557);
#210=VERTEX_POINT('',#559);
#211=VERTEX_POINT('',#566);
#212=VERTEX_POINT('',#567);
#213=VERTEX_POINT('',#569);
#214=VERTEX_POINT('',#571);
#215=VERTEX_POINT('',#575);
#216=VERTEX_POINT('',#576);
#217=VERTEX_POINT('',#587);
#218=VERTEX_POINT('',#588);
#219=VERTEX_POINT('',#590);
#220=VERTEX_POINT('',#592);
#221=VERTEX_POINT('',#603);
#222=VERTEX_POINT('',#604);
#223=VERTEX_POINT('',#608);
#224=VERTEX_POINT('',#610);
#225=EDGE_CURVE('',#206,#207,#259,.T.);
#226=EDGE_CURVE('',#208,#207,#293,.T.);
#227=EDGE_CURVE('',#208,#206,#294,.T.);
#228=EDGE_CURVE('',#207,#206,#260,.T.);
#229=EDGE_CURVE('',#209,#207,#295,.T.);
#230=EDGE_CURVE('',#210,#209,#55,.T.);
#231=EDGE_CURVE('',#210,#206,#296,.T.);
#232=EDGE_CURVE('',#209,#210,#56,.T.);
#233=EDGE_CURVE('',#211,#212,#297,.T.);
#234=EDGE_CURVE('',#213,#212,#57,.T.);
#235=EDGE_CURVE('',#214,#213,#298,.T.);
#236=EDGE_CURVE('',#211,#214,#58,.T.);
#237=EDGE_CURVE('',#215,#216,#59,.T.);
#238=EDGE_CURVE('',#216,#215,#60,.T.);
#239=EDGE_CURVE('',#214,#215,#299,.T.);
#240=EDGE_CURVE('',#211,#216,#300,.T.);
#241=EDGE_CURVE('',#214,#211,#61,.T.);
#242=EDGE_CURVE('',#212,#213,#62,.T.);
#243=EDGE_CURVE('',#217,#218,#301,.T.);
#244=EDGE_CURVE('',#219,#217,#63,.T.);
#245=EDGE_CURVE('',#219,#220,#302,.T.);
#246=EDGE_CURVE('',#218,#220,#64,.T.);
#247=EDGE_CURVE('',#220,#212,#65,.T.);
#248=EDGE_CURVE('',#218,#213,#66,.T.);
#249=EDGE_CURVE('',#220,#218,#67,.T.);
#250=EDGE_CURVE('',#217,#219,#68,.T.);
#251=EDGE_CURVE('',#221,#222,#69,.T.);
#252=EDGE_CURVE('',#222,#221,#70,.T.);
#253=EDGE_CURVE('',#223,#222,#303,.T.);
#254=EDGE_CURVE('',#224,#221,#304,.T.);
#255=EDGE_CURVE('',#223,#224,#71,.T.);
#256=EDGE_CURVE('',#217,#224,#72,.T.);
#257=EDGE_CURVE('',#219,#223,#73,.T.);
#258=EDGE_CURVE('',#224,#223,#74,.T.);
#259=B_SPLINE_CURVE_WITH_KNOTS('',3,(#529,#530,#531,#532,#533,#534,#535,
#536,#537,#538),.UNSPECIFIED.,.F.,.F.,(4,2,2,2,4),(0.,0.25,0.5,0.75,1.),
 .UNSPECIFIED.);
#260=B_SPLINE_CURVE_WITH_KNOTS('',3,(#545,#546,#547,#548,#549,#550,#551,
#552,#553,#554),.UNSPECIFIED.,.F.,.F.,(4,2,2,2,4),(0.,0.25,0.5,0.75,1.),
 .UNSPECIFIED.);
#261=CURVE_STYLE('',#274,POSITIVE_LENGTH_MEASURE(0.13),#272);
#262=CURVE_STYLE('',#275,POSITIVE_LENGTH_MEASURE(0.13),#272);
#263=CURVE_STYLE('',#276,POSITIVE_LENGTH_MEASURE(0.13),#272);
#264=CURVE_STYLE('',#277,POSITIVE_LENGTH_MEASURE(0.13),#272);
#265=CURVE_STYLE('',#278,POSITIVE_LENGTH_MEASURE(0.13),#355);
#266=CURVE_STYLE('',#279,POSITIVE_LENGTH_MEASURE(0.13),#355);
#267=CURVE_STYLE('',#280,POSITIVE_LENGTH_MEASURE(0.13),#356);
#268=CURVE_STYLE('',#281,POSITIVE_LENGTH_MEASURE(0.13),#273);
#269=CURVE_STYLE('',#282,POSITIVE_LENGTH_MEASURE(0.13),#273);
#270=CURVE_STYLE('',#283,POSITIVE_LENGTH_MEASURE(0.13),#355);
#271=CURVE_STYLE('',#284,POSITIVE_LENGTH_MEASURE(0.13),#355);
#272=DRAUGHTING_PRE_DEFINED_COLOUR('blue');
#273=DRAUGHTING_PRE_DEFINED_COLOUR('yellow');
#274=DRAUGHTING_PRE_DEFINED_CURVE_FONT('continuous');
#275=DRAUGHTING_PRE_DEFINED_CURVE_FONT('continuous');
#276=DRAUGHTING_PRE_DEFINED_CURVE_FONT('continuous');
#277=DRAUGHTING_PRE_DEFINED_CURVE_FONT('continuous');
#278=DRAUGHTING_PRE_DEFINED_CURVE_FONT('continuous');
#279=DRAUGHTING_PRE_DEFINED_CURVE_FONT('continuous');
#280=DRAUGHTING_PRE_DEFINED_CURVE_FONT('continuous');
#281=DRAUGHTING_PRE_DEFINED_CURVE_FONT('continuous');
#282=DRAUGHTING_PRE_DEFINED_CURVE_FONT('continuous');
#283=DRAUGHTING_PRE_DEFINED_CURVE_FONT('continuous');
#284=DRAUGHTING_PRE_DEFINED_CURVE_FONT('continuous');
#285=TRIMMED_CURVE('',#289,(PARAMETER_VALUE(0.)),(PARAMETER_VALUE(1.)),
 .T.,.PARAMETER.);
#286=TRIMMED_CURVE('',#290,(PARAMETER_VALUE(0.)),(PARAMETER_VALUE(1.)),
 .T.,.PARAMETER.);
#287=TRIMMED_CURVE('',#291,(PARAMETER_VALUE(0.)),(PARAMETER_VALUE(1.)),
 .T.,.PARAMETER.);
#288=TRIMMED_CURVE('',#292,(PARAMETER_VALUE(0.)),(PARAMETER_VALUE(1.)),
 .T.,.PARAMETER.);
#289=LINE('',#518,#305);
#290=LINE('',#519,#306);
#291=LINE('',#520,#307);
#292=LINE('',#521,#308);
#293=LINE('',#541,#309);
#294=LINE('',#543,#310);
#295=LINE('',#556,#311);
#296=LINE('',#560,#312);
#297=LINE('',#565,#313);
#298=LINE('',#570,#314);
#299=LINE('',#579,#315);
#300=LINE('',#580,#316);
#301=LINE('',#586,#317);
#302=LINE('',#591,#318);
#303=LINE('',#607,#319);
#304=LINE('',#609,#320);
#305=VECTOR('',#408,11.90625);
#306=VECTOR('',#409,14.54432060173);
#307=VECTOR('',#410,12.67036660354);
#308=VECTOR('',#411,10.2108);
#309=VECTOR('',#426,1.);
#310=VECTOR('',#427,1.);
#311=VECTOR('',#432,1.);
#312=VECTOR('',#435,1.);
#313=VECTOR('',#444,1.);
#314=VECTOR('',#447,1.);
#315=VECTOR('',#458,1.);
#316=VECTOR('',#459,1.);
#317=VECTOR('',#470,1.);
#318=VECTOR('',#473,1.);
#319=VECTOR('',#498,1.);
#320=VECTOR('',#499,1.);
#321=PRESENTATION_LAYER_ASSIGNMENT('1','Layer 1',(#517,#360,#361,#362,#365,
#366,#42,#43));
#322=PRESENTATION_LAYER_ASSIGNMENT('3','Layer 3',(#285,#286,#287,#288));
#323=PRESENTATION_LAYER_ASSIGNMENT('2','Layer 2',(#363,#364));
#324=STYLED_ITEM('',(#338),#517);
#325=STYLED_ITEM('',(#339),#285);
#326=STYLED_ITEM('',(#340),#286);
#327=STYLED_ITEM('',(#341),#287);
#328=STYLED_ITEM('',(#342),#288);
#329=STYLED_ITEM('',(#343),#360);
#330=STYLED_ITEM('',(#344),#361);
#331=STYLED_ITEM('',(#345),#362);
#332=STYLED_ITEM('',(#346),#363);
#333=STYLED_ITEM('',(#347),#364);
#334=STYLED_ITEM('',(#348),#365);
#335=STYLED_ITEM('',(#349),#366);
#336=STYLED_ITEM('',(#350),#42);
#337=STYLED_ITEM('',(#351),#43);
#338=PRESENTATION_STYLE_ASSIGNMENT((#352));
#339=PRESENTATION_STYLE_ASSIGNMENT((#261));
#340=PRESENTATION_STYLE_ASSIGNMENT((#262));
#341=PRESENTATION_STYLE_ASSIGNMENT((#263));
#342=PRESENTATION_STYLE_ASSIGNMENT((#264));
#343=PRESENTATION_STYLE_ASSIGNMENT((#265));
#344=PRESENTATION_STYLE_ASSIGNMENT((#266));
#345=PRESENTATION_STYLE_ASSIGNMENT((#267));
#346=PRESENTATION_STYLE_ASSIGNMENT((#268));
#347=PRESENTATION_STYLE_ASSIGNMENT((#269));
#348=PRESENTATION_STYLE_ASSIGNMENT((#270));
#349=PRESENTATION_STYLE_ASSIGNMENT((#271));
#350=PRESENTATION_STYLE_ASSIGNMENT((#32));
#351=PRESENTATION_STYLE_ASSIGNMENT((#33));
#352=POINT_STYLE('',#353,POSITIVE_LENGTH_MEASURE(3.),#354);
#353=PRE_DEFINED_POINT_MARKER_SYMBOL('plus');
#354=COLOUR_RGB('Medium Royal',0.301960784313725,0.427450980392157,0.701960784313725);
#355=COLOUR_RGB('Medium Maroon',0.6,0.4,0.4);
#356=COLOUR_RGB('Strong Gold',0.611764705882353,0.556862745098039,0.380392156862745);
#357=COLOUR_RGB('light gray',0.8,0.8,0.8);
#358=COLOUR_RGB('medium gray',0.490196078431373,0.490196078431373,0.490196078431373);
#359=AXIS2_PLACEMENT_3D('',#516,#406,#407);
#360=AXIS2_PLACEMENT_3D('',#522,#412,#413);
#361=AXIS2_PLACEMENT_3D('',#523,#414,#415);
#362=AXIS2_PLACEMENT_3D('MCS',#524,#416,#417);
#363=AXIS2_PLACEMENT_3D('CIP',#525,#418,#419);
#364=AXIS2_PLACEMENT_3D('PCS',#526,#420,#421);
#365=AXIS2_PLACEMENT_3D('',#527,#422,#423);
#366=AXIS2_PLACEMENT_3D('',#528,#424,#425);
#367=AXIS2_PLACEMENT_3D('',#544,#428,#429);
#368=AXIS2_PLACEMENT_3D('',#555,#430,#431);
#369=AXIS2_PLACEMENT_3D('',#558,#433,#434);
#370=AXIS2_PLACEMENT_3D('',#561,#436,#437);
#371=AXIS2_PLACEMENT_3D('',#562,#438,#439);
#372=AXIS2_PLACEMENT_3D('',#563,#440,#441);
#373=AXIS2_PLACEMENT_3D('',#564,#442,#443);
#374=AXIS2_PLACEMENT_3D('',#568,#445,#446);
#375=AXIS2_PLACEMENT_3D('',#572,#448,#449);
#376=AXIS2_PLACEMENT_3D('',#573,#450,#451);
#377=AXIS2_PLACEMENT_3D('',#574,#452,#453);
#378=AXIS2_PLACEMENT_3D('',#577,#454,#455);
#379=AXIS2_PLACEMENT_3D('',#578,#456,#457);
#380=AXIS2_PLACEMENT_3D('',#581,#460,#461);
#381=AXIS2_PLACEMENT_3D('',#582,#462,#463);
#382=AXIS2_PLACEMENT_3D('',#583,#464,#465);
#383=AXIS2_PLACEMENT_3D('',#584,#466,#467);
#384=AXIS2_PLACEMENT_3D('',#585,#468,#469);
#385=AXIS2_PLACEMENT_3D('',#589,#471,#472);
#386=AXIS2_PLACEMENT_3D('',#593,#474,#475);
#387=AXIS2_PLACEMENT_3D('',#594,#476,#477);
#388=AXIS2_PLACEMENT_3D('',#595,#478,#479);
#389=AXIS2_PLACEMENT_3D('',#596,#480,#481);
#390=AXIS2_PLACEMENT_3D('',#597,#482,#483);
#391=AXIS2_PLACEMENT_3D('',#598,#484,#485);
#392=AXIS2_PLACEMENT_3D('',#599,#486,#487);
#393=AXIS2_PLACEMENT_3D('',#600,#488,#489);
#394=AXIS2_PLACEMENT_3D('',#601,#490,#491);
#395=AXIS2_PLACEMENT_3D('',#602,#492,#493);
#396=AXIS2_PLACEMENT_3D('',#605,#494,#495);
#397=AXIS2_PLACEMENT_3D('',#606,#496,#497);
#398=AXIS2_PLACEMENT_3D('',#611,#500,#501);
#399=AXIS2_PLACEMENT_3D('',#612,#502,#503);
#400=AXIS2_PLACEMENT_3D('',#613,#504,#505);
#401=AXIS2_PLACEMENT_3D('',#614,#506,#507);
#402=AXIS2_PLACEMENT_3D('',#615,#508,#509);
#403=AXIS2_PLACEMENT_3D('',#616,#510,#511);
#404=AXIS2_PLACEMENT_3D('',#617,#512,#513);
#405=AXIS2_PLACEMENT_3D('',#618,#514,#515);
#406=DIRECTION('',(0.,0.,1.));
#407=DIRECTION('',(1.,0.,0.));
#408=DIRECTION('',(1.,0.,0.));
#409=DIRECTION('',(0.,0.,-1.));
#410=DIRECTION('',(-0.939692620785898,0.,0.342020143325697));
#411=DIRECTION('',(0.,0.,1.));
#412=DIRECTION('',(0.,0.,1.));
#413=DIRECTION('',(1.,0.,0.));
#414=DIRECTION('',(0.,0.,1.));
#415=DIRECTION('',(1.,0.,0.));
#416=DIRECTION('',(0.,0.,1.));
#417=DIRECTION('',(1.,0.,0.));
#418=DIRECTION('',(0.,0.,1.));
#419=DIRECTION('',(1.,0.,0.));
#420=DIRECTION('',(0.,0.,1.));
#421=DIRECTION('',(1.,0.,0.));
#422=DIRECTION('',(0.,0.,1.));
#423=DIRECTION('',(1.,0.,0.));
#424=DIRECTION('',(0.,0.,1.));
#425=DIRECTION('',(1.,0.,0.));
#426=DIRECTION('',(-0.939692620786514,0.,0.342020143324005));
#427=DIRECTION('',(0.939692620786514,0.,0.342020143324005));
#428=DIRECTION('',(0.,0.,1.));
#429=DIRECTION('',(1.,0.,0.));
#430=DIRECTION('',(0.,0.,1.));
#431=DIRECTION('',(1.,0.,0.));
#432=DIRECTION('',(7.654610895696E-13,0.,-1.));
#433=DIRECTION('',(0.,0.,1.));
#434=DIRECTION('',(1.,0.,0.));
#435=DIRECTION('',(-7.654610895696E-13,0.,-1.));
#436=DIRECTION('',(0.,0.,-1.));
#437=DIRECTION('',(-1.,0.,0.));
#438=DIRECTION('',(0.,0.,1.));
#439=DIRECTION('',(-1.,0.,0.));
#440=DIRECTION('',(0.,0.,-1.));
#441=DIRECTION('',(-1.,0.,0.));
#442=DIRECTION('',(0.,0.,1.));
#443=DIRECTION('',(-1.,0.,0.));
#444=DIRECTION('',(-5.25387242756922E-12,8.45957279480236E-7,-0.999999999999642));
#445=DIRECTION('',(0.,0.,-1.));
#446=DIRECTION('',(-1.,0.,0.));
#447=DIRECTION('',(5.39445751259318E-12,-8.57196362913828E-7,-0.999999999999633));
#448=DIRECTION('',(0.,0.,1.));
#449=DIRECTION('',(0.999999999998761,1.57400151033894E-6,0.));
#450=DIRECTION('',(0.,0.,1.));
#451=DIRECTION('',(-1.,0.,0.));
#452=DIRECTION('',(0.,0.,1.));
#453=DIRECTION('',(-1.,0.,0.));
#454=DIRECTION('',(0.,0.,1.));
#455=DIRECTION('',(1.,0.,0.));
#456=DIRECTION('',(0.,0.,1.));
#457=DIRECTION('',(-1.,0.,0.));
#458=DIRECTION('',(0.500000000000092,0.,0.866025403784386));
#459=DIRECTION('',(-0.49999999998962,-5.40990350847521E-6,0.866025403773534));
#460=DIRECTION('',(0.,0.,-1.));
#461=DIRECTION('',(1.,0.,1.17082711992853E-17));
#462=DIRECTION('',(0.,0.,1.));
#463=DIRECTION('',(-1.,0.,0.));
#464=DIRECTION('',(0.,0.,-1.));
#465=DIRECTION('',(1.,0.,1.17082711992853E-17));
#466=DIRECTION('',(0.,0.,-1.));
#467=DIRECTION('',(0.999999999998761,1.57400151033894E-6,0.));
#468=DIRECTION('',(0.,0.,1.));
#469=DIRECTION('',(-1.,0.,0.));
#470=DIRECTION('',(-0.130526192236794,1.63655584546293E-6,0.991444861370255));
#471=DIRECTION('',(0.,0.,-1.));
#472=DIRECTION('',(0.999999999993455,3.61804058699684E-6,0.));
#473=DIRECTION('',(0.1305261922367,-1.421924264004E-6,0.991444861370599));
#474=DIRECTION('',(0.,0.,1.));
#475=DIRECTION('',(-1.,0.,0.));
#476=DIRECTION('',(0.,0.,1.));
#477=DIRECTION('',(-1.,0.,-3.82095364069709E-16));
#478=DIRECTION('',(0.,1.,0.));
#479=DIRECTION('',(-0.256376691299999,0.,0.966576945803108));
#480=DIRECTION('',(0.,-1.,0.));
#481=DIRECTION('',(0.256376691299999,0.,0.966576945803108));
#482=DIRECTION('',(0.,0.,1.));
#483=DIRECTION('',(0.999999999922786,1.24269126058398E-5,0.));
#484=DIRECTION('',(0.,0.,1.));
#485=DIRECTION('',(0.999999999993455,3.61804058699684E-6,0.));
#486=DIRECTION('',(0.,0.,1.));
#487=DIRECTION('',(-0.999999999920721,-1.25920120863303E-5,0.));
#488=DIRECTION('',(0.,0.,-1.));
#489=DIRECTION('',(-1.,0.,0.));
#490=DIRECTION('',(0.,0.,1.));
#491=DIRECTION('',(-1.,0.,-2.38809602543584E-16));
#492=DIRECTION('',(0.,0.,-1.));
#493=DIRECTION('',(-1.,0.,0.));
#494=DIRECTION('',(0.,0.,-1.));
#495=DIRECTION('',(1.,0.,0.));
#496=DIRECTION('',(0.,0.,1.));
#497=DIRECTION('',(0.,-1.,0.));
#498=DIRECTION('',(4.20216558776993E-12,-4.82073476212392E-7,-0.999999999999884));
#499=DIRECTION('',(-4.22446853299889E-12,5.03179446136987E-7,-0.999999999999874));
#500=DIRECTION('',(0.,0.,1.));
#501=DIRECTION('',(0.999999999997768,2.11282496374993E-6,0.));
#502=DIRECTION('',(0.,0.,1.));
#503=DIRECTION('',(-1.,0.,0.));
#504=DIRECTION('',(-1.66781075171703E-5,0.99999999986092,0.));
#505=DIRECTION('',(0.561437319872094,9.36371198627987E-6,0.82751926610029));
#506=DIRECTION('',(1.69025997077592E-5,-0.999999999857151,0.));
#507=DIRECTION('',(-0.561437319869986,-9.48975028011379E-6,0.82751926610029));
#508=DIRECTION('',(0.,0.,1.));
#509=DIRECTION('',(-0.999999999857151,-1.69025997078792E-5,0.));
#510=DIRECTION('',(0.,0.,1.));
#511=DIRECTION('',(-1.,0.,0.));
#512=DIRECTION('',(0.,0.,1.));
#513=DIRECTION('',(0.99999999986092,1.66781075172903E-5,0.));
#514=DIRECTION('',(0.,0.,1.));
#515=DIRECTION('',(-1.,0.,0.));
#516=CARTESIAN_POINT('',(0.,0.,0.));
#517=CARTESIAN_POINT('',(-11.90625,0.,-262.5106215844));
#518=CARTESIAN_POINT('',(-11.90625,0.,-252.2998215844));
#519=CARTESIAN_POINT('',(0.,0.,-252.2998215844));
#520=CARTESIAN_POINT('',(0.,0.,-266.8441421861));
#521=CARTESIAN_POINT('',(-11.90625,0.,-262.5106215844));
#522=CARTESIAN_POINT('',(0.,0.,-30.1));
#523=CARTESIAN_POINT('',(0.,0.,-30.1));
#524=CARTESIAN_POINT('',(0.,0.,-30.1));
#525=CARTESIAN_POINT('',(0.,0.,-266.844142186));
#526=CARTESIAN_POINT('',(0.,0.,0.));
#527=CARTESIAN_POINT('',(0.,0.,-30.1));
#528=CARTESIAN_POINT('',(0.,0.,-30.1));
#529=CARTESIAN_POINT('',(11.90624999998,-2.91619019046474E-15,-262.510632786242));
#530=CARTESIAN_POINT('',(11.90624999998,-3.11704896097839,-262.510632786242));
#531=CARTESIAN_POINT('',(10.6230765710865,-6.21490365588989,-262.510632786242));
#532=CARTESIAN_POINT('',(6.21490365588989,-10.6230765710865,-262.510632786242));
#533=CARTESIAN_POINT('',(3.11704896097838,-11.90624999998,-262.510632786242));
#534=CARTESIAN_POINT('',(-3.11704896097839,-11.90624999998,-262.510632786242));
#535=CARTESIAN_POINT('',(-6.21490365588989,-10.6230765710865,-262.510632786242));
#536=CARTESIAN_POINT('',(-10.6230765710865,-6.21490365588989,-262.510632786242));
#537=CARTESIAN_POINT('',(-11.90624999998,-3.11704896097838,-262.510632786242));
#538=CARTESIAN_POINT('',(-11.90624999998,1.45809509523237E-15,-262.510632786242));
#539=CARTESIAN_POINT('',(11.90624999999,0.,-262.5106215844));
#540=CARTESIAN_POINT('',(-11.90624999998,0.,-262.5106215844));
#541=CARTESIAN_POINT('',(0.,0.,-266.8441421861));
#542=CARTESIAN_POINT('',(0.,0.,-266.8441421861));
#543=CARTESIAN_POINT('',(0.,0.,-266.8441421861));
#544=CARTESIAN_POINT('',(0.,0.,-264.6340466792));
#545=CARTESIAN_POINT('',(-11.90624999998,1.45809509523237E-15,-262.510632786242));
#546=CARTESIAN_POINT('',(-11.90624999998,3.11704896097839,-262.510632786242));
#547=CARTESIAN_POINT('',(-10.6230765710865,6.21490365588989,-262.510632786242));
#548=CARTESIAN_POINT('',(-6.21490365588989,10.6230765710865,-262.510632786242));
#549=CARTESIAN_POINT('',(-3.11704896097839,11.90624999998,-262.510632786242));
#550=CARTESIAN_POINT('',(3.11704896097839,11.90624999998,-262.510632786242));
#551=CARTESIAN_POINT('',(6.21490365588989,10.6230765710865,-262.510632786242));
#552=CARTESIAN_POINT('',(10.6230765710865,6.21490365588989,-262.510632786242));
#553=CARTESIAN_POINT('',(11.90624999998,3.11704896097839,-262.510632786242));
#554=CARTESIAN_POINT('',(11.90624999998,1.45809509523237E-15,-262.510632786242));
#555=CARTESIAN_POINT('',(0.,0.,-264.6340466792));
#556=CARTESIAN_POINT('',(-11.90625,0.,-252.2998215844));
#557=CARTESIAN_POINT('',(-11.90625,0.,-252.2998215844));
#558=CARTESIAN_POINT('',(0.,0.,-252.2998215844));
#559=CARTESIAN_POINT('',(11.90625,0.,-252.2998215844));
#560=CARTESIAN_POINT('',(11.90625,0.,-252.2998215844));
#561=CARTESIAN_POINT('',(0.,0.,-18.26279289069));
#562=CARTESIAN_POINT('',(0.,0.,-252.2998215844));
#563=CARTESIAN_POINT('',(0.,0.,-18.26279289069));
#564=CARTESIAN_POINT('',(0.,0.,-252.2998215844));
#565=CARTESIAN_POINT('',(15.87499999968,6.181294638366E-5,-30.1000000007738));
#566=CARTESIAN_POINT('',(15.87499999998,2.498727396959E-5,28.2));
#567=CARTESIAN_POINT('',(15.87499999998,2.498727397664E-5,-30.1000000007788));
#568=CARTESIAN_POINT('',(0.,0.,-30.1000000007788));
#569=CARTESIAN_POINT('',(-15.875,2.850016843739E-14,-30.1000000007688));
#570=CARTESIAN_POINT('',(-15.87499999969,-4.997454795855E-5,-30.1000000007738));
#571=CARTESIAN_POINT('',(-15.875,0.,28.2));
#572=CARTESIAN_POINT('',(0.,0.,28.2));
#573=CARTESIAN_POINT('',(0.,0.,-323.965));
#574=CARTESIAN_POINT('',(0.,0.,30.2));
#575=CARTESIAN_POINT('',(-14.72029946162,0.,30.2));
#576=CARTESIAN_POINT('',(14.72029946162,0.,30.2));
#577=CARTESIAN_POINT('',(0.,0.,30.2));
#578=CARTESIAN_POINT('',(0.,0.,30.2));
#579=CARTESIAN_POINT('',(-14.72029946162,0.,30.2));
#580=CARTESIAN_POINT('',(14.72029946162,0.,30.2));
#581=CARTESIAN_POINT('',(0.,0.,29.2));
#582=CARTESIAN_POINT('',(0.,0.,28.2));
#583=CARTESIAN_POINT('',(0.,0.,29.2));
#584=CARTESIAN_POINT('',(0.,0.,-30.1000000007688));
#585=CARTESIAN_POINT('',(0.,0.,-323.965));
#586=CARTESIAN_POINT('',(-11.6754250712,-9.801725776644E-5,-60.10000000271));
#587=CARTESIAN_POINT('',(-11.6754250704,-0.0001947239946598,-60.1000000027));
#588=CARTESIAN_POINT('',(-15.58097273197,0.,-30.4344203022004));
#589=CARTESIAN_POINT('',(0.,0.,-60.1000000027));
#590=CARTESIAN_POINT('',(11.67542507194,4.224216178102E-5,-60.10000000273));
#591=CARTESIAN_POINT('',(11.67542507116,0.0001191383386577,-60.10000000271));
#592=CARTESIAN_POINT('',(15.58097273187,5.637259172225E-5,-30.4344203022004));
#593=CARTESIAN_POINT('',(0.,0.,-30.4344203022004));
#594=CARTESIAN_POINT('',(0.,0.,-45.26721015245));
#595=CARTESIAN_POINT('',(15.97755067652,-3.267812452926E-14,-30.4866307791));
#596=CARTESIAN_POINT('',(-15.97755067652,2.868427609153E-14,-30.48663077909));
#597=CARTESIAN_POINT('',(0.,0.,-30.48663077909));
#598=CARTESIAN_POINT('',(0.,0.,-30.4344203022104));
#599=CARTESIAN_POINT('',(0.,0.,-30.4866307791));
#600=CARTESIAN_POINT('',(0.,0.,-60.10000000273));
#601=CARTESIAN_POINT('',(0.,0.,-45.26721015247));
#602=CARTESIAN_POINT('',(0.,0.,-252.3));
#603=CARTESIAN_POINT('',(-11.5,0.,-252.3));
#604=CARTESIAN_POINT('',(11.5,0.,-252.3));
#605=CARTESIAN_POINT('',(0.,0.,-252.3));
#606=CARTESIAN_POINT('',(0.,0.,-252.3));
#607=CARTESIAN_POINT('',(11.49999999998,1.619832472185E-5,-252.3));
#608=CARTESIAN_POINT('',(11.49999999997,2.429748707801E-5,-60.43100770914));
#609=CARTESIAN_POINT('',(-11.5,0.,-252.3));
#610=CARTESIAN_POINT('',(-11.5,0.,-60.43100770914));
#611=CARTESIAN_POINT('',(0.,0.,-60.43100770917));
#612=CARTESIAN_POINT('',(0.,0.,-323.965));
#613=CARTESIAN_POINT('',(-11.89999999834,-0.0001984694794543,-60.43100770914));
#614=CARTESIAN_POINT('',(11.8999999983,0.0002011409365223,-60.43100770917));
#615=CARTESIAN_POINT('',(0.,0.,-60.43100770917));
#616=CARTESIAN_POINT('',(0.,0.,-60.43100770914));
#617=CARTESIAN_POINT('',(0.,0.,-60.43100770914));
#618=CARTESIAN_POINT('',(0.,0.,-323.965));
#619=MECHANICAL_DESIGN_GEOMETRIC_PRESENTATION_REPRESENTATION('',(#324,#325,
#326,#327,#328,#329,#330,#331,#332,#333,#334,#335,#336,#337),#620);
#620=(
GEOMETRIC_REPRESENTATION_CONTEXT(3)
GLOBAL_UNCERTAINTY_ASSIGNED_CONTEXT((#621))
GLOBAL_UNIT_ASSIGNED_CONTEXT((#627,#623,#622))
REPRESENTATION_CONTEXT('TAWLN0061_ID0_9375','TOP_LEVEL_ASSEMBLY_PART')
);
#621=UNCERTAINTY_MEASURE_WITH_UNIT(LENGTH_MEASURE(0.0508),#627,
'DISTANCE_ACCURACY_VALUE','Maximum Tolerance applied to model');
#622=(
NAMED_UNIT(*)
SI_UNIT($,.STERADIAN.)
SOLID_ANGLE_UNIT()
);
#623=(
CONVERSION_BASED_UNIT('DEGREE',#625)
NAMED_UNIT(#624)
PLANE_ANGLE_UNIT()
);
#624=DIMENSIONAL_EXPONENTS(0.,0.,0.,0.,0.,0.,0.);
#625=PLANE_ANGLE_MEASURE_WITH_UNIT(PLANE_ANGLE_MEASURE(0.0174532925),#626);
#626=(
NAMED_UNIT(*)
PLANE_ANGLE_UNIT()
SI_UNIT($,.RADIAN.)
);
#627=(
LENGTH_UNIT()
NAMED_UNIT(*)
SI_UNIT(.MILLI.,.METRE.)
);
ENDSEC;
END-ISO-10303-21;
