ISO-10303-21;
HEADER;
/* Generated by software containing ST-Developer
 * from STEP Tools, Inc. (www.steptools.com) 
 */
/* OPTION: using custom schema-name function */

FILE_DESCRIPTION(
/* description */ (''),
/* implementation_level */ '2;1');

FILE_NAME(
/* name */ 'TAWLN0051_ID0_7969.stp',
/* time_stamp */ '2025-06-11T17:03:19+09:00',
/* author */ (''),
/* organization */ (''),
/* preprocessor_version */ 'ST-DEVELOPER v18.101',
/* originating_system */ 'SIEMENS PLM Software NX 2011',
/* authorisation */ '');

FILE_SCHEMA (('AUTOMOTIVE_DESIGN { 1 0 10303 214 3 1 1 1 }'));
ENDSEC;

DATA;
#10=CONSTRUCTIVE_GEOMETRY_REPRESENTATION_RELATIONSHIP(
'supplemental geometry','',#26,#11);
#11=CONSTRUCTIVE_GEOMETRY_REPRESENTATION('supplemental geometry',(#360,
#361,#362,#363,#364,#365,#366),#608);
#12=GEOMETRICALLY_BOUNDED_WIREFRAME_SHAPE_REPRESENTATION(
'TAWLN0051_ID0_7969-None',(#27),#608);
#13=SHAPE_REPRESENTATION_RELATIONSHIP('None',
'relationship between TAWLN0051_ID0_7969-None and TAWLN0051_ID0_7969-N
one',#26,#15);
#14=SHAPE_REPRESENTATION_RELATIONSHIP('None',
'relationship between TAWLN0051_ID0_7969-None and TAWLN0051_ID0_7969-N
one',#26,#12);
#15=ADVANCED_BREP_SHAPE_REPRESENTATION('TAWLN0051_ID0_7969-None',(#42,#43),
#608);
#16=SHAPE_DEFINITION_REPRESENTATION(#17,#26);
#17=PRODUCT_DEFINITION_SHAPE('','SHAPE FOR TAWLN0051_ID0_7969_ASM.',#18);
#18=PRODUCT_DEFINITION('part definition','',#20,#19);
#19=PRODUCT_DEFINITION_CONTEXT('part definition',#25,'design');
#20=PRODUCT_DEFINITION_FORMATION_WITH_SPECIFIED_SOURCE(' ',' ',#22,
 .NOT_KNOWN.);
#21=PRODUCT_RELATED_PRODUCT_CATEGORY('part','',(#22));
#22=PRODUCT('TAWLN0051_ID0_7969_ASM','TAWLN0051_ID0_7969_ASM',
'NOT SPECIFIED',(#23));
#23=PRODUCT_CONTEXT('',#25,'mechanical');
#24=APPLICATION_PROTOCOL_DEFINITION('international standard',
'automotive_design',2010,#25);
#25=APPLICATION_CONTEXT(
'core data for automotive mechanical design processes');
#26=SHAPE_REPRESENTATION('TAWLN0051_ID0_7969-None',(#359),#608);
#27=GEOMETRIC_CURVE_SET('None',(#523,#285,#286,#287,#288));
#28=TOROIDAL_SURFACE('',#392,12.80872965937,0.4);
#29=TOROIDAL_SURFACE('',#394,12.80872965937,0.4);
#30=TOROIDAL_SURFACE('',#404,9.9,0.4);
#31=TOROIDAL_SURFACE('',#406,9.9,0.4);
#32=SURFACE_STYLE_USAGE(.BOTH.,#34);
#33=SURFACE_STYLE_USAGE(.BOTH.,#35);
#34=SURFACE_SIDE_STYLE('',(#36));
#35=SURFACE_SIDE_STYLE('',(#37));
#36=SURFACE_STYLE_FILL_AREA(#38);
#37=SURFACE_STYLE_FILL_AREA(#39);
#38=FILL_AREA_STYLE('',(#40));
#39=FILL_AREA_STYLE('',(#41));
#40=FILL_AREA_STYLE_COLOUR('',#357);
#41=FILL_AREA_STYLE_COLOUR('',#358);
#42=MANIFOLD_SOLID_BREP('CUT',#44);
#43=MANIFOLD_SOLID_BREP('NOCUT',#45);
#44=CLOSED_SHELL('',(#55,#56,#57,#58,#59));
#45=CLOSED_SHELL('',(#60,#61,#62,#63,#64,#65,#66,#67,#68,#69,#70,#71,#72,
#73));
#46=PLANE('',#375);
#47=PLANE('',#381);
#48=PLANE('',#399);
#49=CYLINDRICAL_SURFACE('',#372,10.12063);
#50=CYLINDRICAL_SURFACE('',#374,10.12063);
#51=CYLINDRICAL_SURFACE('',#378,12.7);
#52=CYLINDRICAL_SURFACE('',#386,12.7);
#53=CYLINDRICAL_SURFACE('',#401,9.5);
#54=CYLINDRICAL_SURFACE('',#407,9.5);
#55=ADVANCED_FACE('',(#80),#74,.T.);
#56=ADVANCED_FACE('',(#81),#75,.T.);
#57=ADVANCED_FACE('',(#82),#49,.T.);
#58=ADVANCED_FACE('',(#83),#50,.T.);
#59=ADVANCED_FACE('',(#84),#46,.T.);
#60=ADVANCED_FACE('',(#85),#51,.T.);
#61=ADVANCED_FACE('',(#86),#47,.T.);
#62=ADVANCED_FACE('',(#87),#76,.T.);
#63=ADVANCED_FACE('',(#88),#77,.T.);
#64=ADVANCED_FACE('',(#89),#52,.T.);
#65=ADVANCED_FACE('',(#90),#78,.T.);
#66=ADVANCED_FACE('',(#91),#28,.F.);
#67=ADVANCED_FACE('',(#92),#29,.F.);
#68=ADVANCED_FACE('',(#93),#79,.T.);
#69=ADVANCED_FACE('',(#94),#48,.F.);
#70=ADVANCED_FACE('',(#95),#53,.T.);
#71=ADVANCED_FACE('',(#96),#30,.F.);
#72=ADVANCED_FACE('',(#97),#31,.F.);
#73=ADVANCED_FACE('',(#98),#54,.T.);
#74=CONICAL_SURFACE('',#368,5.161521300002,70.0000971436908);
#75=CONICAL_SURFACE('',#370,5.161521300002,70.0000971436908);
#76=CONICAL_SURFACE('',#382,12.12264973081,30.0000416330103);
#77=CONICAL_SURFACE('',#384,12.12264973081,30.0000416330103);
#78=CONICAL_SURFACE('',#389,11.12039096303,6.50000902048557);
#79=CONICAL_SURFACE('',#396,11.12039096303,6.50000902048557);
#80=FACE_OUTER_BOUND('',#99,.T.);
#81=FACE_OUTER_BOUND('',#100,.T.);
#82=FACE_OUTER_BOUND('',#101,.T.);
#83=FACE_OUTER_BOUND('',#102,.T.);
#84=FACE_OUTER_BOUND('',#103,.T.);
#85=FACE_OUTER_BOUND('',#104,.T.);
#86=FACE_OUTER_BOUND('',#105,.T.);
#87=FACE_OUTER_BOUND('',#106,.T.);
#88=FACE_OUTER_BOUND('',#107,.T.);
#89=FACE_OUTER_BOUND('',#108,.T.);
#90=FACE_OUTER_BOUND('',#109,.T.);
#91=FACE_OUTER_BOUND('',#110,.T.);
#92=FACE_OUTER_BOUND('',#111,.T.);
#93=FACE_OUTER_BOUND('',#112,.T.);
#94=FACE_OUTER_BOUND('',#113,.T.);
#95=FACE_OUTER_BOUND('',#114,.T.);
#96=FACE_OUTER_BOUND('',#115,.T.);
#97=FACE_OUTER_BOUND('',#116,.T.);
#98=FACE_OUTER_BOUND('',#117,.T.);
#99=EDGE_LOOP('',(#118,#119,#120));
#100=EDGE_LOOP('',(#121,#122,#123));
#101=EDGE_LOOP('',(#124,#125,#126,#127));
#102=EDGE_LOOP('',(#128,#129,#130,#131));
#103=EDGE_LOOP('',(#132,#133));
#104=EDGE_LOOP('',(#134,#135,#136,#137));
#105=EDGE_LOOP('',(#138,#139));
#106=EDGE_LOOP('',(#140,#141,#142,#143));
#107=EDGE_LOOP('',(#144,#145,#146,#147));
#108=EDGE_LOOP('',(#148,#149,#150,#151));
#109=EDGE_LOOP('',(#152,#153,#154,#155));
#110=EDGE_LOOP('',(#156,#157,#158,#159));
#111=EDGE_LOOP('',(#160,#161,#162,#163));
#112=EDGE_LOOP('',(#164,#165,#166,#167));
#113=EDGE_LOOP('',(#168,#169));
#114=EDGE_LOOP('',(#170,#171,#172,#173));
#115=EDGE_LOOP('',(#174,#175,#176,#177));
#116=EDGE_LOOP('',(#178,#179,#180,#181));
#117=EDGE_LOOP('',(#182,#183,#184,#185));
#118=ORIENTED_EDGE('',*,*,#205,.T.);
#119=ORIENTED_EDGE('',*,*,#206,.F.);
#120=ORIENTED_EDGE('',*,*,#207,.T.);
#121=ORIENTED_EDGE('',*,*,#207,.F.);
#122=ORIENTED_EDGE('',*,*,#206,.T.);
#123=ORIENTED_EDGE('',*,*,#208,.T.);
#124=ORIENTED_EDGE('',*,*,#208,.F.);
#125=ORIENTED_EDGE('',*,*,#209,.F.);
#126=ORIENTED_EDGE('',*,*,#210,.F.);
#127=ORIENTED_EDGE('',*,*,#211,.T.);
#128=ORIENTED_EDGE('',*,*,#205,.F.);
#129=ORIENTED_EDGE('',*,*,#211,.F.);
#130=ORIENTED_EDGE('',*,*,#212,.F.);
#131=ORIENTED_EDGE('',*,*,#209,.T.);
#132=ORIENTED_EDGE('',*,*,#210,.T.);
#133=ORIENTED_EDGE('',*,*,#212,.T.);
#134=ORIENTED_EDGE('',*,*,#213,.T.);
#135=ORIENTED_EDGE('',*,*,#214,.F.);
#136=ORIENTED_EDGE('',*,*,#215,.F.);
#137=ORIENTED_EDGE('',*,*,#216,.F.);
#138=ORIENTED_EDGE('',*,*,#217,.T.);
#139=ORIENTED_EDGE('',*,*,#218,.T.);
#140=ORIENTED_EDGE('',*,*,#216,.T.);
#141=ORIENTED_EDGE('',*,*,#219,.T.);
#142=ORIENTED_EDGE('',*,*,#218,.F.);
#143=ORIENTED_EDGE('',*,*,#220,.F.);
#144=ORIENTED_EDGE('',*,*,#217,.F.);
#145=ORIENTED_EDGE('',*,*,#219,.F.);
#146=ORIENTED_EDGE('',*,*,#221,.T.);
#147=ORIENTED_EDGE('',*,*,#220,.T.);
#148=ORIENTED_EDGE('',*,*,#215,.T.);
#149=ORIENTED_EDGE('',*,*,#222,.F.);
#150=ORIENTED_EDGE('',*,*,#213,.F.);
#151=ORIENTED_EDGE('',*,*,#221,.F.);
#152=ORIENTED_EDGE('',*,*,#223,.F.);
#153=ORIENTED_EDGE('',*,*,#224,.F.);
#154=ORIENTED_EDGE('',*,*,#225,.T.);
#155=ORIENTED_EDGE('',*,*,#226,.F.);
#156=ORIENTED_EDGE('',*,*,#227,.T.);
#157=ORIENTED_EDGE('',*,*,#222,.T.);
#158=ORIENTED_EDGE('',*,*,#228,.F.);
#159=ORIENTED_EDGE('',*,*,#226,.T.);
#160=ORIENTED_EDGE('',*,*,#228,.T.);
#161=ORIENTED_EDGE('',*,*,#214,.T.);
#162=ORIENTED_EDGE('',*,*,#227,.F.);
#163=ORIENTED_EDGE('',*,*,#229,.T.);
#164=ORIENTED_EDGE('',*,*,#225,.F.);
#165=ORIENTED_EDGE('',*,*,#230,.F.);
#166=ORIENTED_EDGE('',*,*,#223,.T.);
#167=ORIENTED_EDGE('',*,*,#229,.F.);
#168=ORIENTED_EDGE('',*,*,#231,.T.);
#169=ORIENTED_EDGE('',*,*,#232,.T.);
#170=ORIENTED_EDGE('',*,*,#233,.T.);
#171=ORIENTED_EDGE('',*,*,#231,.F.);
#172=ORIENTED_EDGE('',*,*,#234,.F.);
#173=ORIENTED_EDGE('',*,*,#235,.F.);
#174=ORIENTED_EDGE('',*,*,#236,.F.);
#175=ORIENTED_EDGE('',*,*,#230,.T.);
#176=ORIENTED_EDGE('',*,*,#237,.T.);
#177=ORIENTED_EDGE('',*,*,#235,.T.);
#178=ORIENTED_EDGE('',*,*,#237,.F.);
#179=ORIENTED_EDGE('',*,*,#224,.T.);
#180=ORIENTED_EDGE('',*,*,#236,.T.);
#181=ORIENTED_EDGE('',*,*,#238,.T.);
#182=ORIENTED_EDGE('',*,*,#234,.T.);
#183=ORIENTED_EDGE('',*,*,#232,.F.);
#184=ORIENTED_EDGE('',*,*,#233,.F.);
#185=ORIENTED_EDGE('',*,*,#238,.F.);
#186=VERTEX_POINT('',#536);
#187=VERTEX_POINT('',#537);
#188=VERTEX_POINT('',#539);
#189=VERTEX_POINT('',#545);
#190=VERTEX_POINT('',#547);
#191=VERTEX_POINT('',#554);
#192=VERTEX_POINT('',#555);
#193=VERTEX_POINT('',#557);
#194=VERTEX_POINT('',#559);
#195=VERTEX_POINT('',#563);
#196=VERTEX_POINT('',#564);
#197=VERTEX_POINT('',#575);
#198=VERTEX_POINT('',#576);
#199=VERTEX_POINT('',#578);
#200=VERTEX_POINT('',#580);
#201=VERTEX_POINT('',#591);
#202=VERTEX_POINT('',#592);
#203=VERTEX_POINT('',#596);
#204=VERTEX_POINT('',#598);
#205=EDGE_CURVE('',#186,#187,#239,.T.);
#206=EDGE_CURVE('',#188,#187,#293,.T.);
#207=EDGE_CURVE('',#188,#186,#294,.T.);
#208=EDGE_CURVE('',#187,#186,#240,.T.);
#209=EDGE_CURVE('',#189,#187,#295,.T.);
#210=EDGE_CURVE('',#190,#189,#241,.T.);
#211=EDGE_CURVE('',#190,#186,#296,.T.);
#212=EDGE_CURVE('',#189,#190,#242,.T.);
#213=EDGE_CURVE('',#191,#192,#297,.T.);
#214=EDGE_CURVE('',#193,#192,#243,.T.);
#215=EDGE_CURVE('',#194,#193,#298,.T.);
#216=EDGE_CURVE('',#191,#194,#244,.T.);
#217=EDGE_CURVE('',#195,#196,#245,.T.);
#218=EDGE_CURVE('',#196,#195,#246,.T.);
#219=EDGE_CURVE('',#194,#195,#299,.T.);
#220=EDGE_CURVE('',#191,#196,#300,.T.);
#221=EDGE_CURVE('',#194,#191,#247,.T.);
#222=EDGE_CURVE('',#192,#193,#248,.T.);
#223=EDGE_CURVE('',#197,#198,#301,.T.);
#224=EDGE_CURVE('',#199,#197,#249,.T.);
#225=EDGE_CURVE('',#199,#200,#302,.T.);
#226=EDGE_CURVE('',#198,#200,#250,.T.);
#227=EDGE_CURVE('',#200,#192,#251,.T.);
#228=EDGE_CURVE('',#198,#193,#252,.T.);
#229=EDGE_CURVE('',#200,#198,#253,.T.);
#230=EDGE_CURVE('',#197,#199,#254,.T.);
#231=EDGE_CURVE('',#201,#202,#255,.T.);
#232=EDGE_CURVE('',#202,#201,#256,.T.);
#233=EDGE_CURVE('',#203,#202,#303,.T.);
#234=EDGE_CURVE('',#204,#201,#304,.T.);
#235=EDGE_CURVE('',#203,#204,#257,.T.);
#236=EDGE_CURVE('',#197,#204,#258,.T.);
#237=EDGE_CURVE('',#199,#203,#259,.T.);
#238=EDGE_CURVE('',#204,#203,#260,.T.);
#239=CIRCLE('',#367,10.12063);
#240=CIRCLE('',#369,10.12063);
#241=CIRCLE('',#371,10.12063);
#242=CIRCLE('',#373,10.12063);
#243=CIRCLE('',#376,12.7);
#244=CIRCLE('',#377,12.7);
#245=CIRCLE('',#379,11.54529946162);
#246=CIRCLE('',#380,11.54529946162);
#247=CIRCLE('',#383,12.7);
#248=CIRCLE('',#385,12.7);
#249=CIRCLE('',#387,9.829481008967);
#250=CIRCLE('',#388,12.4113009171);
#251=CIRCLE('',#390,0.4);
#252=CIRCLE('',#391,0.4);
#253=CIRCLE('',#393,12.4113009171);
#254=CIRCLE('',#395,9.829481008964);
#255=CIRCLE('',#397,9.5);
#256=CIRCLE('',#398,9.5);
#257=CIRCLE('',#400,9.5);
#258=CIRCLE('',#402,0.4);
#259=CIRCLE('',#403,0.4);
#260=CIRCLE('',#405,9.5);
#261=CURVE_STYLE('',#274,POSITIVE_LENGTH_MEASURE(0.13),#272);
#262=CURVE_STYLE('',#275,POSITIVE_LENGTH_MEASURE(0.13),#272);
#263=CURVE_STYLE('',#276,POSITIVE_LENGTH_MEASURE(0.13),#272);
#264=CURVE_STYLE('',#277,POSITIVE_LENGTH_MEASURE(0.13),#272);
#265=CURVE_STYLE('',#278,POSITIVE_LENGTH_MEASURE(0.13),#355);
#266=CURVE_STYLE('',#279,POSITIVE_LENGTH_MEASURE(0.13),#355);
#267=CURVE_STYLE('',#280,POSITIVE_LENGTH_MEASURE(0.13),#356);
#268=CURVE_STYLE('',#281,POSITIVE_LENGTH_MEASURE(0.13),#273);
#269=CURVE_STYLE('',#282,POSITIVE_LENGTH_MEASURE(0.13),#273);
#270=CURVE_STYLE('',#283,POSITIVE_LENGTH_MEASURE(0.13),#355);
#271=CURVE_STYLE('',#284,POSITIVE_LENGTH_MEASURE(0.13),#355);
#272=DRAUGHTING_PRE_DEFINED_COLOUR('blue');
#273=DRAUGHTING_PRE_DEFINED_COLOUR('yellow');
#274=DRAUGHTING_PRE_DEFINED_CURVE_FONT('continuous');
#275=DRAUGHTING_PRE_DEFINED_CURVE_FONT('continuous');
#276=DRAUGHTING_PRE_DEFINED_CURVE_FONT('continuous');
#277=DRAUGHTING_PRE_DEFINED_CURVE_FONT('continuous');
#278=DRAUGHTING_PRE_DEFINED_CURVE_FONT('continuous');
#279=DRAUGHTING_PRE_DEFINED_CURVE_FONT('continuous');
#280=DRAUGHTING_PRE_DEFINED_CURVE_FONT('continuous');
#281=DRAUGHTING_PRE_DEFINED_CURVE_FONT('continuous');
#282=DRAUGHTING_PRE_DEFINED_CURVE_FONT('continuous');
#283=DRAUGHTING_PRE_DEFINED_CURVE_FONT('continuous');
#284=DRAUGHTING_PRE_DEFINED_CURVE_FONT('continuous');
#285=TRIMMED_CURVE('',#289,(PARAMETER_VALUE(0.)),(PARAMETER_VALUE(1.)),
 .T.,.PARAMETER.);
#286=TRIMMED_CURVE('',#290,(PARAMETER_VALUE(0.)),(PARAMETER_VALUE(1.)),
 .T.,.PARAMETER.);
#287=TRIMMED_CURVE('',#291,(PARAMETER_VALUE(0.)),(PARAMETER_VALUE(1.)),
 .T.,.PARAMETER.);
#288=TRIMMED_CURVE('',#292,(PARAMETER_VALUE(0.)),(PARAMETER_VALUE(1.)),
 .T.,.PARAMETER.);
#289=LINE('',#524,#305);
#290=LINE('',#525,#306);
#291=LINE('',#526,#307);
#292=LINE('',#527,#308);
#293=LINE('',#538,#309);
#294=LINE('',#540,#310);
#295=LINE('',#544,#311);
#296=LINE('',#548,#312);
#297=LINE('',#553,#313);
#298=LINE('',#558,#314);
#299=LINE('',#567,#315);
#300=LINE('',#568,#316);
#301=LINE('',#574,#317);
#302=LINE('',#579,#318);
#303=LINE('',#595,#319);
#304=LINE('',#597,#320);
#305=VECTOR('',#410,10.12063);
#306=VECTOR('',#411,12.67520748682);
#307=VECTOR('',#412,10.77014948945);
#308=VECTOR('',#413,8.991599414799);
#309=VECTOR('',#430,1.);
#310=VECTOR('',#431,1.);
#311=VECTOR('',#438,1.);
#312=VECTOR('',#441,1.);
#313=VECTOR('',#450,1.);
#314=VECTOR('',#453,1.);
#315=VECTOR('',#464,1.);
#316=VECTOR('',#465,1.);
#317=VECTOR('',#476,1.);
#318=VECTOR('',#479,1.);
#319=VECTOR('',#504,1.);
#320=VECTOR('',#505,1.);
#321=PRESENTATION_LAYER_ASSIGNMENT('1','Layer 1',(#523,#360,#361,#362,#365,
#366,#42,#43));
#322=PRESENTATION_LAYER_ASSIGNMENT('3','Layer 3',(#285,#286,#287,#288));
#323=PRESENTATION_LAYER_ASSIGNMENT('2','Layer 2',(#363,#364));
#324=STYLED_ITEM('',(#338),#523);
#325=STYLED_ITEM('',(#339),#285);
#326=STYLED_ITEM('',(#340),#286);
#327=STYLED_ITEM('',(#341),#287);
#328=STYLED_ITEM('',(#342),#288);
#329=STYLED_ITEM('',(#343),#360);
#330=STYLED_ITEM('',(#344),#361);
#331=STYLED_ITEM('',(#345),#362);
#332=STYLED_ITEM('',(#346),#363);
#333=STYLED_ITEM('',(#347),#364);
#334=STYLED_ITEM('',(#348),#365);
#335=STYLED_ITEM('',(#349),#366);
#336=STYLED_ITEM('',(#350),#42);
#337=STYLED_ITEM('',(#351),#43);
#338=PRESENTATION_STYLE_ASSIGNMENT((#352));
#339=PRESENTATION_STYLE_ASSIGNMENT((#261));
#340=PRESENTATION_STYLE_ASSIGNMENT((#262));
#341=PRESENTATION_STYLE_ASSIGNMENT((#263));
#342=PRESENTATION_STYLE_ASSIGNMENT((#264));
#343=PRESENTATION_STYLE_ASSIGNMENT((#265));
#344=PRESENTATION_STYLE_ASSIGNMENT((#266));
#345=PRESENTATION_STYLE_ASSIGNMENT((#267));
#346=PRESENTATION_STYLE_ASSIGNMENT((#268));
#347=PRESENTATION_STYLE_ASSIGNMENT((#269));
#348=PRESENTATION_STYLE_ASSIGNMENT((#270));
#349=PRESENTATION_STYLE_ASSIGNMENT((#271));
#350=PRESENTATION_STYLE_ASSIGNMENT((#32));
#351=PRESENTATION_STYLE_ASSIGNMENT((#33));
#352=POINT_STYLE('',#353,POSITIVE_LENGTH_MEASURE(3.),#354);
#353=PRE_DEFINED_POINT_MARKER_SYMBOL('plus');
#354=COLOUR_RGB('Medium Royal',0.301960784313725,0.427450980392157,0.701960784313725);
#355=COLOUR_RGB('Medium Maroon',0.6,0.4,0.4);
#356=COLOUR_RGB('Strong Gold',0.611764705882353,0.556862745098039,0.380392156862745);
#357=COLOUR_RGB('light gray',0.8,0.8,0.8);
#358=COLOUR_RGB('medium gray',0.490196078431373,0.490196078431373,0.490196078431373);
#359=AXIS2_PLACEMENT_3D('',#522,#408,#409);
#360=AXIS2_PLACEMENT_3D('',#528,#414,#415);
#361=AXIS2_PLACEMENT_3D('',#529,#416,#417);
#362=AXIS2_PLACEMENT_3D('MCS',#530,#418,#419);
#363=AXIS2_PLACEMENT_3D('CIP',#531,#420,#421);
#364=AXIS2_PLACEMENT_3D('PCS',#532,#422,#423);
#365=AXIS2_PLACEMENT_3D('',#533,#424,#425);
#366=AXIS2_PLACEMENT_3D('',#534,#426,#427);
#367=AXIS2_PLACEMENT_3D('',#535,#428,#429);
#368=AXIS2_PLACEMENT_3D('',#541,#432,#433);
#369=AXIS2_PLACEMENT_3D('',#542,#434,#435);
#370=AXIS2_PLACEMENT_3D('',#543,#436,#437);
#371=AXIS2_PLACEMENT_3D('',#546,#439,#440);
#372=AXIS2_PLACEMENT_3D('',#549,#442,#443);
#373=AXIS2_PLACEMENT_3D('',#550,#444,#445);
#374=AXIS2_PLACEMENT_3D('',#551,#446,#447);
#375=AXIS2_PLACEMENT_3D('',#552,#448,#449);
#376=AXIS2_PLACEMENT_3D('',#556,#451,#452);
#377=AXIS2_PLACEMENT_3D('',#560,#454,#455);
#378=AXIS2_PLACEMENT_3D('',#561,#456,#457);
#379=AXIS2_PLACEMENT_3D('',#562,#458,#459);
#380=AXIS2_PLACEMENT_3D('',#565,#460,#461);
#381=AXIS2_PLACEMENT_3D('',#566,#462,#463);
#382=AXIS2_PLACEMENT_3D('',#569,#466,#467);
#383=AXIS2_PLACEMENT_3D('',#570,#468,#469);
#384=AXIS2_PLACEMENT_3D('',#571,#470,#471);
#385=AXIS2_PLACEMENT_3D('',#572,#472,#473);
#386=AXIS2_PLACEMENT_3D('',#573,#474,#475);
#387=AXIS2_PLACEMENT_3D('',#577,#477,#478);
#388=AXIS2_PLACEMENT_3D('',#581,#480,#481);
#389=AXIS2_PLACEMENT_3D('',#582,#482,#483);
#390=AXIS2_PLACEMENT_3D('',#583,#484,#485);
#391=AXIS2_PLACEMENT_3D('',#584,#486,#487);
#392=AXIS2_PLACEMENT_3D('',#585,#488,#489);
#393=AXIS2_PLACEMENT_3D('',#586,#490,#491);
#394=AXIS2_PLACEMENT_3D('',#587,#492,#493);
#395=AXIS2_PLACEMENT_3D('',#588,#494,#495);
#396=AXIS2_PLACEMENT_3D('',#589,#496,#497);
#397=AXIS2_PLACEMENT_3D('',#590,#498,#499);
#398=AXIS2_PLACEMENT_3D('',#593,#500,#501);
#399=AXIS2_PLACEMENT_3D('',#594,#502,#503);
#400=AXIS2_PLACEMENT_3D('',#599,#506,#507);
#401=AXIS2_PLACEMENT_3D('',#600,#508,#509);
#402=AXIS2_PLACEMENT_3D('',#601,#510,#511);
#403=AXIS2_PLACEMENT_3D('',#602,#512,#513);
#404=AXIS2_PLACEMENT_3D('',#603,#514,#515);
#405=AXIS2_PLACEMENT_3D('',#604,#516,#517);
#406=AXIS2_PLACEMENT_3D('',#605,#518,#519);
#407=AXIS2_PLACEMENT_3D('',#606,#520,#521);
#408=DIRECTION('',(0.,0.,1.));
#409=DIRECTION('',(1.,0.,0.));
#410=DIRECTION('',(1.,0.,0.));
#411=DIRECTION('',(0.,0.,-1.));
#412=DIRECTION('',(-0.939692620785897,0.,0.3420201433257));
#413=DIRECTION('',(0.,0.,1.));
#414=DIRECTION('',(0.,0.,1.));
#415=DIRECTION('',(1.,0.,0.));
#416=DIRECTION('',(0.,0.,1.));
#417=DIRECTION('',(1.,0.,0.));
#418=DIRECTION('',(0.,0.,1.));
#419=DIRECTION('',(1.,0.,0.));
#420=DIRECTION('',(0.,0.,1.));
#421=DIRECTION('',(1.,0.,0.));
#422=DIRECTION('',(0.,0.,1.));
#423=DIRECTION('',(1.,0.,0.));
#424=DIRECTION('',(0.,0.,1.));
#425=DIRECTION('',(1.,0.,0.));
#426=DIRECTION('',(0.,0.,1.));
#427=DIRECTION('',(1.,0.,0.));
#428=DIRECTION('',(0.,0.,-1.));
#429=DIRECTION('',(1.,0.,0.));
#430=DIRECTION('',(-0.939692620785757,0.,0.342020143326084));
#431=DIRECTION('',(0.939692620785757,0.,0.342020143326084));
#432=DIRECTION('',(0.,0.,1.));
#433=DIRECTION('',(1.,0.,-2.01664148958204E-17));
#434=DIRECTION('',(0.,0.,-1.));
#435=DIRECTION('',(-1.,0.,0.));
#436=DIRECTION('',(0.,0.,1.));
#437=DIRECTION('',(1.,0.,-2.01664148958204E-17));
#438=DIRECTION('',(-1.685164467529E-13,0.,-1.));
#439=DIRECTION('',(0.,0.,1.));
#440=DIRECTION('',(1.,0.,0.));
#441=DIRECTION('',(1.685164467529E-13,0.,-1.));
#442=DIRECTION('',(0.,0.,-1.));
#443=DIRECTION('',(-1.,0.,0.));
#444=DIRECTION('',(0.,0.,1.));
#445=DIRECTION('',(-1.,0.,0.));
#446=DIRECTION('',(0.,0.,-1.));
#447=DIRECTION('',(-1.,0.,0.));
#448=DIRECTION('',(0.,0.,1.));
#449=DIRECTION('',(-1.,0.,0.));
#450=DIRECTION('',(-6.90365639037902E-12,8.91326569210002E-7,-0.999999999999603));
#451=DIRECTION('',(0.,0.,-1.));
#452=DIRECTION('',(-1.,0.,0.));
#453=DIRECTION('',(7.08888664341195E-12,-9.03202983670893E-7,-0.999999999999592));
#454=DIRECTION('',(0.,0.,1.));
#455=DIRECTION('',(0.999999999998074,1.96286632712995E-6,0.));
#456=DIRECTION('',(0.,0.,1.));
#457=DIRECTION('',(-1.,0.,0.));
#458=DIRECTION('',(0.,0.,1.));
#459=DIRECTION('',(-1.,0.,0.));
#460=DIRECTION('',(0.,0.,1.));
#461=DIRECTION('',(1.,0.,0.));
#462=DIRECTION('',(0.,0.,1.));
#463=DIRECTION('',(-1.,0.,0.));
#464=DIRECTION('',(0.500000000000092,0.,0.866025403784386));
#465=DIRECTION('',(-0.499999999988869,-5.39715742846267E-6,0.866025403774047));
#466=DIRECTION('',(0.,0.,-1.));
#467=DIRECTION('',(1.,0.,-7.65136697511846E-17));
#468=DIRECTION('',(0.,0.,1.));
#469=DIRECTION('',(-1.,0.,0.));
#470=DIRECTION('',(0.,0.,-1.));
#471=DIRECTION('',(1.,0.,-7.65136697511846E-17));
#472=DIRECTION('',(0.,0.,-1.));
#473=DIRECTION('',(0.999999999998074,1.96286632712995E-6,0.));
#474=DIRECTION('',(0.,0.,1.));
#475=DIRECTION('',(-1.,0.,0.));
#476=DIRECTION('',(-0.1132032137944,2.214295173781E-6,0.993571855671102));
#477=DIRECTION('',(0.,0.,-1.));
#478=DIRECTION('',(0.999999999990128,4.44351114201212E-6,0.));
#479=DIRECTION('',(0.113203213794397,-1.99087653699295E-6,0.993571855671575));
#480=DIRECTION('',(0.,0.,1.));
#481=DIRECTION('',(-1.,0.,0.));
#482=DIRECTION('',(0.,0.,1.));
#483=DIRECTION('',(-1.,0.,-3.32917337627005E-16));
#484=DIRECTION('',(0.,1.,0.));
#485=DIRECTION('',(-0.271824148424999,0.,0.962346939691206));
#486=DIRECTION('',(0.,-1.,0.));
#487=DIRECTION('',(0.271824148424999,0.,0.962346939691206));
#488=DIRECTION('',(0.,0.,1.));
#489=DIRECTION('',(0.99999999987993,1.54964493300705E-5,0.));
#490=DIRECTION('',(0.,0.,1.));
#491=DIRECTION('',(0.999999999990128,4.44351114201212E-6,0.));
#492=DIRECTION('',(0.,0.,1.));
#493=DIRECTION('',(-0.999999999876709,-1.57029306179401E-5,0.));
#494=DIRECTION('',(0.,0.,-1.));
#495=DIRECTION('',(-1.,0.,0.));
#496=DIRECTION('',(0.,0.,1.));
#497=DIRECTION('',(-1.,0.,-2.77431114689171E-16));
#498=DIRECTION('',(0.,0.,-1.));
#499=DIRECTION('',(-1.,0.,0.));
#500=DIRECTION('',(0.,0.,-1.));
#501=DIRECTION('',(1.,0.,0.));
#502=DIRECTION('',(0.,0.,1.));
#503=DIRECTION('',(0.,-1.,0.));
#504=DIRECTION('',(5.99524143422322E-12,-5.71989962684621E-7,-0.999999999999836));
#505=DIRECTION('',(-6.02704695658313E-12,5.97030529500313E-7,-0.999999999999822));
#506=DIRECTION('',(0.,0.,1.));
#507=DIRECTION('',(0.999999999996773,2.54031961675893E-6,0.));
#508=DIRECTION('',(0.,0.,1.));
#509=DIRECTION('',(-1.,0.,0.));
#510=DIRECTION('',(-2.00558785083196E-5,0.999999999798881,0.));
#511=DIRECTION('',(0.176297477547708,3.53580079173119E-6,0.984336933878751));
#512=DIRECTION('',(2.03225569355599E-5,-0.999999999793497,0.));
#513=DIRECTION('',(-0.176297477554009,-3.58281552592717E-6,0.98433693387745));
#514=DIRECTION('',(0.,0.,1.));
#515=DIRECTION('',(-0.999999999793497,-2.03225569356799E-5,0.));
#516=DIRECTION('',(0.,0.,1.));
#517=DIRECTION('',(-1.,0.,0.));
#518=DIRECTION('',(0.,0.,1.));
#519=DIRECTION('',(0.999999999798881,2.00558785084396E-5,0.));
#520=DIRECTION('',(0.,0.,1.));
#521=DIRECTION('',(-1.,0.,0.));
#522=CARTESIAN_POINT('',(0.,0.,0.));
#523=CARTESIAN_POINT('',(-10.12063,0.,-221.561937063));
#524=CARTESIAN_POINT('',(-10.12063,0.,-212.5703376482));
#525=CARTESIAN_POINT('',(0.,0.,-212.5703376482));
#526=CARTESIAN_POINT('',(0.,0.,-225.245545135));
#527=CARTESIAN_POINT('',(-10.12063,0.,-221.561937063));
#528=CARTESIAN_POINT('',(0.,0.,-28.55));
#529=CARTESIAN_POINT('',(0.,0.,-28.55));
#530=CARTESIAN_POINT('',(0.,0.,-28.55));
#531=CARTESIAN_POINT('',(0.,0.,-225.245545135));
#532=CARTESIAN_POINT('',(0.,0.,0.));
#533=CARTESIAN_POINT('',(0.,0.,-28.55));
#534=CARTESIAN_POINT('',(0.,0.,-28.55));
#535=CARTESIAN_POINT('',(0.,0.,-221.561937063));
#536=CARTESIAN_POINT('',(10.12063,0.,-221.561937063));
#537=CARTESIAN_POINT('',(-10.12063,0.,-221.561937063));
#538=CARTESIAN_POINT('',(0.,0.,-225.245545135));
#539=CARTESIAN_POINT('',(0.,0.,-225.245545135));
#540=CARTESIAN_POINT('',(0.,0.,-225.245545135));
#541=CARTESIAN_POINT('',(0.,0.,-223.3669050183));
#542=CARTESIAN_POINT('',(0.,0.,-221.561937063));
#543=CARTESIAN_POINT('',(0.,0.,-223.3669050183));
#544=CARTESIAN_POINT('',(-10.12063,0.,-212.5703376482));
#545=CARTESIAN_POINT('',(-10.12063,0.,-212.5703376482));
#546=CARTESIAN_POINT('',(0.,0.,-212.5703376482));
#547=CARTESIAN_POINT('',(10.12063,0.,-212.5703376482));
#548=CARTESIAN_POINT('',(10.12063,0.,-212.5703376482));
#549=CARTESIAN_POINT('',(0.,0.,-18.715222743249));
#550=CARTESIAN_POINT('',(0.,0.,-212.5703376482));
#551=CARTESIAN_POINT('',(0.,0.,-18.715222743249));
#552=CARTESIAN_POINT('',(0.,0.,-212.5703376482));
#553=CARTESIAN_POINT('',(12.69999999961,6.166542779943E-5,-28.5500000010786));
#554=CARTESIAN_POINT('',(12.69999999998,2.492840234892E-5,26.65));
#555=CARTESIAN_POINT('',(12.69999999998,2.492840235456E-5,-28.5500000010835));
#556=CARTESIAN_POINT('',(0.,0.,-28.5500000010835));
#557=CARTESIAN_POINT('',(-12.7,4.310889848362E-14,-28.5500000010735));
#558=CARTESIAN_POINT('',(-12.69999999961,-4.985680469963E-5,-28.5500000010786));
#559=CARTESIAN_POINT('',(-12.7,0.,26.65));
#560=CARTESIAN_POINT('',(0.,0.,26.65));
#561=CARTESIAN_POINT('',(0.,0.,-277.11));
#562=CARTESIAN_POINT('',(0.,0.,28.65));
#563=CARTESIAN_POINT('',(-11.54529946162,0.,28.65));
#564=CARTESIAN_POINT('',(11.54529946162,0.,28.65));
#565=CARTESIAN_POINT('',(0.,0.,28.65));
#566=CARTESIAN_POINT('',(0.,0.,28.65));
#567=CARTESIAN_POINT('',(-11.54529946162,0.,28.65));
#568=CARTESIAN_POINT('',(11.54529946162,0.,28.65));
#569=CARTESIAN_POINT('',(0.,0.,27.65));
#570=CARTESIAN_POINT('',(0.,0.,26.65));
#571=CARTESIAN_POINT('',(0.,0.,27.65));
#572=CARTESIAN_POINT('',(0.,0.,-28.5500000010735));
#573=CARTESIAN_POINT('',(0.,0.,-277.11));
#574=CARTESIAN_POINT('',(-9.829481007962,-9.922476609092E-5,-51.55000000086));
#575=CARTESIAN_POINT('',(-9.82948100699,-0.0001971388769156,-51.55000000086));
#576=CARTESIAN_POINT('',(-12.4113009171,0.,-28.8896574914399));
#577=CARTESIAN_POINT('',(0.,0.,-51.55000000086));
#578=CARTESIAN_POINT('',(9.829481008867,4.367740838353E-5,-51.55000000087));
#579=CARTESIAN_POINT('',(9.829481007914,0.0001210634702833,-51.55000000086));
#580=CARTESIAN_POINT('',(12.41130091698,5.514975390649E-5,-28.8896574914399));
#581=CARTESIAN_POINT('',(0.,0.,-28.8896574914399));
#582=CARTESIAN_POINT('',(0.,0.,-40.21982874615));
#583=CARTESIAN_POINT('',(12.80872965937,0.,-28.93493877696));
#584=CARTESIAN_POINT('',(-12.80872965937,4.34779707896E-14,-28.93493877695));
#585=CARTESIAN_POINT('',(0.,0.,-28.93493877695));
#586=CARTESIAN_POINT('',(0.,0.,-28.8896574914499));
#587=CARTESIAN_POINT('',(0.,0.,-28.93493877696));
#588=CARTESIAN_POINT('',(0.,0.,-51.55000000087));
#589=CARTESIAN_POINT('',(0.,0.,-40.21982874616));
#590=CARTESIAN_POINT('',(0.,0.,-212.57));
#591=CARTESIAN_POINT('',(-9.5,0.,-212.57));
#592=CARTESIAN_POINT('',(9.5,0.,-212.57));
#593=CARTESIAN_POINT('',(0.,0.,-212.57));
#594=CARTESIAN_POINT('',(0.,0.,-212.57));
#595=CARTESIAN_POINT('',(9.49999999998,1.608869090594E-5,-212.57));
#596=CARTESIAN_POINT('',(9.499999999969,2.413303635499E-5,-51.94373477441));
#597=CARTESIAN_POINT('',(-9.5,0.,-212.57));
#598=CARTESIAN_POINT('',(-9.5,0.,-51.94373477441));
#599=CARTESIAN_POINT('',(0.,0.,-51.94373477442));
#600=CARTESIAN_POINT('',(0.,0.,-277.11));
#601=CARTESIAN_POINT('',(-9.899999998009,-0.0001985531972323,-51.94373477441));
#602=CARTESIAN_POINT('',(9.899999997956,0.000201193313662,-51.94373477442));
#603=CARTESIAN_POINT('',(0.,0.,-51.94373477442));
#604=CARTESIAN_POINT('',(0.,0.,-51.94373477441));
#605=CARTESIAN_POINT('',(0.,0.,-51.94373477441));
#606=CARTESIAN_POINT('',(0.,0.,-277.11));
#607=MECHANICAL_DESIGN_GEOMETRIC_PRESENTATION_REPRESENTATION('',(#324,#325,
#326,#327,#328,#329,#330,#331,#332,#333,#334,#335,#336,#337),#608);
#608=(
GEOMETRIC_REPRESENTATION_CONTEXT(3)
GLOBAL_UNCERTAINTY_ASSIGNED_CONTEXT((#609))
GLOBAL_UNIT_ASSIGNED_CONTEXT((#615,#611,#610))
REPRESENTATION_CONTEXT('TAWLN0051_ID0_7969','TOP_LEVEL_ASSEMBLY_PART')
);
#609=UNCERTAINTY_MEASURE_WITH_UNIT(LENGTH_MEASURE(0.001),#615,
'DISTANCE_ACCURACY_VALUE','Maximum Tolerance applied to model');
#610=(
NAMED_UNIT(*)
SI_UNIT($,.STERADIAN.)
SOLID_ANGLE_UNIT()
);
#611=(
CONVERSION_BASED_UNIT('DEGREE',#613)
NAMED_UNIT(#612)
PLANE_ANGLE_UNIT()
);
#612=DIMENSIONAL_EXPONENTS(0.,0.,0.,0.,0.,0.,0.);
#613=PLANE_ANGLE_MEASURE_WITH_UNIT(PLANE_ANGLE_MEASURE(0.0174532925),#614);
#614=(
NAMED_UNIT(*)
PLANE_ANGLE_UNIT()
SI_UNIT($,.RADIAN.)
);
#615=(
LENGTH_UNIT()
NAMED_UNIT(*)
SI_UNIT(.MILLI.,.METRE.)
);
ENDSEC;
END-ISO-10303-21;
