ISO-10303-21;
HEADER;
/* Generated by software containing ST-Developer
 * from STEP Tools, Inc. (www.steptools.com) 
 */
/* OPTION: using custom schema-name function */

FILE_DESCRIPTION(
/* description */ (''),
/* implementation_level */ '2;1');

FILE_NAME(
/* name */ 'MS2XLD3-16N1125.stp',
/* time_stamp */ '2023-03-17T09:19:13+09:00',
/* author */ (''),
/* organization */ (''),
/* preprocessor_version */ 'ST-DEVELOPER v16',
/* originating_system */ 'SIEMENS PLM Software NX 10.0',
/* authorisation */ '');

FILE_SCHEMA (('AUTOMOTIVE_DESIGN { 1 0 10303 214 3 1 1 1 }'));
ENDSEC;

DATA;
#10=CONSTRUCTIVE_GEOMETRY_REPRESENTATION_RELATIONSHIP(
'supplemental geometry','',#26,#11);
#11=CONSTRUCTIVE_GEOMETRY_REPRESENTATION('supplemental geometry',(#330,
#331,#332,#333,#334,#335,#336,#337,#338,#339),#551);
#12=GEOMETRICALLY_BOUNDED_WIREFRAME_SHAPE_REPRESENTATION(
'MS2XLD3-16N1125-None',(#27),#551);
#13=SHAPE_REPRESENTATION_RELATIONSHIP('None',
'relationship between MS2XLD3-16N1125-None and MS2XLD3-16N1125-None',#26,
#15);
#14=SHAPE_REPRESENTATION_RELATIONSHIP('None',
'relationship between MS2XLD3-16N1125-None and MS2XLD3-16N1125-None',#26,
#12);
#15=ADVANCED_BREP_SHAPE_REPRESENTATION('MS2XLD3-16N1125-None',(#44,#45),
#551);
#16=SHAPE_DEFINITION_REPRESENTATION(#17,#26);
#17=PRODUCT_DEFINITION_SHAPE('','SHAPE FOR MS2XLD3-16N1125_ASM.',#18);
#18=PRODUCT_DEFINITION('part definition','',#20,#19);
#19=PRODUCT_DEFINITION_CONTEXT('part definition',#25,'design');
#20=PRODUCT_DEFINITION_FORMATION_WITH_SPECIFIED_SOURCE(' ',' ',#22,
 .NOT_KNOWN.);
#21=PRODUCT_RELATED_PRODUCT_CATEGORY('part','',(#22));
#22=PRODUCT('MS2XLD3-16N1125_ASM','MS2XLD3-16N1125_ASM','NOT SPECIFIED',
(#23));
#23=PRODUCT_CONTEXT('',#25,'mechanical');
#24=APPLICATION_PROTOCOL_DEFINITION('international standard',
'automotive_design',2010,#25);
#25=APPLICATION_CONTEXT(
'core data for automotive mechanical design processes');
#26=SHAPE_REPRESENTATION('MS2XLD3-16N1125-None',(#329),#551);
#27=GEOMETRIC_CURVE_SET('None',(#475,#250,#251,#252,#253));
#28=CONICAL_SURFACE('',#350,2.35625,45.00000000001);
#29=CONICAL_SURFACE('',#354,2.35625,45.00000000001);
#30=CONICAL_SURFACE('',#360,2.35625,45.00000000005);
#31=CONICAL_SURFACE('',#362,2.35625,45.00000000005);
#32=CONICAL_SURFACE('',#368,2.131,45.);
#33=CONICAL_SURFACE('',#370,2.131,45.);
#34=SURFACE_STYLE_USAGE(.BOTH.,#36);
#35=SURFACE_STYLE_USAGE(.BOTH.,#37);
#36=SURFACE_SIDE_STYLE('',(#38));
#37=SURFACE_SIDE_STYLE('',(#39));
#38=SURFACE_STYLE_FILL_AREA(#40);
#39=SURFACE_STYLE_FILL_AREA(#41);
#40=FILL_AREA_STYLE('',(#42));
#41=FILL_AREA_STYLE('',(#43));
#42=FILL_AREA_STYLE_COLOUR('',#327);
#43=FILL_AREA_STYLE_COLOUR('',#328);
#44=MANIFOLD_SOLID_BREP('CUT',#46);
#45=MANIFOLD_SOLID_BREP('NOCUT',#47);
#46=CLOSED_SHELL('',(#52,#53,#54,#55));
#47=CLOSED_SHELL('',(#56,#57,#58,#59,#60,#61,#62,#63,#64,#65,#66,#67));
#48=PLANE('',#344);
#49=PLANE('',#347);
#50=PLANE('',#352);
#51=PLANE('',#371);
#52=ADVANCED_FACE('',(#74),#68,.T.);
#53=ADVANCED_FACE('',(#75),#48,.F.);
#54=ADVANCED_FACE('',(#76),#69,.T.);
#55=ADVANCED_FACE('',(#77),#49,.T.);
#56=ADVANCED_FACE('',(#78),#28,.T.);
#57=ADVANCED_FACE('',(#79),#50,.F.);
#58=ADVANCED_FACE('',(#80),#29,.T.);
#59=ADVANCED_FACE('',(#81),#70,.T.);
#60=ADVANCED_FACE('',(#82),#71,.T.);
#61=ADVANCED_FACE('',(#83),#30,.T.);
#62=ADVANCED_FACE('',(#84),#31,.T.);
#63=ADVANCED_FACE('',(#85),#72,.T.);
#64=ADVANCED_FACE('',(#86),#73,.T.);
#65=ADVANCED_FACE('',(#87),#32,.T.);
#66=ADVANCED_FACE('',(#88),#33,.T.);
#67=ADVANCED_FACE('',(#89),#51,.F.);
#68=CYLINDRICAL_SURFACE('',#342,2.381);
#69=CYLINDRICAL_SURFACE('',#346,2.381);
#70=CYLINDRICAL_SURFACE('',#356,2.3315);
#71=CYLINDRICAL_SURFACE('',#358,2.3315);
#72=CYLINDRICAL_SURFACE('',#364,2.381);
#73=CYLINDRICAL_SURFACE('',#366,2.381);
#74=FACE_OUTER_BOUND('',#90,.T.);
#75=FACE_OUTER_BOUND('',#91,.T.);
#76=FACE_OUTER_BOUND('',#92,.T.);
#77=FACE_OUTER_BOUND('',#93,.T.);
#78=FACE_OUTER_BOUND('',#94,.T.);
#79=FACE_OUTER_BOUND('',#95,.T.);
#80=FACE_OUTER_BOUND('',#96,.T.);
#81=FACE_OUTER_BOUND('',#97,.T.);
#82=FACE_OUTER_BOUND('',#98,.T.);
#83=FACE_OUTER_BOUND('',#99,.T.);
#84=FACE_OUTER_BOUND('',#100,.T.);
#85=FACE_OUTER_BOUND('',#101,.T.);
#86=FACE_OUTER_BOUND('',#102,.T.);
#87=FACE_OUTER_BOUND('',#103,.T.);
#88=FACE_OUTER_BOUND('',#104,.T.);
#89=FACE_OUTER_BOUND('',#105,.T.);
#90=EDGE_LOOP('',(#122,#123,#124,#125));
#91=EDGE_LOOP('',(#126,#127));
#92=EDGE_LOOP('',(#128,#129,#130,#131));
#93=EDGE_LOOP('',(#132,#133));
#94=EDGE_LOOP('',(#134,#135,#136,#137));
#95=EDGE_LOOP('',(#138,#139));
#96=EDGE_LOOP('',(#140,#141,#142,#143));
#97=EDGE_LOOP('',(#144,#145,#146,#147));
#98=EDGE_LOOP('',(#148,#149,#150,#151));
#99=EDGE_LOOP('',(#152,#153,#154,#155));
#100=EDGE_LOOP('',(#156,#157,#158,#159));
#101=EDGE_LOOP('',(#160,#161,#162,#163));
#102=EDGE_LOOP('',(#164,#165,#166,#167));
#103=EDGE_LOOP('',(#168,#169,#170,#171));
#104=EDGE_LOOP('',(#172,#173,#174,#175));
#105=EDGE_LOOP('',(#176,#177));
#106=CIRCLE('',#340,2.381);
#107=CIRCLE('',#341,2.381);
#108=CIRCLE('',#343,2.381);
#109=CIRCLE('',#345,2.381);
#110=CIRCLE('',#348,2.3315);
#111=CIRCLE('',#349,2.381);
#112=CIRCLE('',#351,2.381);
#113=CIRCLE('',#353,2.3315);
#114=CIRCLE('',#355,2.3315);
#115=CIRCLE('',#357,2.3315);
#116=CIRCLE('',#359,2.381);
#117=CIRCLE('',#361,2.381);
#118=CIRCLE('',#363,2.381);
#119=CIRCLE('',#365,2.381);
#120=CIRCLE('',#367,1.881);
#121=CIRCLE('',#369,1.881);
#122=ORIENTED_EDGE('',*,*,#194,.T.);
#123=ORIENTED_EDGE('',*,*,#195,.T.);
#124=ORIENTED_EDGE('',*,*,#196,.F.);
#125=ORIENTED_EDGE('',*,*,#197,.T.);
#126=ORIENTED_EDGE('',*,*,#198,.F.);
#127=ORIENTED_EDGE('',*,*,#197,.F.);
#128=ORIENTED_EDGE('',*,*,#196,.T.);
#129=ORIENTED_EDGE('',*,*,#199,.T.);
#130=ORIENTED_EDGE('',*,*,#194,.F.);
#131=ORIENTED_EDGE('',*,*,#198,.T.);
#132=ORIENTED_EDGE('',*,*,#195,.F.);
#133=ORIENTED_EDGE('',*,*,#199,.F.);
#134=ORIENTED_EDGE('',*,*,#200,.F.);
#135=ORIENTED_EDGE('',*,*,#201,.F.);
#136=ORIENTED_EDGE('',*,*,#202,.T.);
#137=ORIENTED_EDGE('',*,*,#203,.T.);
#138=ORIENTED_EDGE('',*,*,#204,.F.);
#139=ORIENTED_EDGE('',*,*,#203,.F.);
#140=ORIENTED_EDGE('',*,*,#202,.F.);
#141=ORIENTED_EDGE('',*,*,#205,.F.);
#142=ORIENTED_EDGE('',*,*,#200,.T.);
#143=ORIENTED_EDGE('',*,*,#204,.T.);
#144=ORIENTED_EDGE('',*,*,#205,.T.);
#145=ORIENTED_EDGE('',*,*,#206,.T.);
#146=ORIENTED_EDGE('',*,*,#207,.T.);
#147=ORIENTED_EDGE('',*,*,#208,.F.);
#148=ORIENTED_EDGE('',*,*,#209,.T.);
#149=ORIENTED_EDGE('',*,*,#206,.F.);
#150=ORIENTED_EDGE('',*,*,#201,.T.);
#151=ORIENTED_EDGE('',*,*,#208,.T.);
#152=ORIENTED_EDGE('',*,*,#210,.F.);
#153=ORIENTED_EDGE('',*,*,#211,.T.);
#154=ORIENTED_EDGE('',*,*,#209,.F.);
#155=ORIENTED_EDGE('',*,*,#212,.F.);
#156=ORIENTED_EDGE('',*,*,#207,.F.);
#157=ORIENTED_EDGE('',*,*,#211,.F.);
#158=ORIENTED_EDGE('',*,*,#213,.F.);
#159=ORIENTED_EDGE('',*,*,#212,.T.);
#160=ORIENTED_EDGE('',*,*,#213,.T.);
#161=ORIENTED_EDGE('',*,*,#214,.T.);
#162=ORIENTED_EDGE('',*,*,#215,.T.);
#163=ORIENTED_EDGE('',*,*,#216,.F.);
#164=ORIENTED_EDGE('',*,*,#217,.T.);
#165=ORIENTED_EDGE('',*,*,#214,.F.);
#166=ORIENTED_EDGE('',*,*,#210,.T.);
#167=ORIENTED_EDGE('',*,*,#216,.T.);
#168=ORIENTED_EDGE('',*,*,#218,.T.);
#169=ORIENTED_EDGE('',*,*,#219,.T.);
#170=ORIENTED_EDGE('',*,*,#217,.F.);
#171=ORIENTED_EDGE('',*,*,#220,.F.);
#172=ORIENTED_EDGE('',*,*,#215,.F.);
#173=ORIENTED_EDGE('',*,*,#219,.F.);
#174=ORIENTED_EDGE('',*,*,#221,.T.);
#175=ORIENTED_EDGE('',*,*,#220,.T.);
#176=ORIENTED_EDGE('',*,*,#218,.F.);
#177=ORIENTED_EDGE('',*,*,#221,.F.);
#178=VERTEX_POINT('',#491);
#179=VERTEX_POINT('',#492);
#180=VERTEX_POINT('',#494);
#181=VERTEX_POINT('',#496);
#182=VERTEX_POINT('',#505);
#183=VERTEX_POINT('',#506);
#184=VERTEX_POINT('',#508);
#185=VERTEX_POINT('',#510);
#186=VERTEX_POINT('',#518);
#187=VERTEX_POINT('',#520);
#188=VERTEX_POINT('',#526);
#189=VERTEX_POINT('',#527);
#190=VERTEX_POINT('',#534);
#191=VERTEX_POINT('',#536);
#192=VERTEX_POINT('',#542);
#193=VERTEX_POINT('',#543);
#194=EDGE_CURVE('',#178,#179,#258,.T.);
#195=EDGE_CURVE('',#179,#180,#106,.T.);
#196=EDGE_CURVE('',#181,#180,#259,.T.);
#197=EDGE_CURVE('',#181,#178,#107,.T.);
#198=EDGE_CURVE('',#178,#181,#108,.T.);
#199=EDGE_CURVE('',#180,#179,#109,.T.);
#200=EDGE_CURVE('',#182,#183,#260,.T.);
#201=EDGE_CURVE('',#184,#182,#110,.T.);
#202=EDGE_CURVE('',#184,#185,#261,.T.);
#203=EDGE_CURVE('',#185,#183,#111,.T.);
#204=EDGE_CURVE('',#183,#185,#112,.T.);
#205=EDGE_CURVE('',#182,#184,#113,.T.);
#206=EDGE_CURVE('',#184,#186,#262,.T.);
#207=EDGE_CURVE('',#186,#187,#114,.T.);
#208=EDGE_CURVE('',#182,#187,#263,.T.);
#209=EDGE_CURVE('',#187,#186,#115,.T.);
#210=EDGE_CURVE('',#188,#189,#116,.T.);
#211=EDGE_CURVE('',#188,#186,#264,.T.);
#212=EDGE_CURVE('',#189,#187,#265,.T.);
#213=EDGE_CURVE('',#189,#188,#117,.T.);
#214=EDGE_CURVE('',#188,#190,#266,.T.);
#215=EDGE_CURVE('',#190,#191,#118,.T.);
#216=EDGE_CURVE('',#189,#191,#267,.T.);
#217=EDGE_CURVE('',#191,#190,#119,.T.);
#218=EDGE_CURVE('',#192,#193,#120,.T.);
#219=EDGE_CURVE('',#193,#190,#268,.T.);
#220=EDGE_CURVE('',#192,#191,#269,.T.);
#221=EDGE_CURVE('',#193,#192,#121,.T.);
#222=CURVE_STYLE('',#236,POSITIVE_LENGTH_MEASURE(0.18),#324);
#223=CURVE_STYLE('',#237,POSITIVE_LENGTH_MEASURE(0.18),#324);
#224=CURVE_STYLE('',#238,POSITIVE_LENGTH_MEASURE(0.18),#324);
#225=CURVE_STYLE('',#239,POSITIVE_LENGTH_MEASURE(0.18),#324);
#226=CURVE_STYLE('',#240,POSITIVE_LENGTH_MEASURE(0.13),#325);
#227=CURVE_STYLE('',#241,POSITIVE_LENGTH_MEASURE(0.13),#325);
#228=CURVE_STYLE('',#242,POSITIVE_LENGTH_MEASURE(0.13),#326);
#229=CURVE_STYLE('',#243,POSITIVE_LENGTH_MEASURE(0.13),#326);
#230=CURVE_STYLE('',#244,POSITIVE_LENGTH_MEASURE(0.13),#325);
#231=CURVE_STYLE('',#245,POSITIVE_LENGTH_MEASURE(0.13),#325);
#232=CURVE_STYLE('',#246,POSITIVE_LENGTH_MEASURE(0.13),#326);
#233=CURVE_STYLE('',#247,POSITIVE_LENGTH_MEASURE(0.13),#325);
#234=CURVE_STYLE('',#248,POSITIVE_LENGTH_MEASURE(0.13),#325);
#235=CURVE_STYLE('',#249,POSITIVE_LENGTH_MEASURE(0.13),#325);
#236=DRAUGHTING_PRE_DEFINED_CURVE_FONT('continuous');
#237=DRAUGHTING_PRE_DEFINED_CURVE_FONT('continuous');
#238=DRAUGHTING_PRE_DEFINED_CURVE_FONT('continuous');
#239=DRAUGHTING_PRE_DEFINED_CURVE_FONT('continuous');
#240=DRAUGHTING_PRE_DEFINED_CURVE_FONT('continuous');
#241=DRAUGHTING_PRE_DEFINED_CURVE_FONT('continuous');
#242=DRAUGHTING_PRE_DEFINED_CURVE_FONT('continuous');
#243=DRAUGHTING_PRE_DEFINED_CURVE_FONT('continuous');
#244=DRAUGHTING_PRE_DEFINED_CURVE_FONT('continuous');
#245=DRAUGHTING_PRE_DEFINED_CURVE_FONT('continuous');
#246=DRAUGHTING_PRE_DEFINED_CURVE_FONT('continuous');
#247=DRAUGHTING_PRE_DEFINED_CURVE_FONT('continuous');
#248=DRAUGHTING_PRE_DEFINED_CURVE_FONT('continuous');
#249=DRAUGHTING_PRE_DEFINED_CURVE_FONT('continuous');
#250=TRIMMED_CURVE('',#254,(PARAMETER_VALUE(0.)),(PARAMETER_VALUE(1.)),
 .T.,.PARAMETER.);
#251=TRIMMED_CURVE('',#255,(PARAMETER_VALUE(0.)),(PARAMETER_VALUE(1.)),
 .T.,.PARAMETER.);
#252=TRIMMED_CURVE('',#256,(PARAMETER_VALUE(0.)),(PARAMETER_VALUE(1.)),
 .T.,.PARAMETER.);
#253=TRIMMED_CURVE('',#257,(PARAMETER_VALUE(0.)),(PARAMETER_VALUE(1.)),
 .T.,.PARAMETER.);
#254=LINE('',#476,#270);
#255=LINE('',#477,#271);
#256=LINE('',#478,#272);
#257=LINE('',#479,#273);
#258=LINE('',#490,#274);
#259=LINE('',#495,#275);
#260=LINE('',#504,#276);
#261=LINE('',#509,#277);
#262=LINE('',#517,#278);
#263=LINE('',#521,#279);
#264=LINE('',#528,#280);
#265=LINE('',#529,#281);
#266=LINE('',#533,#282);
#267=LINE('',#537,#283);
#268=LINE('',#544,#284);
#269=LINE('',#545,#285);
#270=VECTOR('',#374,2.381);
#271=VECTOR('',#375,4.762);
#272=VECTOR('',#376,2.381);
#273=VECTOR('',#377,4.762);
#274=VECTOR('',#398,1.);
#275=VECTOR('',#401,1.);
#276=VECTOR('',#416,1.);
#277=VECTOR('',#419,1.);
#278=VECTOR('',#432,1.);
#279=VECTOR('',#435,1.);
#280=VECTOR('',#444,1.);
#281=VECTOR('',#445,1.);
#282=VECTOR('',#452,1.);
#283=VECTOR('',#455,1.);
#284=VECTOR('',#464,1.);
#285=VECTOR('',#465,1.);
#286=PRESENTATION_LAYER_ASSIGNMENT('1','Layer 1',(#475,#250,#251,#252,#253,
#330,#331,#334,#335,#336,#337,#338,#339,#44,#45));
#287=PRESENTATION_LAYER_ASSIGNMENT('2','Layer 2',(#332,#333));
#288=STYLED_ITEM('',(#305),#475);
#289=STYLED_ITEM('',(#306),#250);
#290=STYLED_ITEM('',(#307),#251);
#291=STYLED_ITEM('',(#308),#252);
#292=STYLED_ITEM('',(#309),#253);
#293=STYLED_ITEM('',(#310),#330);
#294=STYLED_ITEM('',(#311),#331);
#295=STYLED_ITEM('',(#312),#332);
#296=STYLED_ITEM('',(#313),#333);
#297=STYLED_ITEM('',(#314),#334);
#298=STYLED_ITEM('',(#315),#335);
#299=STYLED_ITEM('',(#316),#336);
#300=STYLED_ITEM('',(#317),#337);
#301=STYLED_ITEM('',(#318),#338);
#302=STYLED_ITEM('',(#319),#339);
#303=STYLED_ITEM('',(#320),#44);
#304=STYLED_ITEM('',(#321),#45);
#305=PRESENTATION_STYLE_ASSIGNMENT((#322));
#306=PRESENTATION_STYLE_ASSIGNMENT((#222));
#307=PRESENTATION_STYLE_ASSIGNMENT((#223));
#308=PRESENTATION_STYLE_ASSIGNMENT((#224));
#309=PRESENTATION_STYLE_ASSIGNMENT((#225));
#310=PRESENTATION_STYLE_ASSIGNMENT((#226));
#311=PRESENTATION_STYLE_ASSIGNMENT((#227));
#312=PRESENTATION_STYLE_ASSIGNMENT((#228));
#313=PRESENTATION_STYLE_ASSIGNMENT((#229));
#314=PRESENTATION_STYLE_ASSIGNMENT((#230));
#315=PRESENTATION_STYLE_ASSIGNMENT((#231));
#316=PRESENTATION_STYLE_ASSIGNMENT((#232));
#317=PRESENTATION_STYLE_ASSIGNMENT((#233));
#318=PRESENTATION_STYLE_ASSIGNMENT((#234));
#319=PRESENTATION_STYLE_ASSIGNMENT((#235));
#320=PRESENTATION_STYLE_ASSIGNMENT((#34));
#321=PRESENTATION_STYLE_ASSIGNMENT((#35));
#322=POINT_STYLE('',#323,POSITIVE_LENGTH_MEASURE(3.),#324);
#323=PRE_DEFINED_POINT_MARKER_SYMBOL('plus');
#324=COLOUR_RGB('Medium Royal',0.2,0.4,0.8);
#325=COLOUR_RGB('Strong Stone',0.576470588235294,0.54508278019379,0.392156862745098);
#326=COLOUR_RGB('Medium Umber',0.372533760585946,0.313725490196078,0.270572976272221);
#327=COLOUR_RGB('cutting part',0.8,0.8,0.8);
#328=COLOUR_RGB('non-cutting part and shank',0.501960784313725,0.501960784313725,
0.501960784313725);
#329=AXIS2_PLACEMENT_3D('',#474,#372,#373);
#330=AXIS2_PLACEMENT_3D('',#480,#378,#379);
#331=AXIS2_PLACEMENT_3D('',#481,#380,#381);
#332=AXIS2_PLACEMENT_3D('CIP',#482,#382,#383);
#333=AXIS2_PLACEMENT_3D('PCS',#483,#384,#385);
#334=AXIS2_PLACEMENT_3D('MCS',#484,#386,#387);
#335=AXIS2_PLACEMENT_3D('',#485,#388,#389);
#336=AXIS2_PLACEMENT_3D('STEP_TEMP_EM21_1',#486,#390,#391);
#337=AXIS2_PLACEMENT_3D('',#487,#392,#393);
#338=AXIS2_PLACEMENT_3D('',#488,#394,#395);
#339=AXIS2_PLACEMENT_3D('',#489,#396,#397);
#340=AXIS2_PLACEMENT_3D('',#493,#399,#400);
#341=AXIS2_PLACEMENT_3D('',#497,#402,#403);
#342=AXIS2_PLACEMENT_3D('',#498,#404,#405);
#343=AXIS2_PLACEMENT_3D('',#499,#406,#407);
#344=AXIS2_PLACEMENT_3D('',#500,#408,#409);
#345=AXIS2_PLACEMENT_3D('',#501,#410,#411);
#346=AXIS2_PLACEMENT_3D('',#502,#412,#413);
#347=AXIS2_PLACEMENT_3D('',#503,#414,#415);
#348=AXIS2_PLACEMENT_3D('',#507,#417,#418);
#349=AXIS2_PLACEMENT_3D('',#511,#420,#421);
#350=AXIS2_PLACEMENT_3D('',#512,#422,#423);
#351=AXIS2_PLACEMENT_3D('',#513,#424,#425);
#352=AXIS2_PLACEMENT_3D('',#514,#426,#427);
#353=AXIS2_PLACEMENT_3D('',#515,#428,#429);
#354=AXIS2_PLACEMENT_3D('',#516,#430,#431);
#355=AXIS2_PLACEMENT_3D('',#519,#433,#434);
#356=AXIS2_PLACEMENT_3D('',#522,#436,#437);
#357=AXIS2_PLACEMENT_3D('',#523,#438,#439);
#358=AXIS2_PLACEMENT_3D('',#524,#440,#441);
#359=AXIS2_PLACEMENT_3D('',#525,#442,#443);
#360=AXIS2_PLACEMENT_3D('',#530,#446,#447);
#361=AXIS2_PLACEMENT_3D('',#531,#448,#449);
#362=AXIS2_PLACEMENT_3D('',#532,#450,#451);
#363=AXIS2_PLACEMENT_3D('',#535,#453,#454);
#364=AXIS2_PLACEMENT_3D('',#538,#456,#457);
#365=AXIS2_PLACEMENT_3D('',#539,#458,#459);
#366=AXIS2_PLACEMENT_3D('',#540,#460,#461);
#367=AXIS2_PLACEMENT_3D('',#541,#462,#463);
#368=AXIS2_PLACEMENT_3D('',#546,#466,#467);
#369=AXIS2_PLACEMENT_3D('',#547,#468,#469);
#370=AXIS2_PLACEMENT_3D('',#548,#470,#471);
#371=AXIS2_PLACEMENT_3D('',#549,#472,#473);
#372=DIRECTION('',(0.,0.,1.));
#373=DIRECTION('',(1.,0.,0.));
#374=DIRECTION('',(-1.,0.,0.));
#375=DIRECTION('',(0.,0.,1.));
#376=DIRECTION('',(1.,0.,0.));
#377=DIRECTION('',(0.,0.,-1.));
#378=DIRECTION('',(0.,0.,1.));
#379=DIRECTION('',(1.,0.,0.));
#380=DIRECTION('',(0.,0.,1.));
#381=DIRECTION('',(1.,0.,0.));
#382=DIRECTION('',(0.,0.,1.));
#383=DIRECTION('',(1.,0.,0.));
#384=DIRECTION('',(0.,0.,1.));
#385=DIRECTION('',(1.,0.,0.));
#386=DIRECTION('',(0.,0.,1.));
#387=DIRECTION('',(1.,0.,0.));
#388=DIRECTION('',(0.,0.,1.));
#389=DIRECTION('',(1.,0.,0.));
#390=DIRECTION('',(0.,0.,1.));
#391=DIRECTION('',(1.,0.,0.));
#392=DIRECTION('',(0.,0.,1.));
#393=DIRECTION('',(1.,0.,0.));
#394=DIRECTION('',(0.,0.,1.));
#395=DIRECTION('',(1.,0.,0.));
#396=DIRECTION('',(0.,0.,1.));
#397=DIRECTION('',(1.,0.,0.));
#398=DIRECTION('',(0.,0.,-1.));
#399=DIRECTION('',(0.,0.,1.));
#400=DIRECTION('',(0.,-1.,0.));
#401=DIRECTION('',(0.,0.,-1.));
#402=DIRECTION('',(0.,0.,-1.));
#403=DIRECTION('',(0.,1.,0.));
#404=DIRECTION('',(0.,0.,-1.));
#405=DIRECTION('',(0.,1.,0.));
#406=DIRECTION('',(0.,0.,-1.));
#407=DIRECTION('',(0.,-1.,0.));
#408=DIRECTION('',(0.,0.,-1.));
#409=DIRECTION('',(1.,0.,0.));
#410=DIRECTION('',(0.,0.,1.));
#411=DIRECTION('',(0.,1.,0.));
#412=DIRECTION('',(0.,0.,-1.));
#413=DIRECTION('',(0.,1.,0.));
#414=DIRECTION('',(0.,0.,-1.));
#415=DIRECTION('',(0.,1.,0.));
#416=DIRECTION('',(0.,0.707106781186547,-0.707106781186547));
#417=DIRECTION('',(0.,0.,1.));
#418=DIRECTION('',(0.,-1.,0.));
#419=DIRECTION('',(0.,-0.707106781186598,-0.707106781186498));
#420=DIRECTION('',(0.,0.,1.));
#421=DIRECTION('',(0.,-1.,0.));
#422=DIRECTION('',(0.,0.,-1.));
#423=DIRECTION('',(0.,1.,-4.84580779810907E-17));
#424=DIRECTION('',(0.,0.,1.));
#425=DIRECTION('',(0.,1.,0.));
#426=DIRECTION('',(0.,0.,1.));
#427=DIRECTION('',(-1.,0.,0.));
#428=DIRECTION('',(0.,0.,1.));
#429=DIRECTION('',(0.,1.,0.));
#430=DIRECTION('',(0.,0.,-1.));
#431=DIRECTION('',(0.,1.,-4.84580779810907E-17));
#432=DIRECTION('',(0.,0.,1.));
#433=DIRECTION('',(0.,0.,-1.));
#434=DIRECTION('',(0.,-1.,0.));
#435=DIRECTION('',(0.,0.,1.));
#436=DIRECTION('',(0.,0.,-1.));
#437=DIRECTION('',(0.,1.,0.));
#438=DIRECTION('',(0.,0.,-1.));
#439=DIRECTION('',(0.,1.,0.));
#440=DIRECTION('',(0.,0.,-1.));
#441=DIRECTION('',(0.,1.,0.));
#442=DIRECTION('',(0.,0.,1.));
#443=DIRECTION('',(0.,-1.,0.));
#444=DIRECTION('',(0.,0.707106781186898,-0.707106781186198));
#445=DIRECTION('',(0.,-0.707106781186898,-0.707106781186198));
#446=DIRECTION('',(0.,0.,1.));
#447=DIRECTION('',(0.,-1.,-1.10761321099482E-16));
#448=DIRECTION('',(0.,0.,1.));
#449=DIRECTION('',(0.,1.,0.));
#450=DIRECTION('',(0.,0.,1.));
#451=DIRECTION('',(0.,-1.,-1.10761321099482E-16));
#452=DIRECTION('',(0.,0.,1.));
#453=DIRECTION('',(0.,0.,-1.));
#454=DIRECTION('',(0.,-1.,0.));
#455=DIRECTION('',(0.,0.,1.));
#456=DIRECTION('',(0.,0.,-1.));
#457=DIRECTION('',(0.,1.,0.));
#458=DIRECTION('',(0.,0.,-1.));
#459=DIRECTION('',(0.,1.,0.));
#460=DIRECTION('',(0.,0.,-1.));
#461=DIRECTION('',(0.,1.,0.));
#462=DIRECTION('',(0.,0.,-1.));
#463=DIRECTION('',(0.,1.,0.));
#464=DIRECTION('',(0.,-0.707106781186547,-0.707106781186547));
#465=DIRECTION('',(0.,0.707106781186547,-0.707106781186547));
#466=DIRECTION('',(0.,0.,-1.));
#467=DIRECTION('',(0.,1.,2.7696554258504E-17));
#468=DIRECTION('',(0.,0.,-1.));
#469=DIRECTION('',(0.,-1.,0.));
#470=DIRECTION('',(0.,0.,-1.));
#471=DIRECTION('',(0.,1.,2.7696554258504E-17));
#472=DIRECTION('',(0.,0.,-1.));
#473=DIRECTION('',(0.,1.,0.));
#474=CARTESIAN_POINT('',(0.,0.,0.));
#475=CARTESIAN_POINT('CRP',(-2.381,0.,0.));
#476=CARTESIAN_POINT('',(0.,0.,1.464823731952E-14));
#477=CARTESIAN_POINT('',(-2.381,0.,1.377347211089E-14));
#478=CARTESIAN_POINT('',(-2.381,0.,4.762));
#479=CARTESIAN_POINT('',(0.,0.,4.762));
#480=CARTESIAN_POINT('',(0.,0.,0.));
#481=CARTESIAN_POINT('',(0.,0.,0.));
#482=CARTESIAN_POINT('',(0.,0.,0.));
#483=CARTESIAN_POINT('',(0.,0.,63.5));
#484=CARTESIAN_POINT('',(0.,0.,44.45));
#485=CARTESIAN_POINT('',(0.,0.,0.));
#486=CARTESIAN_POINT('',(0.,0.,0.));
#487=CARTESIAN_POINT('',(0.,0.,0.));
#488=CARTESIAN_POINT('',(0.,0.,0.));
#489=CARTESIAN_POINT('',(0.,0.,0.));
#490=CARTESIAN_POINT('',(0.,-2.381,4.762));
#491=CARTESIAN_POINT('',(0.,-2.381,4.762));
#492=CARTESIAN_POINT('',(0.,-2.381,-2.84217094304E-14));
#493=CARTESIAN_POINT('',(0.,0.,-2.84217094304E-14));
#494=CARTESIAN_POINT('',(0.,2.381,-1.86517468137E-14));
#495=CARTESIAN_POINT('',(0.,2.381,4.762));
#496=CARTESIAN_POINT('',(0.,2.381,4.762));
#497=CARTESIAN_POINT('',(0.,0.,4.762));
#498=CARTESIAN_POINT('',(0.,0.,66.675));
#499=CARTESIAN_POINT('',(0.,0.,4.762));
#500=CARTESIAN_POINT('',(150.,150.,4.762));
#501=CARTESIAN_POINT('',(0.,0.,-2.84217094304E-14));
#502=CARTESIAN_POINT('',(0.,0.,66.675));
#503=CARTESIAN_POINT('',(0.,-1.165642425173E-14,0.));
#504=CARTESIAN_POINT('',(0.,2.3315,4.8115));
#505=CARTESIAN_POINT('',(0.,2.3315,4.8115));
#506=CARTESIAN_POINT('',(0.,2.381,4.762));
#507=CARTESIAN_POINT('',(0.,-1.077711254186E-14,4.8115));
#508=CARTESIAN_POINT('',(0.,-2.3315,4.8115));
#509=CARTESIAN_POINT('',(0.,-2.3315,4.8115));
#510=CARTESIAN_POINT('',(0.,-2.381,4.762));
#511=CARTESIAN_POINT('',(0.,-1.077711254186E-14,4.762));
#512=CARTESIAN_POINT('',(0.,-1.077711254186E-14,4.78675));
#513=CARTESIAN_POINT('',(0.,-1.077711254186E-14,4.762));
#514=CARTESIAN_POINT('',(-150.,150.,4.762));
#515=CARTESIAN_POINT('',(0.,-1.077711254186E-14,4.8115));
#516=CARTESIAN_POINT('',(0.,-1.077711254186E-14,4.78675));
#517=CARTESIAN_POINT('',(0.,-2.3315,28.5255));
#518=CARTESIAN_POINT('',(0.,-2.3315,28.5255));
#519=CARTESIAN_POINT('',(0.,0.,28.5255));
#520=CARTESIAN_POINT('',(0.,2.3315,28.5255));
#521=CARTESIAN_POINT('',(0.,2.3315,28.5255));
#522=CARTESIAN_POINT('',(0.,0.,66.675));
#523=CARTESIAN_POINT('',(0.,0.,28.5255));
#524=CARTESIAN_POINT('',(0.,0.,66.675));
#525=CARTESIAN_POINT('',(0.,0.,28.575));
#526=CARTESIAN_POINT('',(0.,-2.381,28.575));
#527=CARTESIAN_POINT('',(0.,2.381,28.575));
#528=CARTESIAN_POINT('',(0.,-2.381,28.575));
#529=CARTESIAN_POINT('',(0.,2.381,28.575));
#530=CARTESIAN_POINT('',(0.,0.,28.55025));
#531=CARTESIAN_POINT('',(0.,0.,28.575));
#532=CARTESIAN_POINT('',(0.,0.,28.55025));
#533=CARTESIAN_POINT('',(0.,-2.381,63.));
#534=CARTESIAN_POINT('',(0.,-2.381,63.));
#535=CARTESIAN_POINT('',(0.,0.,63.));
#536=CARTESIAN_POINT('',(0.,2.381,63.));
#537=CARTESIAN_POINT('',(0.,2.381,63.));
#538=CARTESIAN_POINT('',(0.,0.,66.675));
#539=CARTESIAN_POINT('',(0.,0.,63.));
#540=CARTESIAN_POINT('',(0.,0.,66.675));
#541=CARTESIAN_POINT('',(0.,0.,63.5));
#542=CARTESIAN_POINT('',(0.,1.881,63.5));
#543=CARTESIAN_POINT('',(0.,-1.881,63.5));
#544=CARTESIAN_POINT('',(0.,-1.881,63.5));
#545=CARTESIAN_POINT('',(0.,1.881,63.5));
#546=CARTESIAN_POINT('',(0.,0.,63.25));
#547=CARTESIAN_POINT('',(0.,0.,63.5));
#548=CARTESIAN_POINT('',(0.,0.,63.25));
#549=CARTESIAN_POINT('',(0.,0.,63.5));
#550=MECHANICAL_DESIGN_GEOMETRIC_PRESENTATION_REPRESENTATION('',(#288,#289,
#290,#291,#292,#293,#294,#295,#296,#297,#298,#299,#300,#301,#302,#303,#304),
#551);
#551=(
GEOMETRIC_REPRESENTATION_CONTEXT(3)
GLOBAL_UNCERTAINTY_ASSIGNED_CONTEXT((#552))
GLOBAL_UNIT_ASSIGNED_CONTEXT((#558,#554,#553))
REPRESENTATION_CONTEXT('MS2XLD3-16N1125','TOP_LEVEL_ASSEMBLY_PART')
);
#552=UNCERTAINTY_MEASURE_WITH_UNIT(LENGTH_MEASURE(2.E-5),#558,
'DISTANCE_ACCURACY_VALUE','Maximum Tolerance applied to model');
#553=(
NAMED_UNIT(*)
SI_UNIT($,.STERADIAN.)
SOLID_ANGLE_UNIT()
);
#554=(
CONVERSION_BASED_UNIT('DEGREE',#556)
NAMED_UNIT(#555)
PLANE_ANGLE_UNIT()
);
#555=DIMENSIONAL_EXPONENTS(0.,0.,0.,0.,0.,0.,0.);
#556=PLANE_ANGLE_MEASURE_WITH_UNIT(PLANE_ANGLE_MEASURE(0.0174532925),#557);
#557=(
NAMED_UNIT(*)
PLANE_ANGLE_UNIT()
SI_UNIT($,.RADIAN.)
);
#558=(
LENGTH_UNIT()
NAMED_UNIT(*)
SI_UNIT(.MILLI.,.METRE.)
);
ENDSEC;
END-ISO-10303-21;
