ISO-10303-21;
HEADER;
/* Generated by software containing ST-Developer
 * from STEP Tools, Inc. (www.steptools.com) 
 */
/* OPTION: using custom schema-name function */

FILE_DESCRIPTION(
/* description */ (''),
/* implementation_level */ '2;1');

FILE_NAME(
/* name */ 'VFRPSRBD1200R100N360.stp',
/* time_stamp */ '2023-04-06T09:54:38+09:00',
/* author */ (''),
/* organization */ (''),
/* preprocessor_version */ 'ST-DEVELOPER v16',
/* originating_system */ 'SIEMENS PLM Software NX 10.0',
/* authorisation */ '');

FILE_SCHEMA (('AUTOMOTIVE_DESIGN { 1 0 10303 214 3 1 1 1 }'));
ENDSEC;

DATA;
#10=CONSTRUCTIVE_GEOMETRY_REPRESENTATION_RELATIONSHIP(
'supplemental geometry','',#26,#11);
#11=CONSTRUCTIVE_GEOMETRY_REPRESENTATION('supplemental geometry',(#363,
#364,#365,#366,#367,#368,#369,#370,#371,#372),#613);
#12=GEOMETRICALLY_BOUNDED_WIREFRAME_SHAPE_REPRESENTATION(
'VFRPSRBD1200R100N360-None',(#27),#613);
#13=SHAPE_REPRESENTATION_RELATIONSHIP('None',
'relationship between VFRPSRBD1200R100N360-None and VFRPSRBD1200R100N3
60-None',#26,#15);
#14=SHAPE_REPRESENTATION_RELATIONSHIP('None',
'relationship between VFRPSRBD1200R100N360-None and VFRPSRBD1200R100N3
60-None',#26,#12);
#15=ADVANCED_BREP_SHAPE_REPRESENTATION('VFRPSRBD1200R100N360-None',(#44,
#45),#613);
#16=SHAPE_DEFINITION_REPRESENTATION(#17,#26);
#17=PRODUCT_DEFINITION_SHAPE('','SHAPE FOR VFRPSRBD1200R100N360_ASM.',#18);
#18=PRODUCT_DEFINITION('part definition','',#20,#19);
#19=PRODUCT_DEFINITION_CONTEXT('part definition',#25,'design');
#20=PRODUCT_DEFINITION_FORMATION_WITH_SPECIFIED_SOURCE(' ',' ',#22,
 .NOT_KNOWN.);
#21=PRODUCT_RELATED_PRODUCT_CATEGORY('part','',(#22));
#22=PRODUCT('VFRPSRBD1200R100N360_ASM','VFRPSRBD1200R100N360_ASM',
'NOT SPECIFIED',(#23));
#23=PRODUCT_CONTEXT('',#25,'mechanical');
#24=APPLICATION_PROTOCOL_DEFINITION('international standard',
'automotive_design',2010,#25);
#25=APPLICATION_CONTEXT(
'core data for automotive mechanical design processes');
#26=SHAPE_REPRESENTATION('VFRPSRBD1200R100N360-None',(#361),#613);
#27=GEOMETRIC_CURVE_SET('None',(#528,#279,#280,#281,#282,#283));
#28=CONICAL_SURFACE('',#389,5.925,44.99999999997);
#29=CONICAL_SURFACE('',#393,5.925,44.99999999997);
#30=CONICAL_SURFACE('',#399,5.925,45.00000000004);
#31=CONICAL_SURFACE('',#401,5.925,45.00000000004);
#32=CONICAL_SURFACE('',#407,5.75,45.);
#33=CONICAL_SURFACE('',#409,5.75,45.);
#34=SURFACE_STYLE_USAGE(.BOTH.,#36);
#35=SURFACE_STYLE_USAGE(.BOTH.,#37);
#36=SURFACE_SIDE_STYLE('',(#38));
#37=SURFACE_SIDE_STYLE('',(#39));
#38=SURFACE_STYLE_FILL_AREA(#40);
#39=SURFACE_STYLE_FILL_AREA(#41);
#40=FILL_AREA_STYLE('',(#42));
#41=FILL_AREA_STYLE('',(#43));
#42=FILL_AREA_STYLE_COLOUR('',#359);
#43=FILL_AREA_STYLE_COLOUR('',#360);
#44=MANIFOLD_SOLID_BREP('CUT',#46);
#45=MANIFOLD_SOLID_BREP('NOCUT',#47);
#46=CLOSED_SHELL('',(#54,#55,#56,#57,#58,#59));
#47=CLOSED_SHELL('',(#60,#61,#62,#63,#64,#65,#66,#67,#68,#69,#70,#71));
#48=TOROIDAL_SURFACE('',#383,5.,1.);
#49=TOROIDAL_SURFACE('',#385,5.,1.);
#50=PLANE('',#377);
#51=PLANE('',#386);
#52=PLANE('',#391);
#53=PLANE('',#410);
#54=ADVANCED_FACE('',(#78),#72,.T.);
#55=ADVANCED_FACE('',(#79),#50,.F.);
#56=ADVANCED_FACE('',(#80),#73,.T.);
#57=ADVANCED_FACE('',(#81),#48,.T.);
#58=ADVANCED_FACE('',(#82),#49,.T.);
#59=ADVANCED_FACE('',(#83),#51,.T.);
#60=ADVANCED_FACE('',(#84),#28,.T.);
#61=ADVANCED_FACE('',(#85),#52,.F.);
#62=ADVANCED_FACE('',(#86),#29,.T.);
#63=ADVANCED_FACE('',(#87),#74,.T.);
#64=ADVANCED_FACE('',(#88),#75,.T.);
#65=ADVANCED_FACE('',(#89),#30,.T.);
#66=ADVANCED_FACE('',(#90),#31,.T.);
#67=ADVANCED_FACE('',(#91),#76,.T.);
#68=ADVANCED_FACE('',(#92),#77,.T.);
#69=ADVANCED_FACE('',(#93),#32,.T.);
#70=ADVANCED_FACE('',(#94),#33,.T.);
#71=ADVANCED_FACE('',(#95),#53,.F.);
#72=CYLINDRICAL_SURFACE('',#375,6.);
#73=CYLINDRICAL_SURFACE('',#379,6.);
#74=CYLINDRICAL_SURFACE('',#395,5.85);
#75=CYLINDRICAL_SURFACE('',#397,5.85);
#76=CYLINDRICAL_SURFACE('',#403,6.);
#77=CYLINDRICAL_SURFACE('',#405,6.);
#78=FACE_OUTER_BOUND('',#96,.T.);
#79=FACE_OUTER_BOUND('',#97,.T.);
#80=FACE_OUTER_BOUND('',#98,.T.);
#81=FACE_OUTER_BOUND('',#99,.T.);
#82=FACE_OUTER_BOUND('',#100,.T.);
#83=FACE_OUTER_BOUND('',#101,.T.);
#84=FACE_OUTER_BOUND('',#102,.T.);
#85=FACE_OUTER_BOUND('',#103,.T.);
#86=FACE_OUTER_BOUND('',#104,.T.);
#87=FACE_OUTER_BOUND('',#105,.T.);
#88=FACE_OUTER_BOUND('',#106,.T.);
#89=FACE_OUTER_BOUND('',#107,.T.);
#90=FACE_OUTER_BOUND('',#108,.T.);
#91=FACE_OUTER_BOUND('',#109,.T.);
#92=FACE_OUTER_BOUND('',#110,.T.);
#93=FACE_OUTER_BOUND('',#111,.T.);
#94=FACE_OUTER_BOUND('',#112,.T.);
#95=FACE_OUTER_BOUND('',#113,.T.);
#96=EDGE_LOOP('',(#114,#115,#116,#117));
#97=EDGE_LOOP('',(#118,#119));
#98=EDGE_LOOP('',(#120,#121,#122,#123));
#99=EDGE_LOOP('',(#124,#125,#126,#127));
#100=EDGE_LOOP('',(#128,#129,#130,#131));
#101=EDGE_LOOP('',(#132,#133));
#102=EDGE_LOOP('',(#134,#135,#136,#137));
#103=EDGE_LOOP('',(#138,#139));
#104=EDGE_LOOP('',(#140,#141,#142,#143));
#105=EDGE_LOOP('',(#144,#145,#146,#147));
#106=EDGE_LOOP('',(#148,#149,#150,#151));
#107=EDGE_LOOP('',(#152,#153,#154,#155));
#108=EDGE_LOOP('',(#156,#157,#158,#159));
#109=EDGE_LOOP('',(#160,#161,#162,#163));
#110=EDGE_LOOP('',(#164,#165,#166,#167));
#111=EDGE_LOOP('',(#168,#169,#170,#171));
#112=EDGE_LOOP('',(#172,#173,#174,#175));
#113=EDGE_LOOP('',(#176,#177));
#114=ORIENTED_EDGE('',*,*,#196,.T.);
#115=ORIENTED_EDGE('',*,*,#197,.T.);
#116=ORIENTED_EDGE('',*,*,#198,.F.);
#117=ORIENTED_EDGE('',*,*,#199,.T.);
#118=ORIENTED_EDGE('',*,*,#200,.F.);
#119=ORIENTED_EDGE('',*,*,#199,.F.);
#120=ORIENTED_EDGE('',*,*,#198,.T.);
#121=ORIENTED_EDGE('',*,*,#201,.T.);
#122=ORIENTED_EDGE('',*,*,#196,.F.);
#123=ORIENTED_EDGE('',*,*,#200,.T.);
#124=ORIENTED_EDGE('',*,*,#202,.T.);
#125=ORIENTED_EDGE('',*,*,#203,.T.);
#126=ORIENTED_EDGE('',*,*,#201,.F.);
#127=ORIENTED_EDGE('',*,*,#204,.F.);
#128=ORIENTED_EDGE('',*,*,#197,.F.);
#129=ORIENTED_EDGE('',*,*,#203,.F.);
#130=ORIENTED_EDGE('',*,*,#205,.T.);
#131=ORIENTED_EDGE('',*,*,#204,.T.);
#132=ORIENTED_EDGE('',*,*,#205,.F.);
#133=ORIENTED_EDGE('',*,*,#202,.F.);
#134=ORIENTED_EDGE('',*,*,#206,.F.);
#135=ORIENTED_EDGE('',*,*,#207,.F.);
#136=ORIENTED_EDGE('',*,*,#208,.T.);
#137=ORIENTED_EDGE('',*,*,#209,.T.);
#138=ORIENTED_EDGE('',*,*,#210,.F.);
#139=ORIENTED_EDGE('',*,*,#209,.F.);
#140=ORIENTED_EDGE('',*,*,#208,.F.);
#141=ORIENTED_EDGE('',*,*,#211,.F.);
#142=ORIENTED_EDGE('',*,*,#206,.T.);
#143=ORIENTED_EDGE('',*,*,#210,.T.);
#144=ORIENTED_EDGE('',*,*,#211,.T.);
#145=ORIENTED_EDGE('',*,*,#212,.T.);
#146=ORIENTED_EDGE('',*,*,#213,.T.);
#147=ORIENTED_EDGE('',*,*,#214,.F.);
#148=ORIENTED_EDGE('',*,*,#215,.T.);
#149=ORIENTED_EDGE('',*,*,#212,.F.);
#150=ORIENTED_EDGE('',*,*,#207,.T.);
#151=ORIENTED_EDGE('',*,*,#214,.T.);
#152=ORIENTED_EDGE('',*,*,#216,.F.);
#153=ORIENTED_EDGE('',*,*,#217,.T.);
#154=ORIENTED_EDGE('',*,*,#215,.F.);
#155=ORIENTED_EDGE('',*,*,#218,.F.);
#156=ORIENTED_EDGE('',*,*,#213,.F.);
#157=ORIENTED_EDGE('',*,*,#217,.F.);
#158=ORIENTED_EDGE('',*,*,#219,.F.);
#159=ORIENTED_EDGE('',*,*,#218,.T.);
#160=ORIENTED_EDGE('',*,*,#219,.T.);
#161=ORIENTED_EDGE('',*,*,#220,.T.);
#162=ORIENTED_EDGE('',*,*,#221,.T.);
#163=ORIENTED_EDGE('',*,*,#222,.F.);
#164=ORIENTED_EDGE('',*,*,#223,.T.);
#165=ORIENTED_EDGE('',*,*,#220,.F.);
#166=ORIENTED_EDGE('',*,*,#216,.T.);
#167=ORIENTED_EDGE('',*,*,#222,.T.);
#168=ORIENTED_EDGE('',*,*,#224,.T.);
#169=ORIENTED_EDGE('',*,*,#225,.T.);
#170=ORIENTED_EDGE('',*,*,#223,.F.);
#171=ORIENTED_EDGE('',*,*,#226,.F.);
#172=ORIENTED_EDGE('',*,*,#221,.F.);
#173=ORIENTED_EDGE('',*,*,#225,.F.);
#174=ORIENTED_EDGE('',*,*,#227,.T.);
#175=ORIENTED_EDGE('',*,*,#226,.T.);
#176=ORIENTED_EDGE('',*,*,#224,.F.);
#177=ORIENTED_EDGE('',*,*,#227,.F.);
#178=VERTEX_POINT('',#545);
#179=VERTEX_POINT('',#546);
#180=VERTEX_POINT('',#548);
#181=VERTEX_POINT('',#550);
#182=VERTEX_POINT('',#558);
#183=VERTEX_POINT('',#559);
#184=VERTEX_POINT('',#567);
#185=VERTEX_POINT('',#568);
#186=VERTEX_POINT('',#570);
#187=VERTEX_POINT('',#572);
#188=VERTEX_POINT('',#580);
#189=VERTEX_POINT('',#582);
#190=VERTEX_POINT('',#588);
#191=VERTEX_POINT('',#589);
#192=VERTEX_POINT('',#596);
#193=VERTEX_POINT('',#598);
#194=VERTEX_POINT('',#604);
#195=VERTEX_POINT('',#605);
#196=EDGE_CURVE('',#178,#179,#288,.T.);
#197=EDGE_CURVE('',#179,#180,#229,.T.);
#198=EDGE_CURVE('',#181,#180,#289,.T.);
#199=EDGE_CURVE('',#181,#178,#230,.T.);
#200=EDGE_CURVE('',#178,#181,#231,.T.);
#201=EDGE_CURVE('',#180,#179,#232,.T.);
#202=EDGE_CURVE('',#182,#183,#233,.T.);
#203=EDGE_CURVE('',#183,#179,#234,.T.);
#204=EDGE_CURVE('',#182,#180,#235,.T.);
#205=EDGE_CURVE('',#183,#182,#236,.T.);
#206=EDGE_CURVE('',#184,#185,#290,.T.);
#207=EDGE_CURVE('',#186,#184,#237,.T.);
#208=EDGE_CURVE('',#186,#187,#291,.T.);
#209=EDGE_CURVE('',#187,#185,#238,.T.);
#210=EDGE_CURVE('',#185,#187,#239,.T.);
#211=EDGE_CURVE('',#184,#186,#240,.T.);
#212=EDGE_CURVE('',#186,#188,#292,.T.);
#213=EDGE_CURVE('',#188,#189,#241,.T.);
#214=EDGE_CURVE('',#184,#189,#293,.T.);
#215=EDGE_CURVE('',#189,#188,#242,.T.);
#216=EDGE_CURVE('',#190,#191,#243,.T.);
#217=EDGE_CURVE('',#190,#188,#294,.T.);
#218=EDGE_CURVE('',#191,#189,#295,.T.);
#219=EDGE_CURVE('',#191,#190,#244,.T.);
#220=EDGE_CURVE('',#190,#192,#296,.T.);
#221=EDGE_CURVE('',#192,#193,#245,.T.);
#222=EDGE_CURVE('',#191,#193,#297,.T.);
#223=EDGE_CURVE('',#193,#192,#246,.T.);
#224=EDGE_CURVE('',#194,#195,#247,.T.);
#225=EDGE_CURVE('',#195,#192,#298,.T.);
#226=EDGE_CURVE('',#194,#193,#299,.T.);
#227=EDGE_CURVE('',#195,#194,#248,.T.);
#228=CIRCLE('',#362,1.);
#229=CIRCLE('',#373,6.);
#230=CIRCLE('',#374,6.);
#231=CIRCLE('',#376,6.);
#232=CIRCLE('',#378,6.);
#233=CIRCLE('',#380,5.);
#234=CIRCLE('',#381,1.);
#235=CIRCLE('',#382,1.);
#236=CIRCLE('',#384,5.);
#237=CIRCLE('',#387,5.85);
#238=CIRCLE('',#388,6.);
#239=CIRCLE('',#390,6.);
#240=CIRCLE('',#392,5.85);
#241=CIRCLE('',#394,5.85);
#242=CIRCLE('',#396,5.85);
#243=CIRCLE('',#398,6.);
#244=CIRCLE('',#400,6.);
#245=CIRCLE('',#402,6.);
#246=CIRCLE('',#404,6.);
#247=CIRCLE('',#406,5.5);
#248=CIRCLE('',#408,5.5);
#249=CURVE_STYLE('',#264,POSITIVE_LENGTH_MEASURE(0.18),#356);
#250=CURVE_STYLE('',#265,POSITIVE_LENGTH_MEASURE(0.18),#356);
#251=CURVE_STYLE('',#266,POSITIVE_LENGTH_MEASURE(0.18),#356);
#252=CURVE_STYLE('',#267,POSITIVE_LENGTH_MEASURE(0.18),#356);
#253=CURVE_STYLE('',#268,POSITIVE_LENGTH_MEASURE(0.18),#356);
#254=CURVE_STYLE('',#269,POSITIVE_LENGTH_MEASURE(0.13),#357);
#255=CURVE_STYLE('',#270,POSITIVE_LENGTH_MEASURE(0.13),#357);
#256=CURVE_STYLE('',#271,POSITIVE_LENGTH_MEASURE(0.13),#358);
#257=CURVE_STYLE('',#272,POSITIVE_LENGTH_MEASURE(0.13),#358);
#258=CURVE_STYLE('',#273,POSITIVE_LENGTH_MEASURE(0.13),#357);
#259=CURVE_STYLE('',#274,POSITIVE_LENGTH_MEASURE(0.13),#357);
#260=CURVE_STYLE('',#275,POSITIVE_LENGTH_MEASURE(0.13),#358);
#261=CURVE_STYLE('',#276,POSITIVE_LENGTH_MEASURE(0.13),#357);
#262=CURVE_STYLE('',#277,POSITIVE_LENGTH_MEASURE(0.13),#357);
#263=CURVE_STYLE('',#278,POSITIVE_LENGTH_MEASURE(0.13),#357);
#264=DRAUGHTING_PRE_DEFINED_CURVE_FONT('continuous');
#265=DRAUGHTING_PRE_DEFINED_CURVE_FONT('continuous');
#266=DRAUGHTING_PRE_DEFINED_CURVE_FONT('continuous');
#267=DRAUGHTING_PRE_DEFINED_CURVE_FONT('continuous');
#268=DRAUGHTING_PRE_DEFINED_CURVE_FONT('continuous');
#269=DRAUGHTING_PRE_DEFINED_CURVE_FONT('continuous');
#270=DRAUGHTING_PRE_DEFINED_CURVE_FONT('continuous');
#271=DRAUGHTING_PRE_DEFINED_CURVE_FONT('continuous');
#272=DRAUGHTING_PRE_DEFINED_CURVE_FONT('continuous');
#273=DRAUGHTING_PRE_DEFINED_CURVE_FONT('continuous');
#274=DRAUGHTING_PRE_DEFINED_CURVE_FONT('continuous');
#275=DRAUGHTING_PRE_DEFINED_CURVE_FONT('continuous');
#276=DRAUGHTING_PRE_DEFINED_CURVE_FONT('continuous');
#277=DRAUGHTING_PRE_DEFINED_CURVE_FONT('continuous');
#278=DRAUGHTING_PRE_DEFINED_CURVE_FONT('continuous');
#279=TRIMMED_CURVE('',#284,(PARAMETER_VALUE(0.)),(PARAMETER_VALUE(1.)),
 .T.,.PARAMETER.);
#280=TRIMMED_CURVE('',#285,(PARAMETER_VALUE(0.)),(PARAMETER_VALUE(1.)),
 .T.,.PARAMETER.);
#281=TRIMMED_CURVE('',#286,(PARAMETER_VALUE(0.)),(PARAMETER_VALUE(1.)),
 .T.,.PARAMETER.);
#282=TRIMMED_CURVE('',#287,(PARAMETER_VALUE(0.)),(PARAMETER_VALUE(1.)),
 .T.,.PARAMETER.);
#283=TRIMMED_CURVE('',#228,(PARAMETER_VALUE(0.)),(PARAMETER_VALUE(90.)),
 .T.,.PARAMETER.);
#284=LINE('',#529,#300);
#285=LINE('',#530,#301);
#286=LINE('',#531,#302);
#287=LINE('',#532,#303);
#288=LINE('',#544,#304);
#289=LINE('',#549,#305);
#290=LINE('',#566,#306);
#291=LINE('',#571,#307);
#292=LINE('',#579,#308);
#293=LINE('',#583,#309);
#294=LINE('',#590,#310);
#295=LINE('',#591,#311);
#296=LINE('',#595,#312);
#297=LINE('',#599,#313);
#298=LINE('',#606,#314);
#299=LINE('',#607,#315);
#300=VECTOR('',#413,5.);
#301=VECTOR('',#414,17.);
#302=VECTOR('',#415,6.);
#303=VECTOR('',#416,18.);
#304=VECTOR('',#439,1.);
#305=VECTOR('',#442,1.);
#306=VECTOR('',#469,1.);
#307=VECTOR('',#472,1.);
#308=VECTOR('',#485,1.);
#309=VECTOR('',#488,1.);
#310=VECTOR('',#497,1.);
#311=VECTOR('',#498,1.);
#312=VECTOR('',#505,1.);
#313=VECTOR('',#508,1.);
#314=VECTOR('',#517,1.);
#315=VECTOR('',#518,1.);
#316=PRESENTATION_LAYER_ASSIGNMENT('1','Layer 1',(#528,#279,#280,#281,#282,
#283,#363,#364,#367,#368,#369,#370,#371,#372,#44,#45));
#317=PRESENTATION_LAYER_ASSIGNMENT('2','Layer 2',(#365,#366));
#318=STYLED_ITEM('',(#336),#528);
#319=STYLED_ITEM('',(#337),#279);
#320=STYLED_ITEM('',(#338),#280);
#321=STYLED_ITEM('',(#339),#281);
#322=STYLED_ITEM('',(#340),#282);
#323=STYLED_ITEM('',(#341),#283);
#324=STYLED_ITEM('',(#342),#363);
#325=STYLED_ITEM('',(#343),#364);
#326=STYLED_ITEM('',(#344),#365);
#327=STYLED_ITEM('',(#345),#366);
#328=STYLED_ITEM('',(#346),#367);
#329=STYLED_ITEM('',(#347),#368);
#330=STYLED_ITEM('',(#348),#369);
#331=STYLED_ITEM('',(#349),#370);
#332=STYLED_ITEM('',(#350),#371);
#333=STYLED_ITEM('',(#351),#372);
#334=STYLED_ITEM('',(#352),#44);
#335=STYLED_ITEM('',(#353),#45);
#336=PRESENTATION_STYLE_ASSIGNMENT((#354));
#337=PRESENTATION_STYLE_ASSIGNMENT((#249));
#338=PRESENTATION_STYLE_ASSIGNMENT((#250));
#339=PRESENTATION_STYLE_ASSIGNMENT((#251));
#340=PRESENTATION_STYLE_ASSIGNMENT((#252));
#341=PRESENTATION_STYLE_ASSIGNMENT((#253));
#342=PRESENTATION_STYLE_ASSIGNMENT((#254));
#343=PRESENTATION_STYLE_ASSIGNMENT((#255));
#344=PRESENTATION_STYLE_ASSIGNMENT((#256));
#345=PRESENTATION_STYLE_ASSIGNMENT((#257));
#346=PRESENTATION_STYLE_ASSIGNMENT((#258));
#347=PRESENTATION_STYLE_ASSIGNMENT((#259));
#348=PRESENTATION_STYLE_ASSIGNMENT((#260));
#349=PRESENTATION_STYLE_ASSIGNMENT((#261));
#350=PRESENTATION_STYLE_ASSIGNMENT((#262));
#351=PRESENTATION_STYLE_ASSIGNMENT((#263));
#352=PRESENTATION_STYLE_ASSIGNMENT((#34));
#353=PRESENTATION_STYLE_ASSIGNMENT((#35));
#354=POINT_STYLE('',#355,POSITIVE_LENGTH_MEASURE(3.),#356);
#355=PRE_DEFINED_POINT_MARKER_SYMBOL('plus');
#356=COLOUR_RGB('Medium Royal',0.2,0.4,0.8);
#357=COLOUR_RGB('Strong Stone',0.576470588235294,0.54508278019379,0.392156862745098);
#358=COLOUR_RGB('Medium Umber',0.372533760585946,0.313725490196078,0.270572976272221);
#359=COLOUR_RGB('cutting part',0.8,0.8,0.8);
#360=COLOUR_RGB('non-cutting part and shank',0.501960784313725,0.501960784313725,
0.501960784313725);
#361=AXIS2_PLACEMENT_3D('',#527,#411,#412);
#362=AXIS2_PLACEMENT_3D('',#533,#417,#418);
#363=AXIS2_PLACEMENT_3D('',#534,#419,#420);
#364=AXIS2_PLACEMENT_3D('',#535,#421,#422);
#365=AXIS2_PLACEMENT_3D('CIP',#536,#423,#424);
#366=AXIS2_PLACEMENT_3D('PCS',#537,#425,#426);
#367=AXIS2_PLACEMENT_3D('MCS',#538,#427,#428);
#368=AXIS2_PLACEMENT_3D('',#539,#429,#430);
#369=AXIS2_PLACEMENT_3D('STEP_TEMP_EM23_1',#540,#431,#432);
#370=AXIS2_PLACEMENT_3D('',#541,#433,#434);
#371=AXIS2_PLACEMENT_3D('',#542,#435,#436);
#372=AXIS2_PLACEMENT_3D('',#543,#437,#438);
#373=AXIS2_PLACEMENT_3D('',#547,#440,#441);
#374=AXIS2_PLACEMENT_3D('',#551,#443,#444);
#375=AXIS2_PLACEMENT_3D('',#552,#445,#446);
#376=AXIS2_PLACEMENT_3D('',#553,#447,#448);
#377=AXIS2_PLACEMENT_3D('',#554,#449,#450);
#378=AXIS2_PLACEMENT_3D('',#555,#451,#452);
#379=AXIS2_PLACEMENT_3D('',#556,#453,#454);
#380=AXIS2_PLACEMENT_3D('',#557,#455,#456);
#381=AXIS2_PLACEMENT_3D('',#560,#457,#458);
#382=AXIS2_PLACEMENT_3D('',#561,#459,#460);
#383=AXIS2_PLACEMENT_3D('',#562,#461,#462);
#384=AXIS2_PLACEMENT_3D('',#563,#463,#464);
#385=AXIS2_PLACEMENT_3D('',#564,#465,#466);
#386=AXIS2_PLACEMENT_3D('',#565,#467,#468);
#387=AXIS2_PLACEMENT_3D('',#569,#470,#471);
#388=AXIS2_PLACEMENT_3D('',#573,#473,#474);
#389=AXIS2_PLACEMENT_3D('',#574,#475,#476);
#390=AXIS2_PLACEMENT_3D('',#575,#477,#478);
#391=AXIS2_PLACEMENT_3D('',#576,#479,#480);
#392=AXIS2_PLACEMENT_3D('',#577,#481,#482);
#393=AXIS2_PLACEMENT_3D('',#578,#483,#484);
#394=AXIS2_PLACEMENT_3D('',#581,#486,#487);
#395=AXIS2_PLACEMENT_3D('',#584,#489,#490);
#396=AXIS2_PLACEMENT_3D('',#585,#491,#492);
#397=AXIS2_PLACEMENT_3D('',#586,#493,#494);
#398=AXIS2_PLACEMENT_3D('',#587,#495,#496);
#399=AXIS2_PLACEMENT_3D('',#592,#499,#500);
#400=AXIS2_PLACEMENT_3D('',#593,#501,#502);
#401=AXIS2_PLACEMENT_3D('',#594,#503,#504);
#402=AXIS2_PLACEMENT_3D('',#597,#506,#507);
#403=AXIS2_PLACEMENT_3D('',#600,#509,#510);
#404=AXIS2_PLACEMENT_3D('',#601,#511,#512);
#405=AXIS2_PLACEMENT_3D('',#602,#513,#514);
#406=AXIS2_PLACEMENT_3D('',#603,#515,#516);
#407=AXIS2_PLACEMENT_3D('',#608,#519,#520);
#408=AXIS2_PLACEMENT_3D('',#609,#521,#522);
#409=AXIS2_PLACEMENT_3D('',#610,#523,#524);
#410=AXIS2_PLACEMENT_3D('',#611,#525,#526);
#411=DIRECTION('',(0.,0.,1.));
#412=DIRECTION('',(1.,0.,0.));
#413=DIRECTION('',(-1.,0.,0.));
#414=DIRECTION('',(0.,0.,1.));
#415=DIRECTION('',(1.,0.,0.));
#416=DIRECTION('',(0.,0.,-1.));
#417=DIRECTION('',(0.,1.,0.));
#418=DIRECTION('',(0.,0.,-1.));
#419=DIRECTION('',(0.,0.,1.));
#420=DIRECTION('',(1.,0.,0.));
#421=DIRECTION('',(0.,0.,1.));
#422=DIRECTION('',(1.,0.,0.));
#423=DIRECTION('',(0.,0.,1.));
#424=DIRECTION('',(1.,0.,0.));
#425=DIRECTION('',(0.,0.,1.));
#426=DIRECTION('',(1.,0.,0.));
#427=DIRECTION('',(0.,0.,1.));
#428=DIRECTION('',(1.,0.,0.));
#429=DIRECTION('',(0.,0.,1.));
#430=DIRECTION('',(1.,0.,0.));
#431=DIRECTION('',(0.,0.,1.));
#432=DIRECTION('',(1.,0.,0.));
#433=DIRECTION('',(0.,0.,1.));
#434=DIRECTION('',(1.,0.,0.));
#435=DIRECTION('',(0.,0.,1.));
#436=DIRECTION('',(1.,0.,0.));
#437=DIRECTION('',(0.,0.,1.));
#438=DIRECTION('',(1.,0.,0.));
#439=DIRECTION('',(0.,0.,-1.));
#440=DIRECTION('',(0.,0.,1.));
#441=DIRECTION('',(0.,-1.,0.));
#442=DIRECTION('',(0.,0.,-1.));
#443=DIRECTION('',(0.,0.,-1.));
#444=DIRECTION('',(0.,1.,0.));
#445=DIRECTION('',(0.,0.,-1.));
#446=DIRECTION('',(0.,1.,0.));
#447=DIRECTION('',(0.,0.,-1.));
#448=DIRECTION('',(0.,-1.,0.));
#449=DIRECTION('',(0.,0.,-1.));
#450=DIRECTION('',(1.,0.,0.));
#451=DIRECTION('',(0.,0.,1.));
#452=DIRECTION('',(0.,1.,0.));
#453=DIRECTION('',(0.,0.,-1.));
#454=DIRECTION('',(0.,1.,0.));
#455=DIRECTION('',(0.,0.,1.));
#456=DIRECTION('',(0.,1.,0.));
#457=DIRECTION('',(-1.,0.,0.));
#458=DIRECTION('',(0.,-1.,0.));
#459=DIRECTION('',(1.,0.,0.));
#460=DIRECTION('',(0.,1.,0.));
#461=DIRECTION('',(0.,0.,-1.));
#462=DIRECTION('',(0.,1.,0.));
#463=DIRECTION('',(0.,0.,1.));
#464=DIRECTION('',(0.,-1.,0.));
#465=DIRECTION('',(0.,0.,-1.));
#466=DIRECTION('',(0.,1.,0.));
#467=DIRECTION('',(0.,0.,-1.));
#468=DIRECTION('',(0.,1.,0.));
#469=DIRECTION('',(0.,0.707106781186247,-0.707106781186848));
#470=DIRECTION('',(0.,0.,1.));
#471=DIRECTION('',(0.,-1.,0.));
#472=DIRECTION('',(0.,-0.707106781186298,-0.707106781186798));
#473=DIRECTION('',(0.,0.,1.));
#474=DIRECTION('',(0.,-1.,0.));
#475=DIRECTION('',(0.,0.,-1.));
#476=DIRECTION('',(0.,1.,-4.82861618186258E-17));
#477=DIRECTION('',(0.,0.,1.));
#478=DIRECTION('',(0.,1.,0.));
#479=DIRECTION('',(0.,0.,1.));
#480=DIRECTION('',(-1.,0.,0.));
#481=DIRECTION('',(0.,0.,1.));
#482=DIRECTION('',(0.,1.,0.));
#483=DIRECTION('',(0.,0.,-1.));
#484=DIRECTION('',(0.,1.,-4.82861618186258E-17));
#485=DIRECTION('',(0.,0.,1.));
#486=DIRECTION('',(0.,0.,-1.));
#487=DIRECTION('',(0.,-1.,0.));
#488=DIRECTION('',(0.,0.,1.));
#489=DIRECTION('',(0.,0.,-1.));
#490=DIRECTION('',(0.,1.,0.));
#491=DIRECTION('',(0.,0.,-1.));
#492=DIRECTION('',(0.,1.,0.));
#493=DIRECTION('',(0.,0.,-1.));
#494=DIRECTION('',(0.,1.,0.));
#495=DIRECTION('',(0.,0.,1.));
#496=DIRECTION('',(0.,-1.,0.));
#497=DIRECTION('',(0.,0.707106781186697,-0.707106781186397));
#498=DIRECTION('',(0.,-0.707106781186697,-0.707106781186397));
#499=DIRECTION('',(0.,0.,1.));
#500=DIRECTION('',(0.,-1.,-1.37960462338596E-17));
#501=DIRECTION('',(0.,0.,1.));
#502=DIRECTION('',(0.,1.,0.));
#503=DIRECTION('',(0.,0.,1.));
#504=DIRECTION('',(0.,-1.,-1.37960462338596E-17));
#505=DIRECTION('',(0.,0.,1.));
#506=DIRECTION('',(0.,0.,-1.));
#507=DIRECTION('',(0.,-1.,0.));
#508=DIRECTION('',(0.,0.,1.));
#509=DIRECTION('',(0.,0.,-1.));
#510=DIRECTION('',(0.,1.,0.));
#511=DIRECTION('',(0.,0.,-1.));
#512=DIRECTION('',(0.,1.,0.));
#513=DIRECTION('',(0.,0.,-1.));
#514=DIRECTION('',(0.,1.,0.));
#515=DIRECTION('',(0.,0.,-1.));
#516=DIRECTION('',(0.,1.,0.));
#517=DIRECTION('',(0.,-0.707106781186547,-0.707106781186547));
#518=DIRECTION('',(0.,0.707106781186547,-0.707106781186547));
#519=DIRECTION('',(0.,0.,-1.));
#520=DIRECTION('',(0.,1.,1.37984467390648E-17));
#521=DIRECTION('',(0.,0.,-1.));
#522=DIRECTION('',(0.,-1.,0.));
#523=DIRECTION('',(0.,0.,-1.));
#524=DIRECTION('',(0.,1.,1.37984467390648E-17));
#525=DIRECTION('',(0.,0.,-1.));
#526=DIRECTION('',(0.,1.,0.));
#527=CARTESIAN_POINT('',(0.,0.,0.));
#528=CARTESIAN_POINT('CRP',(-6.,0.,0.));
#529=CARTESIAN_POINT('',(0.,0.,0.));
#530=CARTESIAN_POINT('',(-6.,0.,1.));
#531=CARTESIAN_POINT('',(-6.,0.,18.));
#532=CARTESIAN_POINT('',(0.,0.,18.));
#533=CARTESIAN_POINT('',(-5.,0.,1.));
#534=CARTESIAN_POINT('',(0.,0.,0.));
#535=CARTESIAN_POINT('',(0.,0.,0.));
#536=CARTESIAN_POINT('',(0.,0.,0.));
#537=CARTESIAN_POINT('',(0.,0.,110.));
#538=CARTESIAN_POINT('',(0.,0.,80.));
#539=CARTESIAN_POINT('',(0.,0.,0.));
#540=CARTESIAN_POINT('',(0.,0.,0.));
#541=CARTESIAN_POINT('',(0.,0.,0.));
#542=CARTESIAN_POINT('',(0.,0.,0.));
#543=CARTESIAN_POINT('',(0.,0.,0.));
#544=CARTESIAN_POINT('',(0.,-6.,18.));
#545=CARTESIAN_POINT('',(0.,-6.,18.));
#546=CARTESIAN_POINT('',(0.,-6.,1.));
#547=CARTESIAN_POINT('',(0.,-2.001122325741E-14,1.));
#548=CARTESIAN_POINT('',(0.,6.,1.));
#549=CARTESIAN_POINT('',(0.,6.,18.));
#550=CARTESIAN_POINT('',(0.,6.,18.));
#551=CARTESIAN_POINT('',(0.,0.,18.));
#552=CARTESIAN_POINT('',(0.,0.,115.5));
#553=CARTESIAN_POINT('',(0.,0.,18.));
#554=CARTESIAN_POINT('',(150.,150.,18.));
#555=CARTESIAN_POINT('',(0.,-2.001122325741E-14,1.));
#556=CARTESIAN_POINT('',(0.,0.,115.5));
#557=CARTESIAN_POINT('',(0.,-2.001122325741E-14,0.));
#558=CARTESIAN_POINT('',(0.,5.,0.));
#559=CARTESIAN_POINT('',(0.,-5.,0.));
#560=CARTESIAN_POINT('',(0.,-5.,1.));
#561=CARTESIAN_POINT('',(0.,5.,1.));
#562=CARTESIAN_POINT('',(0.,-2.001122325741E-14,1.));
#563=CARTESIAN_POINT('',(0.,-2.001122325741E-14,0.));
#564=CARTESIAN_POINT('',(0.,-2.001122325741E-14,1.));
#565=CARTESIAN_POINT('',(0.,-2.019492027728E-14,0.));
#566=CARTESIAN_POINT('',(0.,5.85,18.15));
#567=CARTESIAN_POINT('',(0.,5.85,18.15));
#568=CARTESIAN_POINT('',(0.,6.,18.));
#569=CARTESIAN_POINT('',(0.,-1.68745966431E-14,18.15));
#570=CARTESIAN_POINT('',(0.,-5.85,18.15));
#571=CARTESIAN_POINT('',(0.,-5.85,18.15));
#572=CARTESIAN_POINT('',(0.,-6.,18.));
#573=CARTESIAN_POINT('',(0.,-1.68745966431E-14,18.));
#574=CARTESIAN_POINT('',(0.,-1.68745966431E-14,18.075));
#575=CARTESIAN_POINT('',(0.,-1.68745966431E-14,18.));
#576=CARTESIAN_POINT('',(-150.,150.,18.));
#577=CARTESIAN_POINT('',(0.,-1.68745966431E-14,18.15));
#578=CARTESIAN_POINT('',(0.,-1.68745966431E-14,18.075));
#579=CARTESIAN_POINT('',(0.,-5.85,35.85));
#580=CARTESIAN_POINT('',(0.,-5.85,35.85));
#581=CARTESIAN_POINT('',(0.,-1.359560483838E-14,35.85));
#582=CARTESIAN_POINT('',(0.,5.85,35.85));
#583=CARTESIAN_POINT('',(0.,5.85,35.85));
#584=CARTESIAN_POINT('',(0.,0.,115.5));
#585=CARTESIAN_POINT('',(0.,-1.359560483838E-14,35.85));
#586=CARTESIAN_POINT('',(0.,0.,115.5));
#587=CARTESIAN_POINT('',(0.,-1.359560483838E-14,36.));
#588=CARTESIAN_POINT('',(0.,-6.,36.));
#589=CARTESIAN_POINT('',(0.,6.,36.));
#590=CARTESIAN_POINT('',(0.,-6.,36.));
#591=CARTESIAN_POINT('',(0.,6.,36.));
#592=CARTESIAN_POINT('',(0.,-1.359560483838E-14,35.925));
#593=CARTESIAN_POINT('',(0.,-1.359560483838E-14,36.));
#594=CARTESIAN_POINT('',(0.,-1.359560483838E-14,35.925));
#595=CARTESIAN_POINT('',(0.,-6.,109.5));
#596=CARTESIAN_POINT('',(0.,-6.,109.5));
#597=CARTESIAN_POINT('',(0.,0.,109.5));
#598=CARTESIAN_POINT('',(0.,6.,109.5));
#599=CARTESIAN_POINT('',(0.,6.,109.5));
#600=CARTESIAN_POINT('',(0.,0.,115.5));
#601=CARTESIAN_POINT('',(0.,0.,109.5));
#602=CARTESIAN_POINT('',(0.,0.,115.5));
#603=CARTESIAN_POINT('',(0.,0.,110.));
#604=CARTESIAN_POINT('',(0.,5.5,110.));
#605=CARTESIAN_POINT('',(0.,-5.5,110.));
#606=CARTESIAN_POINT('',(0.,-5.5,110.));
#607=CARTESIAN_POINT('',(0.,5.5,110.));
#608=CARTESIAN_POINT('',(0.,0.,109.75));
#609=CARTESIAN_POINT('',(0.,0.,110.));
#610=CARTESIAN_POINT('',(0.,0.,109.75));
#611=CARTESIAN_POINT('',(0.,0.,110.));
#612=MECHANICAL_DESIGN_GEOMETRIC_PRESENTATION_REPRESENTATION('',(#318,#319,
#320,#321,#322,#323,#324,#325,#326,#327,#328,#329,#330,#331,#332,#333,#334,
#335),#613);
#613=(
GEOMETRIC_REPRESENTATION_CONTEXT(3)
GLOBAL_UNCERTAINTY_ASSIGNED_CONTEXT((#614))
GLOBAL_UNIT_ASSIGNED_CONTEXT((#620,#616,#615))
REPRESENTATION_CONTEXT('VFRPSRBD1200R100N360','TOP_LEVEL_ASSEMBLY_PART')
);
#614=UNCERTAINTY_MEASURE_WITH_UNIT(LENGTH_MEASURE(2.E-5),#620,
'DISTANCE_ACCURACY_VALUE','Maximum Tolerance applied to model');
#615=(
NAMED_UNIT(*)
SI_UNIT($,.STERADIAN.)
SOLID_ANGLE_UNIT()
);
#616=(
CONVERSION_BASED_UNIT('DEGREE',#618)
NAMED_UNIT(#617)
PLANE_ANGLE_UNIT()
);
#617=DIMENSIONAL_EXPONENTS(0.,0.,0.,0.,0.,0.,0.);
#618=PLANE_ANGLE_MEASURE_WITH_UNIT(PLANE_ANGLE_MEASURE(0.0174532925),#619);
#619=(
NAMED_UNIT(*)
PLANE_ANGLE_UNIT()
SI_UNIT($,.RADIAN.)
);
#620=(
LENGTH_UNIT()
NAMED_UNIT(*)
SI_UNIT(.MILLI.,.METRE.)
);
ENDSEC;
END-ISO-10303-21;
