ISO-10303-21;
HEADER;
/* Generated by software containing ST-Developer
 * from STEP Tools, Inc. (www.steptools.com) 
 */
/* OPTION: using custom schema-name function */

FILE_DESCRIPTION(
/* description */ (''),
/* implementation_level */ '2;1');

FILE_NAME(
/* name */ 'VQT6URR030R075S10.stp',
/* time_stamp */ '2023-03-17T09:17:47+09:00',
/* author */ (''),
/* organization */ (''),
/* preprocessor_version */ 'ST-DEVELOPER v16',
/* originating_system */ 'SIEMENS PLM Software NX 10.0',
/* authorisation */ '');

FILE_SCHEMA (('AUTOMOTIVE_DESIGN { 1 0 10303 214 3 1 1 1 }'));
ENDSEC;

DATA;
#10=CONSTRUCTIVE_GEOMETRY_REPRESENTATION_RELATIONSHIP(
'supplemental geometry','',#26,#11);
#11=CONSTRUCTIVE_GEOMETRY_REPRESENTATION('supplemental geometry',(#292,
#293,#294,#295,#296,#297,#298,#299,#300,#301),#538);
#12=GEOMETRICALLY_BOUNDED_WIREFRAME_SHAPE_REPRESENTATION(
'VQT6URR030R075S10-None',(#27),#538);
#13=SHAPE_REPRESENTATION_RELATIONSHIP('None',
'relationship between VQT6URR030R075S10-None and VQT6URR030R075S10-Non
e',#26,#15);
#14=SHAPE_REPRESENTATION_RELATIONSHIP('None',
'relationship between VQT6URR030R075S10-None and VQT6URR030R075S10-Non
e',#26,#12);
#15=ADVANCED_BREP_SHAPE_REPRESENTATION('VQT6URR030R075S10-None',(#40,#41),
#538);
#16=SHAPE_DEFINITION_REPRESENTATION(#17,#26);
#17=PRODUCT_DEFINITION_SHAPE('','SHAPE FOR VQT6URR030R075S10_ASM.',#18);
#18=PRODUCT_DEFINITION('part definition','',#20,#19);
#19=PRODUCT_DEFINITION_CONTEXT('part definition',#25,'design');
#20=PRODUCT_DEFINITION_FORMATION_WITH_SPECIFIED_SOURCE(' ',' ',#22,
 .NOT_KNOWN.);
#21=PRODUCT_RELATED_PRODUCT_CATEGORY('part','',(#22));
#22=PRODUCT('VQT6URR030R075S10_ASM','VQT6URR030R075S10_ASM',
'NOT SPECIFIED',(#23));
#23=PRODUCT_CONTEXT('',#25,'mechanical');
#24=APPLICATION_PROTOCOL_DEFINITION('international standard',
'automotive_design',2010,#25);
#25=APPLICATION_CONTEXT(
'core data for automotive mechanical design processes');
#26=SHAPE_REPRESENTATION('VQT6URR030R075S10-None',(#289),#538);
#27=GEOMETRIC_CURVE_SET('None',(#419,#221,#222,#223,#224,#225));
#28=CONICAL_SURFACE('',#325,4.75,45.);
#29=CONICAL_SURFACE('',#327,4.75,45.);
#30=SURFACE_STYLE_USAGE(.BOTH.,#32);
#31=SURFACE_STYLE_USAGE(.BOTH.,#33);
#32=SURFACE_SIDE_STYLE('',(#34));
#33=SURFACE_SIDE_STYLE('',(#35));
#34=SURFACE_STYLE_FILL_AREA(#36);
#35=SURFACE_STYLE_FILL_AREA(#37);
#36=FILL_AREA_STYLE('',(#38));
#37=FILL_AREA_STYLE('',(#39));
#38=FILL_AREA_STYLE_COLOUR('',#287);
#39=FILL_AREA_STYLE_COLOUR('',#288);
#40=MANIFOLD_SOLID_BREP('CUT',#42);
#41=MANIFOLD_SOLID_BREP('NOCUT',#43);
#42=CLOSED_SHELL('',(#51,#52,#53,#54,#55,#56,#57));
#43=CLOSED_SHELL('',(#58,#59,#60,#61,#62,#63));
#44=SPHERICAL_SURFACE('',#315,3.);
#45=SPHERICAL_SURFACE('',#316,3.);
#46=(
BOUNDED_SURFACE()
B_SPLINE_SURFACE(3,3,((#453,#454,#455,#456,#457,#458,#459),(#460,#461,#462,
#463,#464,#465,#466),(#467,#468,#469,#470,#471,#472,#473),(#474,#475,#476,
#477,#478,#479,#480)),.UNSPECIFIED.,.F.,.F.,.F.)
B_SPLINE_SURFACE_WITH_KNOTS((4,4),(4,3,4),(0.,1.),(0.,0.5,1.),
 .UNSPECIFIED.)
GEOMETRIC_REPRESENTATION_ITEM()
RATIONAL_B_SPLINE_SURFACE(((1.,0.80250419366286,0.80250419366286,1.,0.80250419366286,
0.80250419366286,1.),(0.995298313693397,0.798731070684524,0.798731070684524,
0.995298313693397,0.798731070684524,0.798731070684524,0.995298313693397),
(0.995298313693397,0.798731070684524,0.798731070684524,0.995298313693397,
0.798731070684524,0.798731070684524,0.995298313693397),(1.,0.80250419366286,
0.80250419366286,1.,0.80250419366286,0.80250419366286,1.)))
REPRESENTATION_ITEM('')
SURFACE()
);
#47=(
BOUNDED_SURFACE()
B_SPLINE_SURFACE(3,3,((#482,#483,#484,#485,#486,#487,#488),(#489,#490,#491,
#492,#493,#494,#495),(#496,#497,#498,#499,#500,#501,#502),(#503,#504,#505,
#506,#507,#508,#509)),.UNSPECIFIED.,.F.,.F.,.F.)
B_SPLINE_SURFACE_WITH_KNOTS((4,4),(4,3,4),(0.,1.),(0.,0.5,1.),
 .UNSPECIFIED.)
GEOMETRIC_REPRESENTATION_ITEM()
RATIONAL_B_SPLINE_SURFACE(((1.,0.802504193662885,0.802504193662885,1.,0.802504193662885,
0.802504193662885,1.),(0.995298313693402,0.798731070684553,0.798731070684553,
0.995298313693402,0.798731070684553,0.798731070684553,0.995298313693402),
(0.995298313693402,0.798731070684553,0.798731070684553,0.995298313693402,
0.798731070684553,0.798731070684553,0.995298313693402),(1.,0.802504193662885,
0.802504193662885,1.,0.802504193662885,0.802504193662885,1.)))
REPRESENTATION_ITEM('')
SURFACE()
);
#48=PLANE('',#306);
#49=PLANE('',#321);
#50=PLANE('',#328);
#51=ADVANCED_FACE('',(#68),#64,.T.);
#52=ADVANCED_FACE('',(#69),#48,.F.);
#53=ADVANCED_FACE('',(#70),#65,.T.);
#54=ADVANCED_FACE('',(#71),#46,.T.);
#55=ADVANCED_FACE('',(#72),#47,.T.);
#56=ADVANCED_FACE('',(#73),#44,.T.);
#57=ADVANCED_FACE('',(#74),#45,.T.);
#58=ADVANCED_FACE('',(#75),#66,.T.);
#59=ADVANCED_FACE('',(#76),#49,.F.);
#60=ADVANCED_FACE('',(#77),#67,.T.);
#61=ADVANCED_FACE('',(#78),#28,.T.);
#62=ADVANCED_FACE('',(#79),#29,.T.);
#63=ADVANCED_FACE('',(#80),#50,.F.);
#64=CYLINDRICAL_SURFACE('',#304,5.);
#65=CYLINDRICAL_SURFACE('',#308,5.);
#66=CYLINDRICAL_SURFACE('',#319,5.);
#67=CYLINDRICAL_SURFACE('',#323,5.);
#68=FACE_OUTER_BOUND('',#81,.T.);
#69=FACE_OUTER_BOUND('',#82,.T.);
#70=FACE_OUTER_BOUND('',#83,.T.);
#71=FACE_OUTER_BOUND('',#84,.T.);
#72=FACE_OUTER_BOUND('',#85,.T.);
#73=FACE_OUTER_BOUND('',#86,.T.);
#74=FACE_OUTER_BOUND('',#87,.T.);
#75=FACE_OUTER_BOUND('',#88,.T.);
#76=FACE_OUTER_BOUND('',#89,.T.);
#77=FACE_OUTER_BOUND('',#90,.T.);
#78=FACE_OUTER_BOUND('',#91,.T.);
#79=FACE_OUTER_BOUND('',#92,.T.);
#80=FACE_OUTER_BOUND('',#93,.T.);
#81=EDGE_LOOP('',(#94,#95,#96,#97));
#82=EDGE_LOOP('',(#98,#99));
#83=EDGE_LOOP('',(#100,#101,#102,#103));
#84=EDGE_LOOP('',(#104,#105,#106,#107));
#85=EDGE_LOOP('',(#108,#109,#110,#111));
#86=EDGE_LOOP('',(#112,#113,#114));
#87=EDGE_LOOP('',(#115,#116,#117));
#88=EDGE_LOOP('',(#118,#119,#120,#121));
#89=EDGE_LOOP('',(#122,#123));
#90=EDGE_LOOP('',(#124,#125,#126,#127));
#91=EDGE_LOOP('',(#128,#129,#130,#131));
#92=EDGE_LOOP('',(#132,#133,#134,#135));
#93=EDGE_LOOP('',(#136,#137));
#94=ORIENTED_EDGE('',*,*,#151,.T.);
#95=ORIENTED_EDGE('',*,*,#152,.T.);
#96=ORIENTED_EDGE('',*,*,#153,.F.);
#97=ORIENTED_EDGE('',*,*,#154,.T.);
#98=ORIENTED_EDGE('',*,*,#155,.F.);
#99=ORIENTED_EDGE('',*,*,#154,.F.);
#100=ORIENTED_EDGE('',*,*,#153,.T.);
#101=ORIENTED_EDGE('',*,*,#156,.T.);
#102=ORIENTED_EDGE('',*,*,#151,.F.);
#103=ORIENTED_EDGE('',*,*,#155,.T.);
#104=ORIENTED_EDGE('',*,*,#157,.F.);
#105=ORIENTED_EDGE('',*,*,#158,.T.);
#106=ORIENTED_EDGE('',*,*,#156,.F.);
#107=ORIENTED_EDGE('',*,*,#159,.F.);
#108=ORIENTED_EDGE('',*,*,#152,.F.);
#109=ORIENTED_EDGE('',*,*,#158,.F.);
#110=ORIENTED_EDGE('',*,*,#160,.F.);
#111=ORIENTED_EDGE('',*,*,#159,.T.);
#112=ORIENTED_EDGE('',*,*,#160,.T.);
#113=ORIENTED_EDGE('',*,*,#161,.T.);
#114=ORIENTED_EDGE('',*,*,#162,.F.);
#115=ORIENTED_EDGE('',*,*,#161,.F.);
#116=ORIENTED_EDGE('',*,*,#157,.T.);
#117=ORIENTED_EDGE('',*,*,#162,.T.);
#118=ORIENTED_EDGE('',*,*,#163,.F.);
#119=ORIENTED_EDGE('',*,*,#164,.T.);
#120=ORIENTED_EDGE('',*,*,#165,.T.);
#121=ORIENTED_EDGE('',*,*,#166,.T.);
#122=ORIENTED_EDGE('',*,*,#167,.F.);
#123=ORIENTED_EDGE('',*,*,#166,.F.);
#124=ORIENTED_EDGE('',*,*,#165,.F.);
#125=ORIENTED_EDGE('',*,*,#168,.T.);
#126=ORIENTED_EDGE('',*,*,#163,.T.);
#127=ORIENTED_EDGE('',*,*,#167,.T.);
#128=ORIENTED_EDGE('',*,*,#168,.F.);
#129=ORIENTED_EDGE('',*,*,#169,.T.);
#130=ORIENTED_EDGE('',*,*,#170,.T.);
#131=ORIENTED_EDGE('',*,*,#171,.F.);
#132=ORIENTED_EDGE('',*,*,#172,.T.);
#133=ORIENTED_EDGE('',*,*,#169,.F.);
#134=ORIENTED_EDGE('',*,*,#164,.F.);
#135=ORIENTED_EDGE('',*,*,#171,.T.);
#136=ORIENTED_EDGE('',*,*,#172,.F.);
#137=ORIENTED_EDGE('',*,*,#170,.F.);
#138=VERTEX_POINT('',#436);
#139=VERTEX_POINT('',#437);
#140=VERTEX_POINT('',#439);
#141=VERTEX_POINT('',#441);
#142=VERTEX_POINT('',#449);
#143=VERTEX_POINT('',#450);
#144=VERTEX_POINT('',#511);
#145=VERTEX_POINT('',#516);
#146=VERTEX_POINT('',#517);
#147=VERTEX_POINT('',#519);
#148=VERTEX_POINT('',#521);
#149=VERTEX_POINT('',#529);
#150=VERTEX_POINT('',#531);
#151=EDGE_CURVE('',#138,#139,#229,.T.);
#152=EDGE_CURVE('',#139,#140,#175,.T.);
#153=EDGE_CURVE('',#141,#140,#230,.T.);
#154=EDGE_CURVE('',#141,#138,#176,.T.);
#155=EDGE_CURVE('',#138,#141,#177,.T.);
#156=EDGE_CURVE('',#140,#139,#178,.T.);
#157=EDGE_CURVE('',#142,#143,#179,.T.);
#158=EDGE_CURVE('',#142,#139,#180,.T.);
#159=EDGE_CURVE('',#143,#140,#181,.T.);
#160=EDGE_CURVE('',#143,#142,#182,.T.);
#161=EDGE_CURVE('',#142,#144,#183,.T.);
#162=EDGE_CURVE('',#143,#144,#184,.T.);
#163=EDGE_CURVE('',#145,#146,#231,.T.);
#164=EDGE_CURVE('',#145,#147,#185,.T.);
#165=EDGE_CURVE('',#147,#148,#232,.T.);
#166=EDGE_CURVE('',#148,#146,#186,.T.);
#167=EDGE_CURVE('',#146,#148,#187,.T.);
#168=EDGE_CURVE('',#147,#145,#188,.T.);
#169=EDGE_CURVE('',#147,#149,#233,.T.);
#170=EDGE_CURVE('',#149,#150,#189,.T.);
#171=EDGE_CURVE('',#145,#150,#234,.T.);
#172=EDGE_CURVE('',#150,#149,#190,.T.);
#173=CIRCLE('',#290,3.);
#174=CIRCLE('',#291,75.);
#175=CIRCLE('',#302,5.);
#176=CIRCLE('',#303,5.);
#177=CIRCLE('',#305,5.);
#178=CIRCLE('',#307,5.);
#179=CIRCLE('',#309,2.916663400772);
#180=CIRCLE('',#310,75.00000000003);
#181=CIRCLE('',#311,75.00000000002);
#182=CIRCLE('',#312,2.916663400772);
#183=CIRCLE('',#313,3.);
#184=CIRCLE('',#314,3.);
#185=CIRCLE('',#317,5.);
#186=CIRCLE('',#318,5.);
#187=CIRCLE('',#320,5.);
#188=CIRCLE('',#322,5.);
#189=CIRCLE('',#324,4.5);
#190=CIRCLE('',#326,4.5);
#191=CURVE_STYLE('',#206,POSITIVE_LENGTH_MEASURE(0.18),#284);
#192=CURVE_STYLE('',#207,POSITIVE_LENGTH_MEASURE(0.18),#284);
#193=CURVE_STYLE('',#208,POSITIVE_LENGTH_MEASURE(0.18),#284);
#194=CURVE_STYLE('',#209,POSITIVE_LENGTH_MEASURE(0.18),#284);
#195=CURVE_STYLE('',#210,POSITIVE_LENGTH_MEASURE(0.18),#284);
#196=CURVE_STYLE('',#211,POSITIVE_LENGTH_MEASURE(0.13),#285);
#197=CURVE_STYLE('',#212,POSITIVE_LENGTH_MEASURE(0.13),#285);
#198=CURVE_STYLE('',#213,POSITIVE_LENGTH_MEASURE(0.13),#286);
#199=CURVE_STYLE('',#214,POSITIVE_LENGTH_MEASURE(0.13),#286);
#200=CURVE_STYLE('',#215,POSITIVE_LENGTH_MEASURE(0.13),#285);
#201=CURVE_STYLE('',#216,POSITIVE_LENGTH_MEASURE(0.13),#285);
#202=CURVE_STYLE('',#217,POSITIVE_LENGTH_MEASURE(0.13),#286);
#203=CURVE_STYLE('',#218,POSITIVE_LENGTH_MEASURE(0.13),#285);
#204=CURVE_STYLE('',#219,POSITIVE_LENGTH_MEASURE(0.13),#285);
#205=CURVE_STYLE('',#220,POSITIVE_LENGTH_MEASURE(0.13),#285);
#206=DRAUGHTING_PRE_DEFINED_CURVE_FONT('continuous');
#207=DRAUGHTING_PRE_DEFINED_CURVE_FONT('continuous');
#208=DRAUGHTING_PRE_DEFINED_CURVE_FONT('continuous');
#209=DRAUGHTING_PRE_DEFINED_CURVE_FONT('continuous');
#210=DRAUGHTING_PRE_DEFINED_CURVE_FONT('continuous');
#211=DRAUGHTING_PRE_DEFINED_CURVE_FONT('continuous');
#212=DRAUGHTING_PRE_DEFINED_CURVE_FONT('continuous');
#213=DRAUGHTING_PRE_DEFINED_CURVE_FONT('continuous');
#214=DRAUGHTING_PRE_DEFINED_CURVE_FONT('continuous');
#215=DRAUGHTING_PRE_DEFINED_CURVE_FONT('continuous');
#216=DRAUGHTING_PRE_DEFINED_CURVE_FONT('continuous');
#217=DRAUGHTING_PRE_DEFINED_CURVE_FONT('continuous');
#218=DRAUGHTING_PRE_DEFINED_CURVE_FONT('continuous');
#219=DRAUGHTING_PRE_DEFINED_CURVE_FONT('continuous');
#220=DRAUGHTING_PRE_DEFINED_CURVE_FONT('continuous');
#221=TRIMMED_CURVE('',#226,(PARAMETER_VALUE(0.)),(PARAMETER_VALUE(1.)),
 .T.,.PARAMETER.);
#222=TRIMMED_CURVE('',#227,(PARAMETER_VALUE(0.)),(PARAMETER_VALUE(1.)),
 .T.,.PARAMETER.);
#223=TRIMMED_CURVE('',#228,(PARAMETER_VALUE(0.)),(PARAMETER_VALUE(1.)),
 .T.,.PARAMETER.);
#224=TRIMMED_CURVE('',#173,(PARAMETER_VALUE(0.)),(PARAMETER_VALUE(76.46379726262)),
 .T.,.PARAMETER.);
#225=TRIMMED_CURVE('',#174,(PARAMETER_VALUE(0.)),(PARAMETER_VALUE(13.53620273738)),
 .T.,.PARAMETER.);
#226=LINE('',#420,#235);
#227=LINE('',#421,#236);
#228=LINE('',#422,#237);
#229=LINE('',#435,#238);
#230=LINE('',#440,#239);
#231=LINE('',#515,#240);
#232=LINE('',#520,#241);
#233=LINE('',#528,#242);
#234=LINE('',#532,#243);
#235=VECTOR('',#331,2.147700453647);
#236=VECTOR('',#332,5.);
#237=VECTOR('',#333,22.);
#238=VECTOR('',#358,1.);
#239=VECTOR('',#361,1.);
#240=VECTOR('',#390,1.);
#241=VECTOR('',#393,1.);
#242=VECTOR('',#406,1.);
#243=VECTOR('',#409,1.);
#244=PRESENTATION_LAYER_ASSIGNMENT('1','Layer 1',(#419,#221,#222,#223,#224,
#225,#292,#293,#296,#297,#298,#299,#300,#301,#40,#41));
#245=PRESENTATION_LAYER_ASSIGNMENT('2','Layer 2',(#294,#295));
#246=STYLED_ITEM('',(#264),#419);
#247=STYLED_ITEM('',(#265),#221);
#248=STYLED_ITEM('',(#266),#222);
#249=STYLED_ITEM('',(#267),#223);
#250=STYLED_ITEM('',(#268),#224);
#251=STYLED_ITEM('',(#269),#225);
#252=STYLED_ITEM('',(#270),#292);
#253=STYLED_ITEM('',(#271),#293);
#254=STYLED_ITEM('',(#272),#294);
#255=STYLED_ITEM('',(#273),#295);
#256=STYLED_ITEM('',(#274),#296);
#257=STYLED_ITEM('',(#275),#297);
#258=STYLED_ITEM('',(#276),#298);
#259=STYLED_ITEM('',(#277),#299);
#260=STYLED_ITEM('',(#278),#300);
#261=STYLED_ITEM('',(#279),#301);
#262=STYLED_ITEM('',(#280),#40);
#263=STYLED_ITEM('',(#281),#41);
#264=PRESENTATION_STYLE_ASSIGNMENT((#282));
#265=PRESENTATION_STYLE_ASSIGNMENT((#191));
#266=PRESENTATION_STYLE_ASSIGNMENT((#192));
#267=PRESENTATION_STYLE_ASSIGNMENT((#193));
#268=PRESENTATION_STYLE_ASSIGNMENT((#194));
#269=PRESENTATION_STYLE_ASSIGNMENT((#195));
#270=PRESENTATION_STYLE_ASSIGNMENT((#196));
#271=PRESENTATION_STYLE_ASSIGNMENT((#197));
#272=PRESENTATION_STYLE_ASSIGNMENT((#198));
#273=PRESENTATION_STYLE_ASSIGNMENT((#199));
#274=PRESENTATION_STYLE_ASSIGNMENT((#200));
#275=PRESENTATION_STYLE_ASSIGNMENT((#201));
#276=PRESENTATION_STYLE_ASSIGNMENT((#202));
#277=PRESENTATION_STYLE_ASSIGNMENT((#203));
#278=PRESENTATION_STYLE_ASSIGNMENT((#204));
#279=PRESENTATION_STYLE_ASSIGNMENT((#205));
#280=PRESENTATION_STYLE_ASSIGNMENT((#30));
#281=PRESENTATION_STYLE_ASSIGNMENT((#31));
#282=POINT_STYLE('',#283,POSITIVE_LENGTH_MEASURE(3.),#284);
#283=PRE_DEFINED_POINT_MARKER_SYMBOL('plus');
#284=COLOUR_RGB('Medium Royal',0.2,0.4,0.8);
#285=COLOUR_RGB('Strong Stone',0.576470588235294,0.54508278019379,0.392156862745098);
#286=COLOUR_RGB('Medium Umber',0.372533760585946,0.313725490196078,0.270572976272221);
#287=COLOUR_RGB('cutting part',0.8,0.8,0.8);
#288=COLOUR_RGB('non-cutting part and shank',0.501960784313725,0.501960784313725,
0.501960784313725);
#289=AXIS2_PLACEMENT_3D('',#418,#329,#330);
#290=AXIS2_PLACEMENT_3D('',#423,#334,#335);
#291=AXIS2_PLACEMENT_3D('',#424,#336,#337);
#292=AXIS2_PLACEMENT_3D('',#425,#338,#339);
#293=AXIS2_PLACEMENT_3D('',#426,#340,#341);
#294=AXIS2_PLACEMENT_3D('CIP',#427,#342,#343);
#295=AXIS2_PLACEMENT_3D('PCS',#428,#344,#345);
#296=AXIS2_PLACEMENT_3D('MCS',#429,#346,#347);
#297=AXIS2_PLACEMENT_3D('',#430,#348,#349);
#298=AXIS2_PLACEMENT_3D('STEP_TEMP_EM15_1',#431,#350,#351);
#299=AXIS2_PLACEMENT_3D('',#432,#352,#353);
#300=AXIS2_PLACEMENT_3D('',#433,#354,#355);
#301=AXIS2_PLACEMENT_3D('',#434,#356,#357);
#302=AXIS2_PLACEMENT_3D('',#438,#359,#360);
#303=AXIS2_PLACEMENT_3D('',#442,#362,#363);
#304=AXIS2_PLACEMENT_3D('',#443,#364,#365);
#305=AXIS2_PLACEMENT_3D('',#444,#366,#367);
#306=AXIS2_PLACEMENT_3D('',#445,#368,#369);
#307=AXIS2_PLACEMENT_3D('',#446,#370,#371);
#308=AXIS2_PLACEMENT_3D('',#447,#372,#373);
#309=AXIS2_PLACEMENT_3D('',#448,#374,#375);
#310=AXIS2_PLACEMENT_3D('',#451,#376,#377);
#311=AXIS2_PLACEMENT_3D('',#452,#378,#379);
#312=AXIS2_PLACEMENT_3D('',#481,#380,#381);
#313=AXIS2_PLACEMENT_3D('',#510,#382,#383);
#314=AXIS2_PLACEMENT_3D('',#512,#384,#385);
#315=AXIS2_PLACEMENT_3D('',#513,#386,#387);
#316=AXIS2_PLACEMENT_3D('',#514,#388,#389);
#317=AXIS2_PLACEMENT_3D('',#518,#391,#392);
#318=AXIS2_PLACEMENT_3D('',#522,#394,#395);
#319=AXIS2_PLACEMENT_3D('',#523,#396,#397);
#320=AXIS2_PLACEMENT_3D('',#524,#398,#399);
#321=AXIS2_PLACEMENT_3D('',#525,#400,#401);
#322=AXIS2_PLACEMENT_3D('',#526,#402,#403);
#323=AXIS2_PLACEMENT_3D('',#527,#404,#405);
#324=AXIS2_PLACEMENT_3D('',#530,#407,#408);
#325=AXIS2_PLACEMENT_3D('',#533,#410,#411);
#326=AXIS2_PLACEMENT_3D('',#534,#412,#413);
#327=AXIS2_PLACEMENT_3D('',#535,#414,#415);
#328=AXIS2_PLACEMENT_3D('',#536,#416,#417);
#329=DIRECTION('',(0.,0.,1.));
#330=DIRECTION('',(1.,0.,0.));
#331=DIRECTION('',(0.,0.,1.));
#332=DIRECTION('',(1.,0.,0.));
#333=DIRECTION('',(0.,0.,-1.));
#334=DIRECTION('',(0.,1.,0.));
#335=DIRECTION('',(0.,0.,-1.));
#336=DIRECTION('',(0.,1.,0.));
#337=DIRECTION('',(-0.972222222222213,0.,-0.234059715921603));
#338=DIRECTION('',(0.,0.,1.));
#339=DIRECTION('',(1.,0.,0.));
#340=DIRECTION('',(0.,0.,1.));
#341=DIRECTION('',(1.,0.,0.));
#342=DIRECTION('',(0.,0.,1.));
#343=DIRECTION('',(1.,0.,0.));
#344=DIRECTION('',(0.,0.,1.));
#345=DIRECTION('',(1.,0.,0.));
#346=DIRECTION('',(0.,0.,1.));
#347=DIRECTION('',(1.,0.,0.));
#348=DIRECTION('',(0.,0.,1.));
#349=DIRECTION('',(1.,0.,0.));
#350=DIRECTION('',(0.,0.,1.));
#351=DIRECTION('',(1.,0.,0.));
#352=DIRECTION('',(0.,0.,1.));
#353=DIRECTION('',(1.,0.,0.));
#354=DIRECTION('',(0.,0.,1.));
#355=DIRECTION('',(1.,0.,0.));
#356=DIRECTION('',(0.,0.,1.));
#357=DIRECTION('',(1.,0.,0.));
#358=DIRECTION('',(0.,2.005974750454E-9,-1.));
#359=DIRECTION('',(0.,0.,1.));
#360=DIRECTION('',(-1.644127554637E-14,-1.,0.));
#361=DIRECTION('',(0.,-2.005977971784E-9,-1.));
#362=DIRECTION('',(0.,0.,-1.));
#363=DIRECTION('',(0.,1.,0.));
#364=DIRECTION('',(0.,0.,-1.));
#365=DIRECTION('',(0.,1.,0.));
#366=DIRECTION('',(0.,0.,-1.));
#367=DIRECTION('',(0.,-1.,0.));
#368=DIRECTION('',(0.,0.,-1.));
#369=DIRECTION('',(1.,0.,0.));
#370=DIRECTION('',(0.,0.,1.));
#371=DIRECTION('',(1.712984792729E-14,1.,0.));
#372=DIRECTION('',(0.,0.,-1.));
#373=DIRECTION('',(0.,1.,0.));
#374=DIRECTION('',(0.,0.,-1.));
#375=DIRECTION('',(-5.87078762130096E-5,-0.999999998276693,0.));
#376=DIRECTION('',(-0.999999998276693,5.87078761801896E-5,0.));
#377=DIRECTION('',(-5.87078761801896E-5,-0.999999998276693,0.));
#378=DIRECTION('',(0.999999998276693,-5.87078761905296E-5,0.));
#379=DIRECTION('',(5.87078761905296E-5,0.999999998276693,-4.97119193032392E-9));
#380=DIRECTION('',(0.,0.,-1.));
#381=DIRECTION('',(5.87078762171796E-5,0.999999998276693,0.));
#382=DIRECTION('',(1.,0.,0.));
#383=DIRECTION('',(0.,-0.972222222222213,-0.234059715921603));
#384=DIRECTION('',(-1.,0.,0.));
#385=DIRECTION('',(0.,0.972222222222213,-0.234059715921603));
#386=DIRECTION('',(0.,6.12323399573677E-17,-1.));
#387=DIRECTION('',(0.,1.,0.));
#388=DIRECTION('',(0.,6.12323399573677E-17,-1.));
#389=DIRECTION('',(0.,1.,0.));
#390=DIRECTION('',(0.,0.,-1.));
#391=DIRECTION('',(0.,0.,-1.));
#392=DIRECTION('',(0.,1.,0.));
#393=DIRECTION('',(0.,0.,-1.));
#394=DIRECTION('',(0.,0.,1.));
#395=DIRECTION('',(0.,-1.,0.));
#396=DIRECTION('',(0.,0.,-1.));
#397=DIRECTION('',(0.,1.,0.));
#398=DIRECTION('',(0.,0.,1.));
#399=DIRECTION('',(0.,1.,0.));
#400=DIRECTION('',(0.,0.,1.));
#401=DIRECTION('',(-1.,0.,0.));
#402=DIRECTION('',(0.,0.,-1.));
#403=DIRECTION('',(0.,-1.,0.));
#404=DIRECTION('',(0.,0.,-1.));
#405=DIRECTION('',(0.,1.,0.));
#406=DIRECTION('',(0.,0.707106781186547,0.707106781186547));
#407=DIRECTION('',(0.,0.,-1.));
#408=DIRECTION('',(0.,-1.,0.));
#409=DIRECTION('',(0.,-0.707106781186547,0.707106781186547));
#410=DIRECTION('',(0.,0.,-1.));
#411=DIRECTION('',(0.,1.,0.));
#412=DIRECTION('',(0.,0.,-1.));
#413=DIRECTION('',(0.,1.,0.));
#414=DIRECTION('',(0.,0.,-1.));
#415=DIRECTION('',(0.,1.,0.));
#416=DIRECTION('',(0.,0.,-1.));
#417=DIRECTION('',(0.,1.,0.));
#418=CARTESIAN_POINT('',(0.,0.,0.));
#419=CARTESIAN_POINT('CRP',(-5.,0.,0.));
#420=CARTESIAN_POINT('',(-5.,0.,19.85229954635));
#421=CARTESIAN_POINT('',(-5.,0.,22.));
#422=CARTESIAN_POINT('',(0.,0.,22.));
#423=CARTESIAN_POINT('',(0.,0.,3.));
#424=CARTESIAN_POINT('',(70.,0.,19.85229954635));
#425=CARTESIAN_POINT('',(0.,0.,0.));
#426=CARTESIAN_POINT('',(0.,0.,0.));
#427=CARTESIAN_POINT('',(0.,0.,0.));
#428=CARTESIAN_POINT('',(0.,0.,100.));
#429=CARTESIAN_POINT('',(0.,0.,70.));
#430=CARTESIAN_POINT('',(0.,0.,0.));
#431=CARTESIAN_POINT('',(0.,0.,0.));
#432=CARTESIAN_POINT('',(0.,0.,0.));
#433=CARTESIAN_POINT('',(0.,0.,0.));
#434=CARTESIAN_POINT('',(0.,0.,0.));
#435=CARTESIAN_POINT('',(0.,-5.,22.));
#436=CARTESIAN_POINT('',(0.,-5.,22.));
#437=CARTESIAN_POINT('',(0.,-5.,19.85229954636));
#438=CARTESIAN_POINT('',(8.343102453104E-14,0.,19.85229954636));
#439=CARTESIAN_POINT('',(0.,4.999999995692,19.85229945314));
#440=CARTESIAN_POINT('',(0.,5.,22.));
#441=CARTESIAN_POINT('',(0.,5.,22.));
#442=CARTESIAN_POINT('',(0.,1.87390428257E-14,22.));
#443=CARTESIAN_POINT('',(0.,1.87390428257E-14,105.));
#444=CARTESIAN_POINT('',(0.,1.87390428257E-14,22.));
#445=CARTESIAN_POINT('',(150.,150.,22.));
#446=CARTESIAN_POINT('',(-8.626156303606E-14,0.,19.85229954636));
#447=CARTESIAN_POINT('',(0.,1.87390428257E-14,105.));
#448=CARTESIAN_POINT('',(6.236586323316E-14,0.,2.297807286577));
#449=CARTESIAN_POINT('',(-0.0001712308460132,-2.916658835601,2.297788344965));
#450=CARTESIAN_POINT('',(0.0001712308460417,2.916658835601,2.297788344965));
#451=CARTESIAN_POINT('',(0.004109551332529,69.9999998794,19.85229954636));
#452=CARTESIAN_POINT('',(-0.004109551333256,-69.99999987939,19.85229954636));
#453=CARTESIAN_POINT('',(0.0545050871199055,-2.89118816464268,2.19444588571381));
#454=CARTESIAN_POINT('',(-1.65183695951215,-2.92335636560815,2.19444588571381));
#455=CARTESIAN_POINT('',(-2.87553953257483,-1.73373878590548,2.19444588571381));
#456=CARTESIAN_POINT('',(-2.89157425291658,-0.0271688749433129,2.19444588571381));
#457=CARTESIAN_POINT('',(-2.90760897325832,1.67940103601885,2.19444588571381));
#458=CARTESIAN_POINT('',(-1.70647547080929,2.89180207633199,2.19444588571381));
#459=CARTESIAN_POINT('',(0.000169765676339456,2.8917018828142,2.19444588571381));
#460=CARTESIAN_POINT('',(0.0809350945990814,-4.2931513363764,7.9827846902934));
#461=CARTESIAN_POINT('',(-2.45282757342812,-4.34091818761516,7.9827846902934));
#462=CARTESIAN_POINT('',(-4.26991454172669,-2.57444433283974,7.9827846902934));
#463=CARTESIAN_POINT('',(-4.29372464233013,-0.0403433070172048,7.9827846902934));
#464=CARTESIAN_POINT('',(-4.31753474293356,2.49375771880533,7.9827846902934));
#465=CARTESIAN_POINT('',(-2.53396079078892,4.29406293937121,7.9827846902934));
#466=CARTESIAN_POINT('',(0.000252086581608566,4.29391416111457,7.9827846902934));
#467=CARTESIAN_POINT('',(0.0942439595004561,-4.99911172870728,13.8965405353863));
#468=CARTESIAN_POINT('',(-2.85616744672464,-5.05473330073242,13.8965405353863));
#469=CARTESIAN_POINT('',(-4.97205390484556,-2.99778271270211,13.8965405353863));
#470=CARTESIAN_POINT('',(-4.99977930836902,-0.0469773095524637,13.8965405353863));
#471=CARTESIAN_POINT('',(-5.02750471189248,2.90382809359718,13.8965405353863));
#472=CARTESIAN_POINT('',(-2.95064210804382,5.00017323454909,13.8965405353863));
#473=CARTESIAN_POINT('',(0.000293539381334485,4.99999999138352,13.8965405353863));
#474=CARTESIAN_POINT('',(0.0942439595004397,-4.99911172870642,19.85229954636));
#475=CARTESIAN_POINT('',(-2.85616744672414,-5.05473330073154,19.85229954636));
#476=CARTESIAN_POINT('',(-4.97205390484469,-2.99778271270159,19.85229954636));
#477=CARTESIAN_POINT('',(-4.99977930836815,-0.0469773095524555,19.85229954636));
#478=CARTESIAN_POINT('',(-5.02750471189161,2.90382809359668,19.85229954636));
#479=CARTESIAN_POINT('',(-2.95064210804331,5.00017323454822,19.85229954636));
#480=CARTESIAN_POINT('',(0.000293539381334424,4.99999999138266,19.85229954636));
#481=CARTESIAN_POINT('',(-6.242031475326E-14,0.,2.297807286577));
#482=CARTESIAN_POINT('',(-0.0545050871200441,2.89118816464208,2.19444588571395));
#483=CARTESIAN_POINT('',(1.65183695951156,2.92335636560741,2.19444588571395));
#484=CARTESIAN_POINT('',(2.87553953257387,1.73373878590504,2.19444588571395));
#485=CARTESIAN_POINT('',(2.89157425291566,0.0271688749433364,2.19444588571395));
#486=CARTESIAN_POINT('',(2.90760897325746,-1.67940103601836,2.19444588571395));
#487=CARTESIAN_POINT('',(1.70647547080885,-2.89180207633127,2.19444588571395));
#488=CARTESIAN_POINT('',(-0.000169765676319949,-2.89170188281371,2.19444588571395));
#489=CARTESIAN_POINT('',(-0.0809350945991193,4.29315133637603,7.98278469029349));
#490=CARTESIAN_POINT('',(2.45282757342768,4.34091818761458,7.98278469029349));
#491=CARTESIAN_POINT('',(4.26991454172593,2.57444433283941,7.98278469029349));
#492=CARTESIAN_POINT('',(4.29372464232943,0.0403433070172713,7.98278469029349));
#493=CARTESIAN_POINT('',(4.31753474293293,-2.49375771880487,7.98278469029349));
#494=CARTESIAN_POINT('',(2.53396079078873,-4.29406293937061,7.98278469029349));
#495=CARTESIAN_POINT('',(-0.000252086581402431,-4.2939141611143,7.98278469029349));
#496=CARTESIAN_POINT('',(-0.0942439595004524,4.99911172870748,13.8965405353863));
#497=CARTESIAN_POINT('',(2.85616744672455,5.05473330073239,13.8965405353863));
#498=CARTESIAN_POINT('',(4.97205390484535,2.99778271270211,13.8965405353863));
#499=CARTESIAN_POINT('',(4.9997793083689,0.0469773095525565,13.8965405353863));
#500=CARTESIAN_POINT('',(5.02750471189244,-2.90382809359699,13.8965405353863));
#501=CARTESIAN_POINT('',(2.95064210804402,-5.00017323454899,13.8965405353863));
#502=CARTESIAN_POINT('',(-0.000293539381034065,-4.99999999138382,13.8965405353863));
#503=CARTESIAN_POINT('',(-0.0942439595004543,4.99911172870758,19.85229954636));
#504=CARTESIAN_POINT('',(2.85616744672461,5.0547333007325,19.85229954636));
#505=CARTESIAN_POINT('',(4.97205390484545,2.99778271270217,19.85229954636));
#506=CARTESIAN_POINT('',(4.999779308369,0.0469773095525574,19.85229954636));
#507=CARTESIAN_POINT('',(5.02750471189255,-2.90382809359705,19.85229954636));
#508=CARTESIAN_POINT('',(2.95064210804408,-5.0001732345491,19.85229954636));
#509=CARTESIAN_POINT('',(-0.000293539381034078,-4.99999999138393,19.85229954636));
#510=CARTESIAN_POINT('',(0.,0.,3.));
#511=CARTESIAN_POINT('',(0.,0.,0.));
#512=CARTESIAN_POINT('',(0.,0.,3.));
#513=CARTESIAN_POINT('',(0.,0.,3.));
#514=CARTESIAN_POINT('',(0.,0.,3.));
#515=CARTESIAN_POINT('',(0.,5.,99.5));
#516=CARTESIAN_POINT('',(0.,5.,99.5));
#517=CARTESIAN_POINT('',(0.,5.,22.));
#518=CARTESIAN_POINT('',(0.,1.777463347137E-14,99.5));
#519=CARTESIAN_POINT('',(0.,-5.,99.5));
#520=CARTESIAN_POINT('',(0.,-5.,99.5));
#521=CARTESIAN_POINT('',(0.,-5.,22.));
#522=CARTESIAN_POINT('',(0.,1.87390428257E-14,22.));
#523=CARTESIAN_POINT('',(0.,1.87390428257E-14,105.));
#524=CARTESIAN_POINT('',(0.,1.87390428257E-14,22.));
#525=CARTESIAN_POINT('',(-150.,150.,22.));
#526=CARTESIAN_POINT('',(0.,1.777463347137E-14,99.5));
#527=CARTESIAN_POINT('',(0.,1.87390428257E-14,105.));
#528=CARTESIAN_POINT('',(0.,-4.5,100.));
#529=CARTESIAN_POINT('',(0.,-4.5,100.));
#530=CARTESIAN_POINT('',(0.,1.777463347137E-14,100.));
#531=CARTESIAN_POINT('',(0.,4.5,100.));
#532=CARTESIAN_POINT('',(0.,4.5,100.));
#533=CARTESIAN_POINT('',(0.,1.777463347137E-14,99.75));
#534=CARTESIAN_POINT('',(0.,1.777463347137E-14,100.));
#535=CARTESIAN_POINT('',(0.,1.777463347137E-14,99.75));
#536=CARTESIAN_POINT('',(0.,1.782055772634E-14,100.));
#537=MECHANICAL_DESIGN_GEOMETRIC_PRESENTATION_REPRESENTATION('',(#246,#247,
#248,#249,#250,#251,#252,#253,#254,#255,#256,#257,#258,#259,#260,#261,#262,
#263),#538);
#538=(
GEOMETRIC_REPRESENTATION_CONTEXT(3)
GLOBAL_UNCERTAINTY_ASSIGNED_CONTEXT((#539))
GLOBAL_UNIT_ASSIGNED_CONTEXT((#545,#541,#540))
REPRESENTATION_CONTEXT('VQT6URR030R075S10','TOP_LEVEL_ASSEMBLY_PART')
);
#539=UNCERTAINTY_MEASURE_WITH_UNIT(LENGTH_MEASURE(0.0254),#545,
'DISTANCE_ACCURACY_VALUE','Maximum Tolerance applied to model');
#540=(
NAMED_UNIT(*)
SI_UNIT($,.STERADIAN.)
SOLID_ANGLE_UNIT()
);
#541=(
CONVERSION_BASED_UNIT('DEGREE',#543)
NAMED_UNIT(#542)
PLANE_ANGLE_UNIT()
);
#542=DIMENSIONAL_EXPONENTS(0.,0.,0.,0.,0.,0.,0.);
#543=PLANE_ANGLE_MEASURE_WITH_UNIT(PLANE_ANGLE_MEASURE(0.0174532925),#544);
#544=(
NAMED_UNIT(*)
PLANE_ANGLE_UNIT()
SI_UNIT($,.RADIAN.)
);
#545=(
LENGTH_UNIT()
NAMED_UNIT(*)
SI_UNIT(.MILLI.,.METRE.)
);
ENDSEC;
END-ISO-10303-21;
