ISO-10303-21;
HEADER;
/* Generated by software containing ST-Developer
 * from STEP Tools, Inc. (www.steptools.com) 
 */
/* OPTION: using custom schema-name function */

FILE_DESCRIPTION(
/* description */ (''),
/* implementation_level */ '2;1');

FILE_NAME(
/* name */ 'VQT6URR020R075S08.stp',
/* time_stamp */ '2023-03-17T09:17:47+09:00',
/* author */ (''),
/* organization */ (''),
/* preprocessor_version */ 'ST-DEVELOPER v16',
/* originating_system */ 'SIEMENS PLM Software NX 10.0',
/* authorisation */ '');

FILE_SCHEMA (('AUTOMOTIVE_DESIGN { 1 0 10303 214 3 1 1 1 }'));
ENDSEC;

DATA;
#10=CONSTRUCTIVE_GEOMETRY_REPRESENTATION_RELATIONSHIP(
'supplemental geometry','',#26,#11);
#11=CONSTRUCTIVE_GEOMETRY_REPRESENTATION('supplemental geometry',(#292,
#293,#294,#295,#296,#297,#298,#299,#300,#301),#514);
#12=GEOMETRICALLY_BOUNDED_WIREFRAME_SHAPE_REPRESENTATION(
'VQT6URR020R075S08-None',(#27),#514);
#13=SHAPE_REPRESENTATION_RELATIONSHIP('None',
'relationship between VQT6URR020R075S08-None and VQT6URR020R075S08-Non
e',#26,#15);
#14=SHAPE_REPRESENTATION_RELATIONSHIP('None',
'relationship between VQT6URR020R075S08-None and VQT6URR020R075S08-Non
e',#26,#12);
#15=ADVANCED_BREP_SHAPE_REPRESENTATION('VQT6URR020R075S08-None',(#40,#41),
#514);
#16=SHAPE_DEFINITION_REPRESENTATION(#17,#26);
#17=PRODUCT_DEFINITION_SHAPE('','SHAPE FOR VQT6URR020R075S08_ASM.',#18);
#18=PRODUCT_DEFINITION('part definition','',#20,#19);
#19=PRODUCT_DEFINITION_CONTEXT('part definition',#25,'design');
#20=PRODUCT_DEFINITION_FORMATION_WITH_SPECIFIED_SOURCE(' ',' ',#22,
 .NOT_KNOWN.);
#21=PRODUCT_RELATED_PRODUCT_CATEGORY('part','',(#22));
#22=PRODUCT('VQT6URR020R075S08_ASM','VQT6URR020R075S08_ASM',
'NOT SPECIFIED',(#23));
#23=PRODUCT_CONTEXT('',#25,'mechanical');
#24=APPLICATION_PROTOCOL_DEFINITION('international standard',
'automotive_design',2010,#25);
#25=APPLICATION_CONTEXT(
'core data for automotive mechanical design processes');
#26=SHAPE_REPRESENTATION('VQT6URR020R075S08-None',(#289),#514);
#27=GEOMETRIC_CURVE_SET('None',(#419,#221,#222,#223,#224,#225));
#28=CONICAL_SURFACE('',#325,3.75,45.);
#29=CONICAL_SURFACE('',#327,3.75,45.);
#30=SURFACE_STYLE_USAGE(.BOTH.,#32);
#31=SURFACE_STYLE_USAGE(.BOTH.,#33);
#32=SURFACE_SIDE_STYLE('',(#34));
#33=SURFACE_SIDE_STYLE('',(#35));
#34=SURFACE_STYLE_FILL_AREA(#36);
#35=SURFACE_STYLE_FILL_AREA(#37);
#36=FILL_AREA_STYLE('',(#38));
#37=FILL_AREA_STYLE('',(#39));
#38=FILL_AREA_STYLE_COLOUR('',#287);
#39=FILL_AREA_STYLE_COLOUR('',#288);
#40=MANIFOLD_SOLID_BREP('CUT',#42);
#41=MANIFOLD_SOLID_BREP('NOCUT',#43);
#42=CLOSED_SHELL('',(#51,#52,#53,#54,#55,#56,#57));
#43=CLOSED_SHELL('',(#58,#59,#60,#61,#62,#63));
#44=SPHERICAL_SURFACE('',#315,2.);
#45=SPHERICAL_SURFACE('',#316,2.);
#46=(
BOUNDED_SURFACE()
B_SPLINE_SURFACE(3,3,((#453,#454,#455,#456),(#457,#458,#459,#460),(#461,
#462,#463,#464),(#465,#466,#467,#468)),.UNSPECIFIED.,.F.,.F.,.F.)
B_SPLINE_SURFACE_WITH_KNOTS((4,4),(4,4),(0.,1.),(0.,1.),.UNSPECIFIED.)
GEOMETRIC_REPRESENTATION_ITEM()
RATIONAL_B_SPLINE_SURFACE(((1.,0.333333333333553,0.333333333333553,1.),
(0.995418039370543,0.331806013123733,0.331806013123733,0.995418039370543),
(0.995418039370543,0.331806013123733,0.331806013123733,0.995418039370543),
(1.,0.333333333333553,0.333333333333553,1.)))
REPRESENTATION_ITEM('')
SURFACE()
);
#47=(
BOUNDED_SURFACE()
B_SPLINE_SURFACE(3,3,((#470,#471,#472,#473),(#474,#475,#476,#477),(#478,
#479,#480,#481),(#482,#483,#484,#485)),.UNSPECIFIED.,.F.,.F.,.F.)
B_SPLINE_SURFACE_WITH_KNOTS((4,4),(4,4),(0.,1.),(0.,1.),.UNSPECIFIED.)
GEOMETRIC_REPRESENTATION_ITEM()
RATIONAL_B_SPLINE_SURFACE(((1.,0.333333333333547,0.333333333333547,1.),
(0.995418039370543,0.331806013123727,0.331806013123727,0.995418039370543),
(0.995418039370543,0.331806013123727,0.331806013123727,0.995418039370543),
(1.,0.333333333333547,0.333333333333547,1.)))
REPRESENTATION_ITEM('')
SURFACE()
);
#48=PLANE('',#306);
#49=PLANE('',#321);
#50=PLANE('',#328);
#51=ADVANCED_FACE('',(#68),#64,.T.);
#52=ADVANCED_FACE('',(#69),#48,.F.);
#53=ADVANCED_FACE('',(#70),#65,.T.);
#54=ADVANCED_FACE('',(#71),#46,.T.);
#55=ADVANCED_FACE('',(#72),#47,.T.);
#56=ADVANCED_FACE('',(#73),#44,.T.);
#57=ADVANCED_FACE('',(#74),#45,.T.);
#58=ADVANCED_FACE('',(#75),#66,.T.);
#59=ADVANCED_FACE('',(#76),#49,.F.);
#60=ADVANCED_FACE('',(#77),#67,.T.);
#61=ADVANCED_FACE('',(#78),#28,.T.);
#62=ADVANCED_FACE('',(#79),#29,.T.);
#63=ADVANCED_FACE('',(#80),#50,.F.);
#64=CYLINDRICAL_SURFACE('',#304,4.);
#65=CYLINDRICAL_SURFACE('',#308,4.);
#66=CYLINDRICAL_SURFACE('',#319,4.);
#67=CYLINDRICAL_SURFACE('',#323,4.);
#68=FACE_OUTER_BOUND('',#81,.T.);
#69=FACE_OUTER_BOUND('',#82,.T.);
#70=FACE_OUTER_BOUND('',#83,.T.);
#71=FACE_OUTER_BOUND('',#84,.T.);
#72=FACE_OUTER_BOUND('',#85,.T.);
#73=FACE_OUTER_BOUND('',#86,.T.);
#74=FACE_OUTER_BOUND('',#87,.T.);
#75=FACE_OUTER_BOUND('',#88,.T.);
#76=FACE_OUTER_BOUND('',#89,.T.);
#77=FACE_OUTER_BOUND('',#90,.T.);
#78=FACE_OUTER_BOUND('',#91,.T.);
#79=FACE_OUTER_BOUND('',#92,.T.);
#80=FACE_OUTER_BOUND('',#93,.T.);
#81=EDGE_LOOP('',(#94,#95,#96,#97));
#82=EDGE_LOOP('',(#98,#99));
#83=EDGE_LOOP('',(#100,#101,#102,#103));
#84=EDGE_LOOP('',(#104,#105,#106,#107));
#85=EDGE_LOOP('',(#108,#109,#110,#111));
#86=EDGE_LOOP('',(#112,#113,#114));
#87=EDGE_LOOP('',(#115,#116,#117));
#88=EDGE_LOOP('',(#118,#119,#120,#121));
#89=EDGE_LOOP('',(#122,#123));
#90=EDGE_LOOP('',(#124,#125,#126,#127));
#91=EDGE_LOOP('',(#128,#129,#130,#131));
#92=EDGE_LOOP('',(#132,#133,#134,#135));
#93=EDGE_LOOP('',(#136,#137));
#94=ORIENTED_EDGE('',*,*,#151,.T.);
#95=ORIENTED_EDGE('',*,*,#152,.T.);
#96=ORIENTED_EDGE('',*,*,#153,.F.);
#97=ORIENTED_EDGE('',*,*,#154,.T.);
#98=ORIENTED_EDGE('',*,*,#155,.F.);
#99=ORIENTED_EDGE('',*,*,#154,.F.);
#100=ORIENTED_EDGE('',*,*,#153,.T.);
#101=ORIENTED_EDGE('',*,*,#156,.T.);
#102=ORIENTED_EDGE('',*,*,#151,.F.);
#103=ORIENTED_EDGE('',*,*,#155,.T.);
#104=ORIENTED_EDGE('',*,*,#157,.F.);
#105=ORIENTED_EDGE('',*,*,#158,.T.);
#106=ORIENTED_EDGE('',*,*,#156,.F.);
#107=ORIENTED_EDGE('',*,*,#159,.F.);
#108=ORIENTED_EDGE('',*,*,#152,.F.);
#109=ORIENTED_EDGE('',*,*,#158,.F.);
#110=ORIENTED_EDGE('',*,*,#160,.F.);
#111=ORIENTED_EDGE('',*,*,#159,.T.);
#112=ORIENTED_EDGE('',*,*,#160,.T.);
#113=ORIENTED_EDGE('',*,*,#161,.T.);
#114=ORIENTED_EDGE('',*,*,#162,.F.);
#115=ORIENTED_EDGE('',*,*,#161,.F.);
#116=ORIENTED_EDGE('',*,*,#157,.T.);
#117=ORIENTED_EDGE('',*,*,#162,.T.);
#118=ORIENTED_EDGE('',*,*,#163,.F.);
#119=ORIENTED_EDGE('',*,*,#164,.T.);
#120=ORIENTED_EDGE('',*,*,#165,.T.);
#121=ORIENTED_EDGE('',*,*,#166,.T.);
#122=ORIENTED_EDGE('',*,*,#167,.F.);
#123=ORIENTED_EDGE('',*,*,#166,.F.);
#124=ORIENTED_EDGE('',*,*,#165,.F.);
#125=ORIENTED_EDGE('',*,*,#168,.T.);
#126=ORIENTED_EDGE('',*,*,#163,.T.);
#127=ORIENTED_EDGE('',*,*,#167,.T.);
#128=ORIENTED_EDGE('',*,*,#168,.F.);
#129=ORIENTED_EDGE('',*,*,#169,.T.);
#130=ORIENTED_EDGE('',*,*,#170,.T.);
#131=ORIENTED_EDGE('',*,*,#171,.F.);
#132=ORIENTED_EDGE('',*,*,#172,.T.);
#133=ORIENTED_EDGE('',*,*,#169,.F.);
#134=ORIENTED_EDGE('',*,*,#164,.F.);
#135=ORIENTED_EDGE('',*,*,#171,.T.);
#136=ORIENTED_EDGE('',*,*,#172,.F.);
#137=ORIENTED_EDGE('',*,*,#170,.F.);
#138=VERTEX_POINT('',#436);
#139=VERTEX_POINT('',#437);
#140=VERTEX_POINT('',#439);
#141=VERTEX_POINT('',#441);
#142=VERTEX_POINT('',#449);
#143=VERTEX_POINT('',#450);
#144=VERTEX_POINT('',#487);
#145=VERTEX_POINT('',#492);
#146=VERTEX_POINT('',#493);
#147=VERTEX_POINT('',#495);
#148=VERTEX_POINT('',#497);
#149=VERTEX_POINT('',#505);
#150=VERTEX_POINT('',#507);
#151=EDGE_CURVE('',#138,#139,#229,.T.);
#152=EDGE_CURVE('',#139,#140,#175,.T.);
#153=EDGE_CURVE('',#141,#140,#230,.T.);
#154=EDGE_CURVE('',#141,#138,#176,.T.);
#155=EDGE_CURVE('',#138,#141,#177,.T.);
#156=EDGE_CURVE('',#140,#139,#178,.T.);
#157=EDGE_CURVE('',#142,#143,#179,.T.);
#158=EDGE_CURVE('',#142,#139,#180,.T.);
#159=EDGE_CURVE('',#143,#140,#181,.T.);
#160=EDGE_CURVE('',#143,#142,#182,.T.);
#161=EDGE_CURVE('',#142,#144,#183,.T.);
#162=EDGE_CURVE('',#143,#144,#184,.T.);
#163=EDGE_CURVE('',#145,#146,#231,.T.);
#164=EDGE_CURVE('',#145,#147,#185,.T.);
#165=EDGE_CURVE('',#147,#148,#232,.T.);
#166=EDGE_CURVE('',#148,#146,#186,.T.);
#167=EDGE_CURVE('',#146,#148,#187,.T.);
#168=EDGE_CURVE('',#147,#145,#188,.T.);
#169=EDGE_CURVE('',#147,#149,#233,.T.);
#170=EDGE_CURVE('',#149,#150,#189,.T.);
#171=EDGE_CURVE('',#145,#150,#234,.T.);
#172=EDGE_CURVE('',#150,#149,#190,.T.);
#173=CIRCLE('',#290,2.);
#174=CIRCLE('',#291,75.);
#175=CIRCLE('',#302,4.);
#176=CIRCLE('',#303,4.);
#177=CIRCLE('',#305,4.);
#178=CIRCLE('',#307,4.);
#179=CIRCLE('',#309,1.945203314327);
#180=CIRCLE('',#310,75.00000000003);
#181=CIRCLE('',#311,75.00000000003);
#182=CIRCLE('',#312,1.945203314327);
#183=CIRCLE('',#313,2.);
#184=CIRCLE('',#314,2.);
#185=CIRCLE('',#317,4.);
#186=CIRCLE('',#318,4.);
#187=CIRCLE('',#320,4.);
#188=CIRCLE('',#322,4.);
#189=CIRCLE('',#324,3.5);
#190=CIRCLE('',#326,3.5);
#191=CURVE_STYLE('',#206,POSITIVE_LENGTH_MEASURE(0.18),#284);
#192=CURVE_STYLE('',#207,POSITIVE_LENGTH_MEASURE(0.18),#284);
#193=CURVE_STYLE('',#208,POSITIVE_LENGTH_MEASURE(0.18),#284);
#194=CURVE_STYLE('',#209,POSITIVE_LENGTH_MEASURE(0.18),#284);
#195=CURVE_STYLE('',#210,POSITIVE_LENGTH_MEASURE(0.18),#284);
#196=CURVE_STYLE('',#211,POSITIVE_LENGTH_MEASURE(0.13),#285);
#197=CURVE_STYLE('',#212,POSITIVE_LENGTH_MEASURE(0.13),#285);
#198=CURVE_STYLE('',#213,POSITIVE_LENGTH_MEASURE(0.13),#286);
#199=CURVE_STYLE('',#214,POSITIVE_LENGTH_MEASURE(0.13),#286);
#200=CURVE_STYLE('',#215,POSITIVE_LENGTH_MEASURE(0.13),#285);
#201=CURVE_STYLE('',#216,POSITIVE_LENGTH_MEASURE(0.13),#285);
#202=CURVE_STYLE('',#217,POSITIVE_LENGTH_MEASURE(0.13),#286);
#203=CURVE_STYLE('',#218,POSITIVE_LENGTH_MEASURE(0.13),#285);
#204=CURVE_STYLE('',#219,POSITIVE_LENGTH_MEASURE(0.13),#285);
#205=CURVE_STYLE('',#220,POSITIVE_LENGTH_MEASURE(0.13),#285);
#206=DRAUGHTING_PRE_DEFINED_CURVE_FONT('continuous');
#207=DRAUGHTING_PRE_DEFINED_CURVE_FONT('continuous');
#208=DRAUGHTING_PRE_DEFINED_CURVE_FONT('continuous');
#209=DRAUGHTING_PRE_DEFINED_CURVE_FONT('continuous');
#210=DRAUGHTING_PRE_DEFINED_CURVE_FONT('continuous');
#211=DRAUGHTING_PRE_DEFINED_CURVE_FONT('continuous');
#212=DRAUGHTING_PRE_DEFINED_CURVE_FONT('continuous');
#213=DRAUGHTING_PRE_DEFINED_CURVE_FONT('continuous');
#214=DRAUGHTING_PRE_DEFINED_CURVE_FONT('continuous');
#215=DRAUGHTING_PRE_DEFINED_CURVE_FONT('continuous');
#216=DRAUGHTING_PRE_DEFINED_CURVE_FONT('continuous');
#217=DRAUGHTING_PRE_DEFINED_CURVE_FONT('continuous');
#218=DRAUGHTING_PRE_DEFINED_CURVE_FONT('continuous');
#219=DRAUGHTING_PRE_DEFINED_CURVE_FONT('continuous');
#220=DRAUGHTING_PRE_DEFINED_CURVE_FONT('continuous');
#221=TRIMMED_CURVE('',#226,(PARAMETER_VALUE(0.)),(PARAMETER_VALUE(1.)),
 .T.,.PARAMETER.);
#222=TRIMMED_CURVE('',#227,(PARAMETER_VALUE(0.)),(PARAMETER_VALUE(1.)),
 .T.,.PARAMETER.);
#223=TRIMMED_CURVE('',#228,(PARAMETER_VALUE(0.)),(PARAMETER_VALUE(1.)),
 .T.,.PARAMETER.);
#224=TRIMMED_CURVE('',#173,(PARAMETER_VALUE(0.)),(PARAMETER_VALUE(76.55726132126)),
 .T.,.PARAMETER.);
#225=TRIMMED_CURVE('',#174,(PARAMETER_VALUE(0.)),(PARAMETER_VALUE(13.44273867874)),
 .T.,.PARAMETER.);
#226=LINE('',#420,#235);
#227=LINE('',#421,#236);
#228=LINE('',#422,#237);
#229=LINE('',#435,#238);
#230=LINE('',#440,#239);
#231=LINE('',#491,#240);
#232=LINE('',#496,#241);
#233=LINE('',#504,#242);
#234=LINE('',#508,#243);
#235=VECTOR('',#331,2.029437251523);
#236=VECTOR('',#332,4.);
#237=VECTOR('',#333,21.);
#238=VECTOR('',#358,1.);
#239=VECTOR('',#361,1.);
#240=VECTOR('',#390,1.);
#241=VECTOR('',#393,1.);
#242=VECTOR('',#406,1.);
#243=VECTOR('',#409,1.);
#244=PRESENTATION_LAYER_ASSIGNMENT('1','Layer 1',(#419,#221,#222,#223,#224,
#225,#292,#293,#296,#297,#298,#299,#300,#301,#40,#41));
#245=PRESENTATION_LAYER_ASSIGNMENT('2','Layer 2',(#294,#295));
#246=STYLED_ITEM('',(#264),#419);
#247=STYLED_ITEM('',(#265),#221);
#248=STYLED_ITEM('',(#266),#222);
#249=STYLED_ITEM('',(#267),#223);
#250=STYLED_ITEM('',(#268),#224);
#251=STYLED_ITEM('',(#269),#225);
#252=STYLED_ITEM('',(#270),#292);
#253=STYLED_ITEM('',(#271),#293);
#254=STYLED_ITEM('',(#272),#294);
#255=STYLED_ITEM('',(#273),#295);
#256=STYLED_ITEM('',(#274),#296);
#257=STYLED_ITEM('',(#275),#297);
#258=STYLED_ITEM('',(#276),#298);
#259=STYLED_ITEM('',(#277),#299);
#260=STYLED_ITEM('',(#278),#300);
#261=STYLED_ITEM('',(#279),#301);
#262=STYLED_ITEM('',(#280),#40);
#263=STYLED_ITEM('',(#281),#41);
#264=PRESENTATION_STYLE_ASSIGNMENT((#282));
#265=PRESENTATION_STYLE_ASSIGNMENT((#191));
#266=PRESENTATION_STYLE_ASSIGNMENT((#192));
#267=PRESENTATION_STYLE_ASSIGNMENT((#193));
#268=PRESENTATION_STYLE_ASSIGNMENT((#194));
#269=PRESENTATION_STYLE_ASSIGNMENT((#195));
#270=PRESENTATION_STYLE_ASSIGNMENT((#196));
#271=PRESENTATION_STYLE_ASSIGNMENT((#197));
#272=PRESENTATION_STYLE_ASSIGNMENT((#198));
#273=PRESENTATION_STYLE_ASSIGNMENT((#199));
#274=PRESENTATION_STYLE_ASSIGNMENT((#200));
#275=PRESENTATION_STYLE_ASSIGNMENT((#201));
#276=PRESENTATION_STYLE_ASSIGNMENT((#202));
#277=PRESENTATION_STYLE_ASSIGNMENT((#203));
#278=PRESENTATION_STYLE_ASSIGNMENT((#204));
#279=PRESENTATION_STYLE_ASSIGNMENT((#205));
#280=PRESENTATION_STYLE_ASSIGNMENT((#30));
#281=PRESENTATION_STYLE_ASSIGNMENT((#31));
#282=POINT_STYLE('',#283,POSITIVE_LENGTH_MEASURE(3.),#284);
#283=PRE_DEFINED_POINT_MARKER_SYMBOL('plus');
#284=COLOUR_RGB('Medium Royal',0.2,0.4,0.8);
#285=COLOUR_RGB('Strong Stone',0.576470588235294,0.54508278019379,0.392156862745098);
#286=COLOUR_RGB('Medium Umber',0.372533760585946,0.313725490196078,0.270572976272221);
#287=COLOUR_RGB('cutting part',0.8,0.8,0.8);
#288=COLOUR_RGB('non-cutting part and shank',0.501960784313725,0.501960784313725,
0.501960784313725);
#289=AXIS2_PLACEMENT_3D('',#418,#329,#330);
#290=AXIS2_PLACEMENT_3D('',#423,#334,#335);
#291=AXIS2_PLACEMENT_3D('',#424,#336,#337);
#292=AXIS2_PLACEMENT_3D('',#425,#338,#339);
#293=AXIS2_PLACEMENT_3D('',#426,#340,#341);
#294=AXIS2_PLACEMENT_3D('CIP',#427,#342,#343);
#295=AXIS2_PLACEMENT_3D('PCS',#428,#344,#345);
#296=AXIS2_PLACEMENT_3D('MCS',#429,#346,#347);
#297=AXIS2_PLACEMENT_3D('',#430,#348,#349);
#298=AXIS2_PLACEMENT_3D('STEP_TEMP_EM15_1',#431,#350,#351);
#299=AXIS2_PLACEMENT_3D('',#432,#352,#353);
#300=AXIS2_PLACEMENT_3D('',#433,#354,#355);
#301=AXIS2_PLACEMENT_3D('',#434,#356,#357);
#302=AXIS2_PLACEMENT_3D('',#438,#359,#360);
#303=AXIS2_PLACEMENT_3D('',#442,#362,#363);
#304=AXIS2_PLACEMENT_3D('',#443,#364,#365);
#305=AXIS2_PLACEMENT_3D('',#444,#366,#367);
#306=AXIS2_PLACEMENT_3D('',#445,#368,#369);
#307=AXIS2_PLACEMENT_3D('',#446,#370,#371);
#308=AXIS2_PLACEMENT_3D('',#447,#372,#373);
#309=AXIS2_PLACEMENT_3D('',#448,#374,#375);
#310=AXIS2_PLACEMENT_3D('',#451,#376,#377);
#311=AXIS2_PLACEMENT_3D('',#452,#378,#379);
#312=AXIS2_PLACEMENT_3D('',#469,#380,#381);
#313=AXIS2_PLACEMENT_3D('',#486,#382,#383);
#314=AXIS2_PLACEMENT_3D('',#488,#384,#385);
#315=AXIS2_PLACEMENT_3D('',#489,#386,#387);
#316=AXIS2_PLACEMENT_3D('',#490,#388,#389);
#317=AXIS2_PLACEMENT_3D('',#494,#391,#392);
#318=AXIS2_PLACEMENT_3D('',#498,#394,#395);
#319=AXIS2_PLACEMENT_3D('',#499,#396,#397);
#320=AXIS2_PLACEMENT_3D('',#500,#398,#399);
#321=AXIS2_PLACEMENT_3D('',#501,#400,#401);
#322=AXIS2_PLACEMENT_3D('',#502,#402,#403);
#323=AXIS2_PLACEMENT_3D('',#503,#404,#405);
#324=AXIS2_PLACEMENT_3D('',#506,#407,#408);
#325=AXIS2_PLACEMENT_3D('',#509,#410,#411);
#326=AXIS2_PLACEMENT_3D('',#510,#412,#413);
#327=AXIS2_PLACEMENT_3D('',#511,#414,#415);
#328=AXIS2_PLACEMENT_3D('',#512,#416,#417);
#329=DIRECTION('',(0.,0.,1.));
#330=DIRECTION('',(1.,0.,0.));
#331=DIRECTION('',(0.,0.,1.));
#332=DIRECTION('',(1.,0.,0.));
#333=DIRECTION('',(0.,0.,-1.));
#334=DIRECTION('',(0.,1.,0.));
#335=DIRECTION('',(0.,0.,-1.));
#336=DIRECTION('',(0.,1.,0.));
#337=DIRECTION('',(-0.972602739726027,0.,-0.232473462307907));
#338=DIRECTION('',(0.,0.,1.));
#339=DIRECTION('',(1.,0.,0.));
#340=DIRECTION('',(0.,0.,1.));
#341=DIRECTION('',(1.,0.,0.));
#342=DIRECTION('',(0.,0.,1.));
#343=DIRECTION('',(1.,0.,0.));
#344=DIRECTION('',(0.,0.,1.));
#345=DIRECTION('',(1.,0.,0.));
#346=DIRECTION('',(0.,0.,1.));
#347=DIRECTION('',(1.,0.,0.));
#348=DIRECTION('',(0.,0.,1.));
#349=DIRECTION('',(1.,0.,0.));
#350=DIRECTION('',(0.,0.,1.));
#351=DIRECTION('',(1.,0.,0.));
#352=DIRECTION('',(0.,0.,1.));
#353=DIRECTION('',(1.,0.,0.));
#354=DIRECTION('',(0.,0.,1.));
#355=DIRECTION('',(1.,0.,0.));
#356=DIRECTION('',(0.,0.,1.));
#357=DIRECTION('',(1.,0.,0.));
#358=DIRECTION('',(0.,-6.477185043154E-14,-1.));
#359=DIRECTION('',(-3.1341796357E-14,0.,1.));
#360=DIRECTION('',(1.118403808251E-13,-1.,0.));
#361=DIRECTION('',(0.,6.170831696518E-14,-1.));
#362=DIRECTION('',(0.,0.,-1.));
#363=DIRECTION('',(0.,1.,0.));
#364=DIRECTION('',(0.,0.,-1.));
#365=DIRECTION('',(0.,1.,0.));
#366=DIRECTION('',(0.,0.,-1.));
#367=DIRECTION('',(0.,-1.,0.));
#368=DIRECTION('',(0.,0.,-1.));
#369=DIRECTION('',(1.,0.,0.));
#370=DIRECTION('',(3.1341796357E-14,0.,1.));
#371=DIRECTION('',(-1.117179161451E-13,1.,0.));
#372=DIRECTION('',(0.,0.,-1.));
#373=DIRECTION('',(0.,1.,0.));
#374=DIRECTION('',(-3.1341796357E-14,0.,-1.));
#375=DIRECTION('',(6.541490745011E-14,-1.,0.));
#376=DIRECTION('',(-1.,1.11854969731E-13,3.134176364785E-14));
#377=DIRECTION('',(-1.11854969731E-13,-1.,0.));
#378=DIRECTION('',(1.,-1.070254995739E-13,3.134176364785E-14));
#379=DIRECTION('',(1.070254995739E-13,1.,-1.42016028566578E-14));
#380=DIRECTION('',(3.1341796357E-14,0.,-1.));
#381=DIRECTION('',(-6.001420018217E-14,1.,0.));
#382=DIRECTION('',(1.,0.,0.));
#383=DIRECTION('',(0.,-0.972602739726005,-0.232473462308001));
#384=DIRECTION('',(-1.,0.,0.));
#385=DIRECTION('',(0.,0.972602739726005,-0.232473462308001));
#386=DIRECTION('',(0.,6.12323399573677E-17,-1.));
#387=DIRECTION('',(0.,1.,0.));
#388=DIRECTION('',(0.,6.12323399573677E-17,-1.));
#389=DIRECTION('',(0.,1.,0.));
#390=DIRECTION('',(0.,0.,-1.));
#391=DIRECTION('',(0.,0.,-1.));
#392=DIRECTION('',(0.,1.,0.));
#393=DIRECTION('',(0.,0.,-1.));
#394=DIRECTION('',(0.,0.,1.));
#395=DIRECTION('',(0.,-1.,0.));
#396=DIRECTION('',(0.,0.,-1.));
#397=DIRECTION('',(0.,1.,0.));
#398=DIRECTION('',(0.,0.,1.));
#399=DIRECTION('',(0.,1.,0.));
#400=DIRECTION('',(0.,0.,1.));
#401=DIRECTION('',(-1.,0.,0.));
#402=DIRECTION('',(0.,0.,-1.));
#403=DIRECTION('',(0.,-1.,0.));
#404=DIRECTION('',(0.,0.,-1.));
#405=DIRECTION('',(0.,1.,0.));
#406=DIRECTION('',(0.,0.707106781186547,0.707106781186547));
#407=DIRECTION('',(0.,0.,-1.));
#408=DIRECTION('',(0.,-1.,0.));
#409=DIRECTION('',(0.,-0.707106781186547,0.707106781186547));
#410=DIRECTION('',(0.,0.,-1.));
#411=DIRECTION('',(0.,1.,0.));
#412=DIRECTION('',(0.,0.,-1.));
#413=DIRECTION('',(0.,1.,0.));
#414=DIRECTION('',(0.,0.,-1.));
#415=DIRECTION('',(0.,1.,0.));
#416=DIRECTION('',(0.,0.,-1.));
#417=DIRECTION('',(0.,1.,0.));
#418=CARTESIAN_POINT('',(0.,0.,0.));
#419=CARTESIAN_POINT('CRP',(-4.,0.,0.));
#420=CARTESIAN_POINT('',(-4.,0.,18.97056274848));
#421=CARTESIAN_POINT('',(-4.,0.,21.));
#422=CARTESIAN_POINT('',(0.,0.,21.));
#423=CARTESIAN_POINT('',(0.,0.,2.));
#424=CARTESIAN_POINT('',(71.,0.,18.97056274848));
#425=CARTESIAN_POINT('',(0.,0.,0.));
#426=CARTESIAN_POINT('',(0.,0.,0.));
#427=CARTESIAN_POINT('',(0.,0.,0.));
#428=CARTESIAN_POINT('',(0.,0.,90.));
#429=CARTESIAN_POINT('',(0.,0.,66.));
#430=CARTESIAN_POINT('',(0.,0.,0.));
#431=CARTESIAN_POINT('',(0.,0.,0.));
#432=CARTESIAN_POINT('',(0.,0.,0.));
#433=CARTESIAN_POINT('',(0.,0.,0.));
#434=CARTESIAN_POINT('',(0.,0.,0.));
#435=CARTESIAN_POINT('',(0.,-4.,21.));
#436=CARTESIAN_POINT('',(0.,-4.,21.));
#437=CARTESIAN_POINT('',(0.,-4.,18.97056274848));
#438=CARTESIAN_POINT('',(-4.463818058609E-13,0.,18.97056274848));
#439=CARTESIAN_POINT('',(0.,4.,18.97056274848));
#440=CARTESIAN_POINT('',(0.,4.,21.));
#441=CARTESIAN_POINT('',(0.,4.,21.));
#442=CARTESIAN_POINT('',(0.,1.699388440516E-14,21.));
#443=CARTESIAN_POINT('',(0.,1.699388440516E-14,94.5));
#444=CARTESIAN_POINT('',(0.,1.699388440516E-14,21.));
#445=CARTESIAN_POINT('',(150.,150.,21.));
#446=CARTESIAN_POINT('',(4.463818058609E-13,0.,18.97056274848));
#447=CARTESIAN_POINT('',(0.,1.699388440516E-14,94.5));
#448=CARTESIAN_POINT('',(-1.000786715962E-13,0.,1.535044017118));
#449=CARTESIAN_POINT('',(-3.181583177825E-13,-1.945205479453,1.535053075387));
#450=CARTESIAN_POINT('',(3.078203163989E-13,1.945205479453,1.535053075387));
#451=CARTESIAN_POINT('',(8.3875850564E-12,71.00000000003,18.97056274848));
#452=CARTESIAN_POINT('',(-8.045636364815E-12,-71.00000000003,18.97056274848));
#453=CARTESIAN_POINT('',(6.65025080619715E-13,-1.94520331432696,1.53504401711853));
#454=CARTESIAN_POINT('',(-3.89040662864987,-1.94520331432566,1.53504401711853));
#455=CARTESIAN_POINT('',(-3.89040662864984,1.94520331432487,1.53504401711853));
#456=CARTESIAN_POINT('',(6.86770363390221E-13,1.94520331432613,1.53504401711852));
#457=CARTESIAN_POINT('',(2.15127745994107E-13,-3.3119149930307,7.25297319440398));
#458=CARTESIAN_POINT('',(-6.62382998605602,-3.31191499302849,7.25297319440399));
#459=CARTESIAN_POINT('',(-6.62382998605598,3.31191499302775,7.25297319440398));
#460=CARTESIAN_POINT('',(2.52151396686507E-13,3.31191499302989,7.25297319440397));
#461=CARTESIAN_POINT('',(-7.45939129007217E-15,-3.99999999999998,13.091564969168));
#462=CARTESIAN_POINT('',(-7.9999999999939,-3.9999999999973,13.091564969168));
#463=CARTESIAN_POINT('',(-7.99999999999386,3.9999999999966,13.091564969168));
#464=CARTESIAN_POINT('',(3.72563103753503E-14,3.99999999999918,13.0915649691679));
#465=CARTESIAN_POINT('',(3.23325266153156E-16,-3.99999999999984,18.9705627484801));
#466=CARTESIAN_POINT('',(-7.99999999999363,-3.99999999999716,18.9705627484801));
#467=CARTESIAN_POINT('',(-7.99999999999359,3.99999999999647,18.9705627484801));
#468=CARTESIAN_POINT('',(4.50390269315739E-14,3.99999999999906,18.9705627484801));
#469=CARTESIAN_POINT('',(1.000786715962E-13,0.,1.535044017118));
#470=CARTESIAN_POINT('',(-6.52837646109494E-13,1.94520331432693,1.53504401711843));
#471=CARTESIAN_POINT('',(3.89040662865064,1.94520331432565,1.53504401711844));
#472=CARTESIAN_POINT('',(3.89040662865061,-1.94520331432564,1.53504401711843));
#473=CARTESIAN_POINT('',(-6.86674016163127E-13,-1.94520331432686,1.53504401711843));
#474=CARTESIAN_POINT('',(-2.10831513944169E-13,3.31191499303069,7.25297319440391));
#475=CARTESIAN_POINT('',(6.62382998605687,3.31191499302851,7.25297319440392));
#476=CARTESIAN_POINT('',(6.62382998605681,-3.31191499302857,7.25297319440391));
#477=CARTESIAN_POINT('',(-2.68441523378656E-13,-3.31191499303063,7.2529731944039));
#478=CARTESIAN_POINT('',(7.78271655616767E-15,3.99999999999998,13.0915649691679));
#479=CARTESIAN_POINT('',(7.99999999999479,3.99999999999735,13.0915649691679));
#480=CARTESIAN_POINT('',(7.99999999999473,-3.99999999999744,13.0915649691679));
#481=CARTESIAN_POINT('',(-6.17963753658352E-14,-3.99999999999993,13.0915649691679));
#482=CARTESIAN_POINT('',(-5.67979851759129E-26,3.99999999999984,18.9705627484801));
#483=CARTESIAN_POINT('',(7.99999999999452,3.99999999999721,18.9705627484801));
#484=CARTESIAN_POINT('',(7.99999999999445,-3.99999999999732,18.9705627484801));
#485=CARTESIAN_POINT('',(-6.95790919220572E-14,-3.99999999999981,18.9705627484801));
#486=CARTESIAN_POINT('',(0.,0.,2.));
#487=CARTESIAN_POINT('',(0.,0.,0.));
#488=CARTESIAN_POINT('',(0.,0.,2.));
#489=CARTESIAN_POINT('',(0.,0.,2.));
#490=CARTESIAN_POINT('',(0.,0.,2.));
#491=CARTESIAN_POINT('',(0.,4.,89.5));
#492=CARTESIAN_POINT('',(0.,4.,89.5));
#493=CARTESIAN_POINT('',(0.,4.,21.));
#494=CARTESIAN_POINT('',(0.,1.612132356077E-14,89.5));
#495=CARTESIAN_POINT('',(0.,-4.,89.5));
#496=CARTESIAN_POINT('',(0.,-4.,89.5));
#497=CARTESIAN_POINT('',(0.,-4.,21.));
#498=CARTESIAN_POINT('',(0.,1.699388440516E-14,21.));
#499=CARTESIAN_POINT('',(0.,1.699388440516E-14,94.5));
#500=CARTESIAN_POINT('',(0.,1.699388440516E-14,21.));
#501=CARTESIAN_POINT('',(-150.,150.,21.));
#502=CARTESIAN_POINT('',(0.,1.612132356077E-14,89.5));
#503=CARTESIAN_POINT('',(0.,1.699388440516E-14,94.5));
#504=CARTESIAN_POINT('',(0.,-3.5,90.));
#505=CARTESIAN_POINT('',(0.,-3.5,90.));
#506=CARTESIAN_POINT('',(0.,1.612132356077E-14,90.));
#507=CARTESIAN_POINT('',(0.,3.5,90.));
#508=CARTESIAN_POINT('',(0.,3.5,90.));
#509=CARTESIAN_POINT('',(0.,1.612132356077E-14,89.75));
#510=CARTESIAN_POINT('',(0.,1.612132356077E-14,90.));
#511=CARTESIAN_POINT('',(0.,1.612132356077E-14,89.75));
#512=CARTESIAN_POINT('',(0.,1.616724781574E-14,90.));
#513=MECHANICAL_DESIGN_GEOMETRIC_PRESENTATION_REPRESENTATION('',(#246,#247,
#248,#249,#250,#251,#252,#253,#254,#255,#256,#257,#258,#259,#260,#261,#262,
#263),#514);
#514=(
GEOMETRIC_REPRESENTATION_CONTEXT(3)
GLOBAL_UNCERTAINTY_ASSIGNED_CONTEXT((#515))
GLOBAL_UNIT_ASSIGNED_CONTEXT((#521,#517,#516))
REPRESENTATION_CONTEXT('VQT6URR020R075S08','TOP_LEVEL_ASSEMBLY_PART')
);
#515=UNCERTAINTY_MEASURE_WITH_UNIT(LENGTH_MEASURE(0.0254),#521,
'DISTANCE_ACCURACY_VALUE','Maximum Tolerance applied to model');
#516=(
NAMED_UNIT(*)
SI_UNIT($,.STERADIAN.)
SOLID_ANGLE_UNIT()
);
#517=(
CONVERSION_BASED_UNIT('DEGREE',#519)
NAMED_UNIT(#518)
PLANE_ANGLE_UNIT()
);
#518=DIMENSIONAL_EXPONENTS(0.,0.,0.,0.,0.,0.,0.);
#519=PLANE_ANGLE_MEASURE_WITH_UNIT(PLANE_ANGLE_MEASURE(0.0174532925),#520);
#520=(
NAMED_UNIT(*)
PLANE_ANGLE_UNIT()
SI_UNIT($,.RADIAN.)
);
#521=(
LENGTH_UNIT()
NAMED_UNIT(*)
SI_UNIT(.MILLI.,.METRE.)
);
ENDSEC;
END-ISO-10303-21;
