ISO-10303-21;
HEADER;
/* Generated by software containing ST-Developer
 * from STEP Tools, Inc. (www.steptools.com) 
 */
/* OPTION: using custom schema-name function */

FILE_DESCRIPTION(
/* description */ (''),
/* implementation_level */ '2;1');

FILE_NAME(
/* name */ 'VFR2SBR0010S06.stp',
/* time_stamp */ '2023-03-17T09:18:03+09:00',
/* author */ (''),
/* organization */ (''),
/* preprocessor_version */ 'ST-DEVELOPER v16',
/* originating_system */ 'SIEMENS PLM Software NX 10.0',
/* authorisation */ '');

FILE_SCHEMA (('AUTOMOTIVE_DESIGN { 1 0 10303 214 3 1 1 1 }'));
ENDSEC;

DATA;
#10=CONSTRUCTIVE_GEOMETRY_REPRESENTATION_RELATIONSHIP(
'supplemental geometry','',#26,#11);
#11=CONSTRUCTIVE_GEOMETRY_REPRESENTATION('supplemental geometry',(#397,
#398,#399,#400,#401,#402,#403,#404,#405,#406),#680);
#12=GEOMETRICALLY_BOUNDED_WIREFRAME_SHAPE_REPRESENTATION(
'VFR2SBR0010S06-None',(#27),#680);
#13=SHAPE_REPRESENTATION_RELATIONSHIP('None',
'relationship between VFR2SBR0010S06-None and VFR2SBR0010S06-None',#26,
#15);
#14=SHAPE_REPRESENTATION_RELATIONSHIP('None',
'relationship between VFR2SBR0010S06-None and VFR2SBR0010S06-None',#26,
#12);
#15=ADVANCED_BREP_SHAPE_REPRESENTATION('VFR2SBR0010S06-None',(#48,#49),
#680);
#16=SHAPE_DEFINITION_REPRESENTATION(#17,#26);
#17=PRODUCT_DEFINITION_SHAPE('','SHAPE FOR VFR2SBR0010S06_ASM.',#18);
#18=PRODUCT_DEFINITION('part definition','',#20,#19);
#19=PRODUCT_DEFINITION_CONTEXT('part definition',#25,'design');
#20=PRODUCT_DEFINITION_FORMATION_WITH_SPECIFIED_SOURCE(' ',' ',#22,
 .NOT_KNOWN.);
#21=PRODUCT_RELATED_PRODUCT_CATEGORY('part','',(#22));
#22=PRODUCT('VFR2SBR0010S06_ASM','VFR2SBR0010S06_ASM','NOT SPECIFIED',(#23));
#23=PRODUCT_CONTEXT('',#25,'mechanical');
#24=APPLICATION_PROTOCOL_DEFINITION('international standard',
'automotive_design',2010,#25);
#25=APPLICATION_CONTEXT(
'core data for automotive mechanical design processes');
#26=SHAPE_REPRESENTATION('VFR2SBR0010S06-None',(#395),#680);
#27=GEOMETRIC_CURVE_SET('None',(#584,#314,#315,#316,#317));
#28=TOROIDAL_SURFACE('',#432,2.085,2.);
#29=TOROIDAL_SURFACE('',#434,2.085,2.);
#30=CONICAL_SURFACE('',#420,0.0925,45.00000000001);
#31=CONICAL_SURFACE('',#424,0.0925,45.00000000001);
#32=CONICAL_SURFACE('',#436,1.107462123211,10.);
#33=CONICAL_SURFACE('',#438,1.107462123211,10.);
#34=CONICAL_SURFACE('',#440,2.549769876225,20.);
#35=CONICAL_SURFACE('',#442,2.549769876225,20.);
#36=CONICAL_SURFACE('',#448,2.75,45.);
#37=CONICAL_SURFACE('',#450,2.75,45.);
#38=SURFACE_STYLE_USAGE(.BOTH.,#40);
#39=SURFACE_STYLE_USAGE(.BOTH.,#41);
#40=SURFACE_SIDE_STYLE('',(#42));
#41=SURFACE_SIDE_STYLE('',(#43));
#42=SURFACE_STYLE_FILL_AREA(#44);
#43=SURFACE_STYLE_FILL_AREA(#45);
#44=FILL_AREA_STYLE('',(#46));
#45=FILL_AREA_STYLE('',(#47));
#46=FILL_AREA_STYLE_COLOUR('',#393);
#47=FILL_AREA_STYLE_COLOUR('',#394);
#48=MANIFOLD_SOLID_BREP('CUT',#50);
#49=MANIFOLD_SOLID_BREP('NOCUT',#51);
#50=CLOSED_SHELL('',(#57,#58,#59,#60,#61));
#51=CLOSED_SHELL('',(#62,#63,#64,#65,#66,#67,#68,#69,#70,#71,#72,#73,#74,
#75,#76,#77));
#52=SPHERICAL_SURFACE('',#416,0.1);
#53=SPHERICAL_SURFACE('',#417,0.1);
#54=PLANE('',#411);
#55=PLANE('',#422);
#56=PLANE('',#451);
#57=ADVANCED_FACE('',(#84),#78,.T.);
#58=ADVANCED_FACE('',(#85),#54,.F.);
#59=ADVANCED_FACE('',(#86),#79,.T.);
#60=ADVANCED_FACE('',(#87),#52,.T.);
#61=ADVANCED_FACE('',(#88),#53,.T.);
#62=ADVANCED_FACE('',(#89),#30,.T.);
#63=ADVANCED_FACE('',(#90),#55,.F.);
#64=ADVANCED_FACE('',(#91),#31,.T.);
#65=ADVANCED_FACE('',(#92),#80,.T.);
#66=ADVANCED_FACE('',(#93),#81,.T.);
#67=ADVANCED_FACE('',(#94),#28,.F.);
#68=ADVANCED_FACE('',(#95),#29,.F.);
#69=ADVANCED_FACE('',(#96),#32,.T.);
#70=ADVANCED_FACE('',(#97),#33,.T.);
#71=ADVANCED_FACE('',(#98),#34,.T.);
#72=ADVANCED_FACE('',(#99),#35,.T.);
#73=ADVANCED_FACE('',(#100),#82,.T.);
#74=ADVANCED_FACE('',(#101),#83,.T.);
#75=ADVANCED_FACE('',(#102),#36,.T.);
#76=ADVANCED_FACE('',(#103),#37,.T.);
#77=ADVANCED_FACE('',(#104),#56,.F.);
#78=CYLINDRICAL_SURFACE('',#409,0.1);
#79=CYLINDRICAL_SURFACE('',#413,0.1);
#80=CYLINDRICAL_SURFACE('',#426,0.085);
#81=CYLINDRICAL_SURFACE('',#428,0.085);
#82=CYLINDRICAL_SURFACE('',#444,3.);
#83=CYLINDRICAL_SURFACE('',#446,3.);
#84=FACE_OUTER_BOUND('',#105,.T.);
#85=FACE_OUTER_BOUND('',#106,.T.);
#86=FACE_OUTER_BOUND('',#107,.T.);
#87=FACE_OUTER_BOUND('',#108,.T.);
#88=FACE_OUTER_BOUND('',#109,.T.);
#89=FACE_OUTER_BOUND('',#110,.T.);
#90=FACE_OUTER_BOUND('',#111,.T.);
#91=FACE_OUTER_BOUND('',#112,.T.);
#92=FACE_OUTER_BOUND('',#113,.T.);
#93=FACE_OUTER_BOUND('',#114,.T.);
#94=FACE_OUTER_BOUND('',#115,.T.);
#95=FACE_OUTER_BOUND('',#116,.T.);
#96=FACE_OUTER_BOUND('',#117,.T.);
#97=FACE_OUTER_BOUND('',#118,.T.);
#98=FACE_OUTER_BOUND('',#119,.T.);
#99=FACE_OUTER_BOUND('',#120,.T.);
#100=FACE_OUTER_BOUND('',#121,.T.);
#101=FACE_OUTER_BOUND('',#122,.T.);
#102=FACE_OUTER_BOUND('',#123,.T.);
#103=FACE_OUTER_BOUND('',#124,.T.);
#104=FACE_OUTER_BOUND('',#125,.T.);
#105=EDGE_LOOP('',(#126,#127,#128,#129));
#106=EDGE_LOOP('',(#130,#131));
#107=EDGE_LOOP('',(#132,#133,#134,#135));
#108=EDGE_LOOP('',(#136,#137,#138));
#109=EDGE_LOOP('',(#139,#140,#141));
#110=EDGE_LOOP('',(#142,#143,#144,#145));
#111=EDGE_LOOP('',(#146,#147));
#112=EDGE_LOOP('',(#148,#149,#150,#151));
#113=EDGE_LOOP('',(#152,#153,#154,#155));
#114=EDGE_LOOP('',(#156,#157,#158,#159));
#115=EDGE_LOOP('',(#160,#161,#162,#163));
#116=EDGE_LOOP('',(#164,#165,#166,#167));
#117=EDGE_LOOP('',(#168,#169,#170,#171));
#118=EDGE_LOOP('',(#172,#173,#174,#175));
#119=EDGE_LOOP('',(#176,#177,#178,#179));
#120=EDGE_LOOP('',(#180,#181,#182,#183));
#121=EDGE_LOOP('',(#184,#185,#186,#187));
#122=EDGE_LOOP('',(#188,#189,#190,#191));
#123=EDGE_LOOP('',(#192,#193,#194,#195));
#124=EDGE_LOOP('',(#196,#197,#198,#199));
#125=EDGE_LOOP('',(#200,#201));
#126=ORIENTED_EDGE('',*,*,#223,.T.);
#127=ORIENTED_EDGE('',*,*,#224,.T.);
#128=ORIENTED_EDGE('',*,*,#225,.F.);
#129=ORIENTED_EDGE('',*,*,#226,.T.);
#130=ORIENTED_EDGE('',*,*,#227,.F.);
#131=ORIENTED_EDGE('',*,*,#226,.F.);
#132=ORIENTED_EDGE('',*,*,#225,.T.);
#133=ORIENTED_EDGE('',*,*,#228,.T.);
#134=ORIENTED_EDGE('',*,*,#223,.F.);
#135=ORIENTED_EDGE('',*,*,#227,.T.);
#136=ORIENTED_EDGE('',*,*,#229,.T.);
#137=ORIENTED_EDGE('',*,*,#228,.F.);
#138=ORIENTED_EDGE('',*,*,#230,.F.);
#139=ORIENTED_EDGE('',*,*,#224,.F.);
#140=ORIENTED_EDGE('',*,*,#229,.F.);
#141=ORIENTED_EDGE('',*,*,#230,.T.);
#142=ORIENTED_EDGE('',*,*,#231,.F.);
#143=ORIENTED_EDGE('',*,*,#232,.F.);
#144=ORIENTED_EDGE('',*,*,#233,.T.);
#145=ORIENTED_EDGE('',*,*,#234,.T.);
#146=ORIENTED_EDGE('',*,*,#235,.F.);
#147=ORIENTED_EDGE('',*,*,#234,.F.);
#148=ORIENTED_EDGE('',*,*,#233,.F.);
#149=ORIENTED_EDGE('',*,*,#236,.F.);
#150=ORIENTED_EDGE('',*,*,#231,.T.);
#151=ORIENTED_EDGE('',*,*,#235,.T.);
#152=ORIENTED_EDGE('',*,*,#236,.T.);
#153=ORIENTED_EDGE('',*,*,#237,.T.);
#154=ORIENTED_EDGE('',*,*,#238,.T.);
#155=ORIENTED_EDGE('',*,*,#239,.F.);
#156=ORIENTED_EDGE('',*,*,#240,.T.);
#157=ORIENTED_EDGE('',*,*,#237,.F.);
#158=ORIENTED_EDGE('',*,*,#232,.T.);
#159=ORIENTED_EDGE('',*,*,#239,.T.);
#160=ORIENTED_EDGE('',*,*,#241,.F.);
#161=ORIENTED_EDGE('',*,*,#242,.T.);
#162=ORIENTED_EDGE('',*,*,#240,.F.);
#163=ORIENTED_EDGE('',*,*,#243,.F.);
#164=ORIENTED_EDGE('',*,*,#238,.F.);
#165=ORIENTED_EDGE('',*,*,#242,.F.);
#166=ORIENTED_EDGE('',*,*,#244,.F.);
#167=ORIENTED_EDGE('',*,*,#243,.T.);
#168=ORIENTED_EDGE('',*,*,#244,.T.);
#169=ORIENTED_EDGE('',*,*,#245,.T.);
#170=ORIENTED_EDGE('',*,*,#246,.T.);
#171=ORIENTED_EDGE('',*,*,#247,.F.);
#172=ORIENTED_EDGE('',*,*,#248,.F.);
#173=ORIENTED_EDGE('',*,*,#245,.F.);
#174=ORIENTED_EDGE('',*,*,#241,.T.);
#175=ORIENTED_EDGE('',*,*,#247,.T.);
#176=ORIENTED_EDGE('',*,*,#249,.F.);
#177=ORIENTED_EDGE('',*,*,#250,.T.);
#178=ORIENTED_EDGE('',*,*,#248,.T.);
#179=ORIENTED_EDGE('',*,*,#251,.F.);
#180=ORIENTED_EDGE('',*,*,#246,.F.);
#181=ORIENTED_EDGE('',*,*,#250,.F.);
#182=ORIENTED_EDGE('',*,*,#252,.F.);
#183=ORIENTED_EDGE('',*,*,#251,.T.);
#184=ORIENTED_EDGE('',*,*,#252,.T.);
#185=ORIENTED_EDGE('',*,*,#253,.T.);
#186=ORIENTED_EDGE('',*,*,#254,.T.);
#187=ORIENTED_EDGE('',*,*,#255,.F.);
#188=ORIENTED_EDGE('',*,*,#256,.T.);
#189=ORIENTED_EDGE('',*,*,#253,.F.);
#190=ORIENTED_EDGE('',*,*,#249,.T.);
#191=ORIENTED_EDGE('',*,*,#255,.T.);
#192=ORIENTED_EDGE('',*,*,#257,.T.);
#193=ORIENTED_EDGE('',*,*,#258,.T.);
#194=ORIENTED_EDGE('',*,*,#256,.F.);
#195=ORIENTED_EDGE('',*,*,#259,.F.);
#196=ORIENTED_EDGE('',*,*,#254,.F.);
#197=ORIENTED_EDGE('',*,*,#258,.F.);
#198=ORIENTED_EDGE('',*,*,#260,.T.);
#199=ORIENTED_EDGE('',*,*,#259,.T.);
#200=ORIENTED_EDGE('',*,*,#257,.F.);
#201=ORIENTED_EDGE('',*,*,#260,.F.);
#202=VERTEX_POINT('',#600);
#203=VERTEX_POINT('',#601);
#204=VERTEX_POINT('',#603);
#205=VERTEX_POINT('',#605);
#206=VERTEX_POINT('',#613);
#207=VERTEX_POINT('',#618);
#208=VERTEX_POINT('',#619);
#209=VERTEX_POINT('',#621);
#210=VERTEX_POINT('',#623);
#211=VERTEX_POINT('',#631);
#212=VERTEX_POINT('',#633);
#213=VERTEX_POINT('',#639);
#214=VERTEX_POINT('',#640);
#215=VERTEX_POINT('',#647);
#216=VERTEX_POINT('',#649);
#217=VERTEX_POINT('',#655);
#218=VERTEX_POINT('',#656);
#219=VERTEX_POINT('',#663);
#220=VERTEX_POINT('',#665);
#221=VERTEX_POINT('',#671);
#222=VERTEX_POINT('',#672);
#223=EDGE_CURVE('',#202,#203,#321,.T.);
#224=EDGE_CURVE('',#203,#204,#262,.T.);
#225=EDGE_CURVE('',#205,#204,#322,.T.);
#226=EDGE_CURVE('',#205,#202,#263,.T.);
#227=EDGE_CURVE('',#202,#205,#264,.T.);
#228=EDGE_CURVE('',#204,#203,#265,.T.);
#229=EDGE_CURVE('',#206,#203,#266,.T.);
#230=EDGE_CURVE('',#206,#204,#267,.T.);
#231=EDGE_CURVE('',#207,#208,#323,.T.);
#232=EDGE_CURVE('',#209,#207,#268,.T.);
#233=EDGE_CURVE('',#209,#210,#324,.T.);
#234=EDGE_CURVE('',#210,#208,#269,.T.);
#235=EDGE_CURVE('',#208,#210,#270,.T.);
#236=EDGE_CURVE('',#207,#209,#271,.T.);
#237=EDGE_CURVE('',#209,#211,#325,.T.);
#238=EDGE_CURVE('',#211,#212,#272,.T.);
#239=EDGE_CURVE('',#207,#212,#326,.T.);
#240=EDGE_CURVE('',#212,#211,#273,.T.);
#241=EDGE_CURVE('',#213,#214,#274,.T.);
#242=EDGE_CURVE('',#213,#211,#275,.T.);
#243=EDGE_CURVE('',#214,#212,#276,.T.);
#244=EDGE_CURVE('',#214,#213,#277,.T.);
#245=EDGE_CURVE('',#213,#215,#327,.T.);
#246=EDGE_CURVE('',#215,#216,#278,.T.);
#247=EDGE_CURVE('',#214,#216,#328,.T.);
#248=EDGE_CURVE('',#215,#216,#279,.T.);
#249=EDGE_CURVE('',#217,#218,#280,.T.);
#250=EDGE_CURVE('',#217,#215,#329,.T.);
#251=EDGE_CURVE('',#218,#216,#330,.T.);
#252=EDGE_CURVE('',#218,#217,#281,.T.);
#253=EDGE_CURVE('',#217,#219,#331,.T.);
#254=EDGE_CURVE('',#219,#220,#282,.T.);
#255=EDGE_CURVE('',#218,#220,#332,.T.);
#256=EDGE_CURVE('',#220,#219,#283,.T.);
#257=EDGE_CURVE('',#221,#222,#284,.T.);
#258=EDGE_CURVE('',#222,#219,#333,.T.);
#259=EDGE_CURVE('',#221,#220,#334,.T.);
#260=EDGE_CURVE('',#222,#221,#285,.T.);
#261=CIRCLE('',#396,0.1);
#262=CIRCLE('',#407,0.1);
#263=CIRCLE('',#408,0.1);
#264=CIRCLE('',#410,0.1);
#265=CIRCLE('',#412,0.1);
#266=CIRCLE('',#414,0.1);
#267=CIRCLE('',#415,0.1);
#268=CIRCLE('',#418,0.085);
#269=CIRCLE('',#419,0.1);
#270=CIRCLE('',#421,0.1);
#271=CIRCLE('',#423,0.085);
#272=CIRCLE('',#425,0.085);
#273=CIRCLE('',#427,0.085);
#274=CIRCLE('',#429,0.1153844939756);
#275=CIRCLE('',#430,2.);
#276=CIRCLE('',#431,2.);
#277=CIRCLE('',#433,0.1153844939756);
#278=CIRCLE('',#435,2.099539752448);
#279=CIRCLE('',#437,2.099539752447);
#280=CIRCLE('',#439,3.000000000001);
#281=CIRCLE('',#441,3.000000000001);
#282=CIRCLE('',#443,3.);
#283=CIRCLE('',#445,3.);
#284=CIRCLE('',#447,2.5);
#285=CIRCLE('',#449,2.5);
#286=CURVE_STYLE('',#300,POSITIVE_LENGTH_MEASURE(0.18),#390);
#287=CURVE_STYLE('',#301,POSITIVE_LENGTH_MEASURE(0.18),#390);
#288=CURVE_STYLE('',#302,POSITIVE_LENGTH_MEASURE(0.18),#390);
#289=CURVE_STYLE('',#303,POSITIVE_LENGTH_MEASURE(0.18),#390);
#290=CURVE_STYLE('',#304,POSITIVE_LENGTH_MEASURE(0.13),#391);
#291=CURVE_STYLE('',#305,POSITIVE_LENGTH_MEASURE(0.13),#391);
#292=CURVE_STYLE('',#306,POSITIVE_LENGTH_MEASURE(0.13),#392);
#293=CURVE_STYLE('',#307,POSITIVE_LENGTH_MEASURE(0.13),#392);
#294=CURVE_STYLE('',#308,POSITIVE_LENGTH_MEASURE(0.13),#391);
#295=CURVE_STYLE('',#309,POSITIVE_LENGTH_MEASURE(0.13),#391);
#296=CURVE_STYLE('',#310,POSITIVE_LENGTH_MEASURE(0.13),#392);
#297=CURVE_STYLE('',#311,POSITIVE_LENGTH_MEASURE(0.13),#391);
#298=CURVE_STYLE('',#312,POSITIVE_LENGTH_MEASURE(0.13),#391);
#299=CURVE_STYLE('',#313,POSITIVE_LENGTH_MEASURE(0.13),#391);
#300=DRAUGHTING_PRE_DEFINED_CURVE_FONT('continuous');
#301=DRAUGHTING_PRE_DEFINED_CURVE_FONT('continuous');
#302=DRAUGHTING_PRE_DEFINED_CURVE_FONT('continuous');
#303=DRAUGHTING_PRE_DEFINED_CURVE_FONT('continuous');
#304=DRAUGHTING_PRE_DEFINED_CURVE_FONT('continuous');
#305=DRAUGHTING_PRE_DEFINED_CURVE_FONT('continuous');
#306=DRAUGHTING_PRE_DEFINED_CURVE_FONT('continuous');
#307=DRAUGHTING_PRE_DEFINED_CURVE_FONT('continuous');
#308=DRAUGHTING_PRE_DEFINED_CURVE_FONT('continuous');
#309=DRAUGHTING_PRE_DEFINED_CURVE_FONT('continuous');
#310=DRAUGHTING_PRE_DEFINED_CURVE_FONT('continuous');
#311=DRAUGHTING_PRE_DEFINED_CURVE_FONT('continuous');
#312=DRAUGHTING_PRE_DEFINED_CURVE_FONT('continuous');
#313=DRAUGHTING_PRE_DEFINED_CURVE_FONT('continuous');
#314=TRIMMED_CURVE('',#318,(PARAMETER_VALUE(0.)),(PARAMETER_VALUE(1.)),
 .T.,.PARAMETER.);
#315=TRIMMED_CURVE('',#319,(PARAMETER_VALUE(0.)),(PARAMETER_VALUE(1.)),
 .T.,.PARAMETER.);
#316=TRIMMED_CURVE('',#320,(PARAMETER_VALUE(0.)),(PARAMETER_VALUE(1.)),
 .T.,.PARAMETER.);
#317=TRIMMED_CURVE('',#261,(PARAMETER_VALUE(0.)),(PARAMETER_VALUE(90.)),
 .T.,.PARAMETER.);
#318=LINE('',#585,#335);
#319=LINE('',#586,#336);
#320=LINE('',#587,#337);
#321=LINE('',#599,#338);
#322=LINE('',#604,#339);
#323=LINE('',#617,#340);
#324=LINE('',#622,#341);
#325=LINE('',#630,#342);
#326=LINE('',#634,#343);
#327=LINE('',#646,#344);
#328=LINE('',#650,#345);
#329=LINE('',#657,#346);
#330=LINE('',#658,#347);
#331=LINE('',#662,#348);
#332=LINE('',#666,#349);
#333=LINE('',#673,#350);
#334=LINE('',#674,#351);
#335=VECTOR('',#454,0.1);
#336=VECTOR('',#455,0.1);
#337=VECTOR('',#456,0.2);
#338=VECTOR('',#479,1.);
#339=VECTOR('',#482,1.);
#340=VECTOR('',#503,1.);
#341=VECTOR('',#506,1.);
#342=VECTOR('',#519,1.);
#343=VECTOR('',#522,1.);
#344=VECTOR('',#541,1.);
#345=VECTOR('',#544,1.);
#346=VECTOR('',#553,1.);
#347=VECTOR('',#554,1.);
#348=VECTOR('',#561,1.);
#349=VECTOR('',#564,1.);
#350=VECTOR('',#573,1.);
#351=VECTOR('',#574,1.);
#352=PRESENTATION_LAYER_ASSIGNMENT('1','Layer 1',(#584,#314,#315,#316,#317,
#397,#398,#401,#402,#403,#404,#405,#406,#48,#49));
#353=PRESENTATION_LAYER_ASSIGNMENT('2','Layer 2',(#399,#400));
#354=STYLED_ITEM('',(#371),#584);
#355=STYLED_ITEM('',(#372),#314);
#356=STYLED_ITEM('',(#373),#315);
#357=STYLED_ITEM('',(#374),#316);
#358=STYLED_ITEM('',(#375),#317);
#359=STYLED_ITEM('',(#376),#397);
#360=STYLED_ITEM('',(#377),#398);
#361=STYLED_ITEM('',(#378),#399);
#362=STYLED_ITEM('',(#379),#400);
#363=STYLED_ITEM('',(#380),#401);
#364=STYLED_ITEM('',(#381),#402);
#365=STYLED_ITEM('',(#382),#403);
#366=STYLED_ITEM('',(#383),#404);
#367=STYLED_ITEM('',(#384),#405);
#368=STYLED_ITEM('',(#385),#406);
#369=STYLED_ITEM('',(#386),#48);
#370=STYLED_ITEM('',(#387),#49);
#371=PRESENTATION_STYLE_ASSIGNMENT((#388));
#372=PRESENTATION_STYLE_ASSIGNMENT((#286));
#373=PRESENTATION_STYLE_ASSIGNMENT((#287));
#374=PRESENTATION_STYLE_ASSIGNMENT((#288));
#375=PRESENTATION_STYLE_ASSIGNMENT((#289));
#376=PRESENTATION_STYLE_ASSIGNMENT((#290));
#377=PRESENTATION_STYLE_ASSIGNMENT((#291));
#378=PRESENTATION_STYLE_ASSIGNMENT((#292));
#379=PRESENTATION_STYLE_ASSIGNMENT((#293));
#380=PRESENTATION_STYLE_ASSIGNMENT((#294));
#381=PRESENTATION_STYLE_ASSIGNMENT((#295));
#382=PRESENTATION_STYLE_ASSIGNMENT((#296));
#383=PRESENTATION_STYLE_ASSIGNMENT((#297));
#384=PRESENTATION_STYLE_ASSIGNMENT((#298));
#385=PRESENTATION_STYLE_ASSIGNMENT((#299));
#386=PRESENTATION_STYLE_ASSIGNMENT((#38));
#387=PRESENTATION_STYLE_ASSIGNMENT((#39));
#388=POINT_STYLE('',#389,POSITIVE_LENGTH_MEASURE(3.),#390);
#389=PRE_DEFINED_POINT_MARKER_SYMBOL('plus');
#390=COLOUR_RGB('Medium Royal',0.2,0.4,0.8);
#391=COLOUR_RGB('Strong Stone',0.576470588235294,0.54508278019379,0.392156862745098);
#392=COLOUR_RGB('Medium Umber',0.372533760585946,0.313725490196078,0.270572976272221);
#393=COLOUR_RGB('cutting part',0.8,0.8,0.8);
#394=COLOUR_RGB('non-cutting part and shank',0.501960784313725,0.501960784313725,
0.501960784313725);
#395=AXIS2_PLACEMENT_3D('',#583,#452,#453);
#396=AXIS2_PLACEMENT_3D('',#588,#457,#458);
#397=AXIS2_PLACEMENT_3D('',#589,#459,#460);
#398=AXIS2_PLACEMENT_3D('',#590,#461,#462);
#399=AXIS2_PLACEMENT_3D('CIP',#591,#463,#464);
#400=AXIS2_PLACEMENT_3D('PCS',#592,#465,#466);
#401=AXIS2_PLACEMENT_3D('MCS',#593,#467,#468);
#402=AXIS2_PLACEMENT_3D('',#594,#469,#470);
#403=AXIS2_PLACEMENT_3D('STEP_TEMP_EM19_1',#595,#471,#472);
#404=AXIS2_PLACEMENT_3D('',#596,#473,#474);
#405=AXIS2_PLACEMENT_3D('',#597,#475,#476);
#406=AXIS2_PLACEMENT_3D('',#598,#477,#478);
#407=AXIS2_PLACEMENT_3D('',#602,#480,#481);
#408=AXIS2_PLACEMENT_3D('',#606,#483,#484);
#409=AXIS2_PLACEMENT_3D('',#607,#485,#486);
#410=AXIS2_PLACEMENT_3D('',#608,#487,#488);
#411=AXIS2_PLACEMENT_3D('',#609,#489,#490);
#412=AXIS2_PLACEMENT_3D('',#610,#491,#492);
#413=AXIS2_PLACEMENT_3D('',#611,#493,#494);
#414=AXIS2_PLACEMENT_3D('',#612,#495,#496);
#415=AXIS2_PLACEMENT_3D('',#614,#497,#498);
#416=AXIS2_PLACEMENT_3D('',#615,#499,#500);
#417=AXIS2_PLACEMENT_3D('',#616,#501,#502);
#418=AXIS2_PLACEMENT_3D('',#620,#504,#505);
#419=AXIS2_PLACEMENT_3D('',#624,#507,#508);
#420=AXIS2_PLACEMENT_3D('',#625,#509,#510);
#421=AXIS2_PLACEMENT_3D('',#626,#511,#512);
#422=AXIS2_PLACEMENT_3D('',#627,#513,#514);
#423=AXIS2_PLACEMENT_3D('',#628,#515,#516);
#424=AXIS2_PLACEMENT_3D('',#629,#517,#518);
#425=AXIS2_PLACEMENT_3D('',#632,#520,#521);
#426=AXIS2_PLACEMENT_3D('',#635,#523,#524);
#427=AXIS2_PLACEMENT_3D('',#636,#525,#526);
#428=AXIS2_PLACEMENT_3D('',#637,#527,#528);
#429=AXIS2_PLACEMENT_3D('',#638,#529,#530);
#430=AXIS2_PLACEMENT_3D('',#641,#531,#532);
#431=AXIS2_PLACEMENT_3D('',#642,#533,#534);
#432=AXIS2_PLACEMENT_3D('',#643,#535,#536);
#433=AXIS2_PLACEMENT_3D('',#644,#537,#538);
#434=AXIS2_PLACEMENT_3D('',#645,#539,#540);
#435=AXIS2_PLACEMENT_3D('',#648,#542,#543);
#436=AXIS2_PLACEMENT_3D('',#651,#545,#546);
#437=AXIS2_PLACEMENT_3D('',#652,#547,#548);
#438=AXIS2_PLACEMENT_3D('',#653,#549,#550);
#439=AXIS2_PLACEMENT_3D('',#654,#551,#552);
#440=AXIS2_PLACEMENT_3D('',#659,#555,#556);
#441=AXIS2_PLACEMENT_3D('',#660,#557,#558);
#442=AXIS2_PLACEMENT_3D('',#661,#559,#560);
#443=AXIS2_PLACEMENT_3D('',#664,#562,#563);
#444=AXIS2_PLACEMENT_3D('',#667,#565,#566);
#445=AXIS2_PLACEMENT_3D('',#668,#567,#568);
#446=AXIS2_PLACEMENT_3D('',#669,#569,#570);
#447=AXIS2_PLACEMENT_3D('',#670,#571,#572);
#448=AXIS2_PLACEMENT_3D('',#675,#575,#576);
#449=AXIS2_PLACEMENT_3D('',#676,#577,#578);
#450=AXIS2_PLACEMENT_3D('',#677,#579,#580);
#451=AXIS2_PLACEMENT_3D('',#678,#581,#582);
#452=DIRECTION('',(0.,0.,1.));
#453=DIRECTION('',(1.,0.,0.));
#454=DIRECTION('',(0.,0.,1.));
#455=DIRECTION('',(1.,0.,0.));
#456=DIRECTION('',(0.,0.,-1.));
#457=DIRECTION('',(0.,1.,0.));
#458=DIRECTION('',(0.,0.,-1.));
#459=DIRECTION('',(0.,0.,1.));
#460=DIRECTION('',(1.,0.,0.));
#461=DIRECTION('',(0.,0.,1.));
#462=DIRECTION('',(1.,0.,0.));
#463=DIRECTION('',(0.,0.,1.));
#464=DIRECTION('',(1.,0.,0.));
#465=DIRECTION('',(0.,0.,1.));
#466=DIRECTION('',(1.,0.,0.));
#467=DIRECTION('',(0.,0.,1.));
#468=DIRECTION('',(1.,0.,0.));
#469=DIRECTION('',(0.,0.,1.));
#470=DIRECTION('',(1.,0.,0.));
#471=DIRECTION('',(0.,0.,1.));
#472=DIRECTION('',(1.,0.,0.));
#473=DIRECTION('',(0.,0.,1.));
#474=DIRECTION('',(1.,0.,0.));
#475=DIRECTION('',(0.,0.,1.));
#476=DIRECTION('',(1.,0.,0.));
#477=DIRECTION('',(0.,0.,1.));
#478=DIRECTION('',(1.,0.,0.));
#479=DIRECTION('',(0.,-1.887379141862E-14,-1.));
#480=DIRECTION('',(0.,0.,1.));
#481=DIRECTION('',(0.,-1.,0.));
#482=DIRECTION('',(0.,1.887379141862E-14,-1.));
#483=DIRECTION('',(0.,0.,-1.));
#484=DIRECTION('',(0.,1.,0.));
#485=DIRECTION('',(0.,0.,-1.));
#486=DIRECTION('',(0.,1.,0.));
#487=DIRECTION('',(0.,0.,-1.));
#488=DIRECTION('',(0.,-1.,0.));
#489=DIRECTION('',(0.,0.,-1.));
#490=DIRECTION('',(1.,0.,0.));
#491=DIRECTION('',(0.,0.,1.));
#492=DIRECTION('',(0.,1.,0.));
#493=DIRECTION('',(0.,0.,-1.));
#494=DIRECTION('',(0.,1.,0.));
#495=DIRECTION('',(-1.,0.,0.));
#496=DIRECTION('',(0.,-1.,0.));
#497=DIRECTION('',(1.,0.,0.));
#498=DIRECTION('',(0.,1.,0.));
#499=DIRECTION('',(0.,6.12323399573677E-17,-1.));
#500=DIRECTION('',(0.,1.,0.));
#501=DIRECTION('',(0.,6.12323399573677E-17,-1.));
#502=DIRECTION('',(0.,1.,0.));
#503=DIRECTION('',(0.,0.707106781186298,-0.707106781186798));
#504=DIRECTION('',(0.,0.,1.));
#505=DIRECTION('',(0.,-1.,0.));
#506=DIRECTION('',(0.,-0.707106781186298,-0.707106781186798));
#507=DIRECTION('',(0.,0.,1.));
#508=DIRECTION('',(0.,-1.,0.));
#509=DIRECTION('',(0.,0.,-1.));
#510=DIRECTION('',(0.,1.,2.71025473265004E-17));
#511=DIRECTION('',(0.,0.,1.));
#512=DIRECTION('',(0.,1.,0.));
#513=DIRECTION('',(0.,0.,1.));
#514=DIRECTION('',(-1.,0.,0.));
#515=DIRECTION('',(0.,0.,1.));
#516=DIRECTION('',(0.,1.,0.));
#517=DIRECTION('',(0.,0.,-1.));
#518=DIRECTION('',(0.,1.,2.71025473265004E-17));
#519=DIRECTION('',(0.,0.,1.));
#520=DIRECTION('',(0.,0.,-1.));
#521=DIRECTION('',(0.,-1.,0.));
#522=DIRECTION('',(0.,0.,1.));
#523=DIRECTION('',(0.,0.,-1.));
#524=DIRECTION('',(0.,1.,0.));
#525=DIRECTION('',(0.,0.,-1.));
#526=DIRECTION('',(0.,1.,0.));
#527=DIRECTION('',(0.,0.,-1.));
#528=DIRECTION('',(0.,1.,0.));
#529=DIRECTION('',(0.,0.,1.));
#530=DIRECTION('',(0.,-1.,0.));
#531=DIRECTION('',(-1.,0.,0.));
#532=DIRECTION('',(0.,0.984807753012196,0.173648177666999));
#533=DIRECTION('',(1.,0.,0.));
#534=DIRECTION('',(0.,-0.984807753012196,0.173648177666999));
#535=DIRECTION('',(0.,0.,-1.));
#536=DIRECTION('',(0.,1.,0.));
#537=DIRECTION('',(0.,0.,1.));
#538=DIRECTION('',(0.,1.,0.));
#539=DIRECTION('',(0.,0.,-1.));
#540=DIRECTION('',(0.,1.,0.));
#541=DIRECTION('',(0.,-0.173648177666999,0.984807753012196));
#542=DIRECTION('',(0.,0.,-1.));
#543=DIRECTION('',(0.,-1.,0.));
#544=DIRECTION('',(0.,0.173648177666999,0.984807753012196));
#545=DIRECTION('',(0.,0.,1.));
#546=DIRECTION('',(0.,-1.,3.17742779076608E-16));
#547=DIRECTION('',(0.,0.,1.));
#548=DIRECTION('',(0.,-1.,0.));
#549=DIRECTION('',(0.,0.,1.));
#550=DIRECTION('',(0.,-1.,3.17742779076608E-16));
#551=DIRECTION('',(0.,0.,1.));
#552=DIRECTION('',(0.,-1.,0.));
#553=DIRECTION('',(0.,0.342020143325611,-0.939692620785929));
#554=DIRECTION('',(0.,-0.342020143325611,-0.939692620785929));
#555=DIRECTION('',(0.,0.,1.));
#556=DIRECTION('',(0.,-1.,-2.46113772048689E-16));
#557=DIRECTION('',(0.,0.,1.));
#558=DIRECTION('',(0.,1.,0.));
#559=DIRECTION('',(0.,0.,1.));
#560=DIRECTION('',(0.,-1.,-2.46113772048689E-16));
#561=DIRECTION('',(0.,2.03368633184E-14,1.));
#562=DIRECTION('',(0.,0.,-1.));
#563=DIRECTION('',(0.,-1.,0.));
#564=DIRECTION('',(0.,-2.03368633184E-14,1.));
#565=DIRECTION('',(0.,0.,-1.));
#566=DIRECTION('',(0.,1.,0.));
#567=DIRECTION('',(0.,0.,-1.));
#568=DIRECTION('',(0.,1.,0.));
#569=DIRECTION('',(0.,0.,-1.));
#570=DIRECTION('',(0.,1.,0.));
#571=DIRECTION('',(0.,0.,-1.));
#572=DIRECTION('',(0.,1.,0.));
#573=DIRECTION('',(0.,-0.707106781186547,-0.707106781186547));
#574=DIRECTION('',(0.,0.707106781186547,-0.707106781186547));
#575=DIRECTION('',(0.,0.,-1.));
#576=DIRECTION('',(0.,1.,-4.15191856628705E-17));
#577=DIRECTION('',(0.,0.,-1.));
#578=DIRECTION('',(0.,-1.,0.));
#579=DIRECTION('',(0.,0.,-1.));
#580=DIRECTION('',(0.,1.,-4.15191856628705E-17));
#581=DIRECTION('',(0.,0.,-1.));
#582=DIRECTION('',(0.,1.,0.));
#583=CARTESIAN_POINT('',(0.,0.,0.));
#584=CARTESIAN_POINT('CRP',(-0.1,0.,0.));
#585=CARTESIAN_POINT('',(-0.1,0.,0.1));
#586=CARTESIAN_POINT('',(-0.1,0.,0.2));
#587=CARTESIAN_POINT('',(0.,0.,0.2));
#588=CARTESIAN_POINT('',(0.,0.,0.1));
#589=CARTESIAN_POINT('',(0.,0.,0.));
#590=CARTESIAN_POINT('',(0.,0.,0.));
#591=CARTESIAN_POINT('',(0.,0.,0.));
#592=CARTESIAN_POINT('',(0.,0.,50.));
#593=CARTESIAN_POINT('',(0.,0.,32.));
#594=CARTESIAN_POINT('',(0.,0.,0.));
#595=CARTESIAN_POINT('',(0.,0.,0.));
#596=CARTESIAN_POINT('',(0.,0.,0.));
#597=CARTESIAN_POINT('',(0.,0.,0.));
#598=CARTESIAN_POINT('',(0.,0.,0.));
#599=CARTESIAN_POINT('',(0.,-0.1,0.2));
#600=CARTESIAN_POINT('',(0.,-0.1,0.2));
#601=CARTESIAN_POINT('',(0.,-0.1,0.1));
#602=CARTESIAN_POINT('',(0.,0.,0.1));
#603=CARTESIAN_POINT('',(0.,0.1,0.09999999999998));
#604=CARTESIAN_POINT('',(0.,0.1,0.2));
#605=CARTESIAN_POINT('',(0.,0.1,0.2));
#606=CARTESIAN_POINT('',(0.,0.,0.2));
#607=CARTESIAN_POINT('',(0.,0.,52.5));
#608=CARTESIAN_POINT('',(0.,0.,0.2));
#609=CARTESIAN_POINT('',(150.,150.,0.2));
#610=CARTESIAN_POINT('',(0.,0.,0.1));
#611=CARTESIAN_POINT('',(0.,0.,52.5));
#612=CARTESIAN_POINT('',(0.,0.,0.1));
#613=CARTESIAN_POINT('',(0.,0.,0.));
#614=CARTESIAN_POINT('',(0.,0.,0.1));
#615=CARTESIAN_POINT('',(0.,0.,0.1));
#616=CARTESIAN_POINT('',(0.,0.,0.1));
#617=CARTESIAN_POINT('',(0.,0.085,0.215));
#618=CARTESIAN_POINT('',(0.,0.085,0.215));
#619=CARTESIAN_POINT('',(0.,0.1,0.2));
#620=CARTESIAN_POINT('',(0.,0.,0.215));
#621=CARTESIAN_POINT('',(0.,-0.085,0.215));
#622=CARTESIAN_POINT('',(0.,-0.085,0.215));
#623=CARTESIAN_POINT('',(0.,-0.1,0.2));
#624=CARTESIAN_POINT('',(0.,0.,0.2));
#625=CARTESIAN_POINT('',(0.,0.,0.2075));
#626=CARTESIAN_POINT('',(0.,0.,0.2));
#627=CARTESIAN_POINT('',(-150.,150.,0.2));
#628=CARTESIAN_POINT('',(0.,0.,0.215));
#629=CARTESIAN_POINT('',(0.,0.,0.2075));
#630=CARTESIAN_POINT('',(0.,-0.085,0.4));
#631=CARTESIAN_POINT('',(0.,-0.085,0.4));
#632=CARTESIAN_POINT('',(0.,0.,0.4));
#633=CARTESIAN_POINT('',(0.,0.085,0.4));
#634=CARTESIAN_POINT('',(0.,0.085,0.4));
#635=CARTESIAN_POINT('',(0.,0.,52.5));
#636=CARTESIAN_POINT('',(0.,0.,0.4));
#637=CARTESIAN_POINT('',(0.,0.,52.5));
#638=CARTESIAN_POINT('',(0.,0.,0.7472963553339));
#639=CARTESIAN_POINT('',(0.,-0.1153844939756,0.7472963553339));
#640=CARTESIAN_POINT('',(0.,0.1153844939756,0.7472963553339));
#641=CARTESIAN_POINT('',(0.,-2.085,0.4));
#642=CARTESIAN_POINT('',(0.,2.085,0.4));
#643=CARTESIAN_POINT('',(0.,0.,0.4));
#644=CARTESIAN_POINT('',(0.,0.,0.7472963553339));
#645=CARTESIAN_POINT('',(0.,0.,0.4));
#646=CARTESIAN_POINT('',(0.,-2.099539752447,12.));
#647=CARTESIAN_POINT('',(0.,-2.099539752448,12.));
#648=CARTESIAN_POINT('',(0.,0.,12.));
#649=CARTESIAN_POINT('',(0.,2.099539752447,12.));
#650=CARTESIAN_POINT('',(0.,2.099539752447,12.));
#651=CARTESIAN_POINT('',(0.,0.,6.373648177667));
#652=CARTESIAN_POINT('',(0.,0.,12.));
#653=CARTESIAN_POINT('',(0.,0.,6.373648177667));
#654=CARTESIAN_POINT('',(0.,0.,14.47399419727));
#655=CARTESIAN_POINT('',(0.,-3.000000000001,14.47399419727));
#656=CARTESIAN_POINT('',(0.,3.000000000001,14.47399419727));
#657=CARTESIAN_POINT('',(0.,-3.000000000001,14.47399419727));
#658=CARTESIAN_POINT('',(0.,3.000000000001,14.47399419727));
#659=CARTESIAN_POINT('',(0.,0.,13.23699709863));
#660=CARTESIAN_POINT('',(0.,0.,14.47399419727));
#661=CARTESIAN_POINT('',(0.,0.,13.23699709863));
#662=CARTESIAN_POINT('',(0.,-3.,49.5));
#663=CARTESIAN_POINT('',(0.,-3.,49.5));
#664=CARTESIAN_POINT('',(0.,0.,49.5));
#665=CARTESIAN_POINT('',(0.,3.,49.5));
#666=CARTESIAN_POINT('',(0.,3.,49.5));
#667=CARTESIAN_POINT('',(0.,0.,52.5));
#668=CARTESIAN_POINT('',(0.,0.,49.5));
#669=CARTESIAN_POINT('',(0.,0.,52.5));
#670=CARTESIAN_POINT('',(0.,0.,50.));
#671=CARTESIAN_POINT('',(0.,2.5,50.));
#672=CARTESIAN_POINT('',(0.,-2.5,50.));
#673=CARTESIAN_POINT('',(0.,-2.5,50.));
#674=CARTESIAN_POINT('',(0.,2.5,50.));
#675=CARTESIAN_POINT('',(0.,0.,49.75));
#676=CARTESIAN_POINT('',(0.,0.,50.));
#677=CARTESIAN_POINT('',(0.,0.,49.75));
#678=CARTESIAN_POINT('',(0.,0.,50.));
#679=MECHANICAL_DESIGN_GEOMETRIC_PRESENTATION_REPRESENTATION('',(#354,#355,
#356,#357,#358,#359,#360,#361,#362,#363,#364,#365,#366,#367,#368,#369,#370),
#680);
#680=(
GEOMETRIC_REPRESENTATION_CONTEXT(3)
GLOBAL_UNCERTAINTY_ASSIGNED_CONTEXT((#681))
GLOBAL_UNIT_ASSIGNED_CONTEXT((#687,#683,#682))
REPRESENTATION_CONTEXT('VFR2SBR0010S06','TOP_LEVEL_ASSEMBLY_PART')
);
#681=UNCERTAINTY_MEASURE_WITH_UNIT(LENGTH_MEASURE(2.E-5),#687,
'DISTANCE_ACCURACY_VALUE','Maximum Tolerance applied to model');
#682=(
NAMED_UNIT(*)
SI_UNIT($,.STERADIAN.)
SOLID_ANGLE_UNIT()
);
#683=(
CONVERSION_BASED_UNIT('DEGREE',#685)
NAMED_UNIT(#684)
PLANE_ANGLE_UNIT()
);
#684=DIMENSIONAL_EXPONENTS(0.,0.,0.,0.,0.,0.,0.);
#685=PLANE_ANGLE_MEASURE_WITH_UNIT(PLANE_ANGLE_MEASURE(0.0174532925),#686);
#686=(
NAMED_UNIT(*)
PLANE_ANGLE_UNIT()
SI_UNIT($,.RADIAN.)
);
#687=(
LENGTH_UNIT()
NAMED_UNIT(*)
SI_UNIT(.MILLI.,.METRE.)
);
ENDSEC;
END-ISO-10303-21;
