ISO-10303-21;
HEADER;
/* Generated by software containing ST-Developer
 * from STEP Tools, Inc. (www.steptools.com) 
 */
/* OPTION: using custom schema-name function */

FILE_DESCRIPTION(
/* description */ (''),
/* implementation_level */ '2;1');

FILE_NAME(
/* name */ 'VQ6MHVRBCHD1600R400.stp',
/* time_stamp */ '2023-03-17T09:17:58+09:00',
/* author */ (''),
/* organization */ (''),
/* preprocessor_version */ 'ST-DEVELOPER v16',
/* originating_system */ 'SIEMENS PLM Software NX 10.0',
/* authorisation */ '');

FILE_SCHEMA (('AUTOMOTIVE_DESIGN { 1 0 10303 214 3 1 1 1 }'));
ENDSEC;

DATA;
#10=CONSTRUCTIVE_GEOMETRY_REPRESENTATION_RELATIONSHIP(
'supplemental geometry','',#26,#11);
#11=CONSTRUCTIVE_GEOMETRY_REPRESENTATION('supplemental geometry',(#279,
#280,#281,#282,#283,#284,#285,#286,#287,#288),#487);
#12=GEOMETRICALLY_BOUNDED_WIREFRAME_SHAPE_REPRESENTATION(
'VQ6MHVRBCHD1600R400-None',(#27),#487);
#13=SHAPE_REPRESENTATION_RELATIONSHIP('None',
'relationship between VQ6MHVRBCHD1600R400-None and VQ6MHVRBCHD1600R400
-None',#26,#15);
#14=SHAPE_REPRESENTATION_RELATIONSHIP('None',
'relationship between VQ6MHVRBCHD1600R400-None and VQ6MHVRBCHD1600R400
-None',#26,#12);
#15=ADVANCED_BREP_SHAPE_REPRESENTATION('VQ6MHVRBCHD1600R400-None',(#40,
#41),#487);
#16=SHAPE_DEFINITION_REPRESENTATION(#17,#26);
#17=PRODUCT_DEFINITION_SHAPE('','SHAPE FOR VQ6MHVRBCHD1600R400_ASM.',#18);
#18=PRODUCT_DEFINITION('part definition','',#20,#19);
#19=PRODUCT_DEFINITION_CONTEXT('part definition',#25,'design');
#20=PRODUCT_DEFINITION_FORMATION_WITH_SPECIFIED_SOURCE(' ',' ',#22,
 .NOT_KNOWN.);
#21=PRODUCT_RELATED_PRODUCT_CATEGORY('part','',(#22));
#22=PRODUCT('VQ6MHVRBCHD1600R400_ASM','VQ6MHVRBCHD1600R400_ASM',
'NOT SPECIFIED',(#23));
#23=PRODUCT_CONTEXT('',#25,'mechanical');
#24=APPLICATION_PROTOCOL_DEFINITION('international standard',
'automotive_design',2010,#25);
#25=APPLICATION_CONTEXT(
'core data for automotive mechanical design processes');
#26=SHAPE_REPRESENTATION('VQ6MHVRBCHD1600R400-None',(#277),#487);
#27=GEOMETRIC_CURVE_SET('None',(#396,#207,#208,#209,#210,#211));
#28=CONICAL_SURFACE('',#309,7.75,45.);
#29=CONICAL_SURFACE('',#311,7.75,45.);
#30=SURFACE_STYLE_USAGE(.BOTH.,#32);
#31=SURFACE_STYLE_USAGE(.BOTH.,#33);
#32=SURFACE_SIDE_STYLE('',(#34));
#33=SURFACE_SIDE_STYLE('',(#35));
#34=SURFACE_STYLE_FILL_AREA(#36);
#35=SURFACE_STYLE_FILL_AREA(#37);
#36=FILL_AREA_STYLE('',(#38));
#37=FILL_AREA_STYLE('',(#39));
#38=FILL_AREA_STYLE_COLOUR('',#275);
#39=FILL_AREA_STYLE_COLOUR('',#276);
#40=MANIFOLD_SOLID_BREP('CUT',#42);
#41=MANIFOLD_SOLID_BREP('NOCUT',#43);
#42=CLOSED_SHELL('',(#50,#51,#52,#53,#54,#55));
#43=CLOSED_SHELL('',(#56,#57,#58,#59,#60,#61));
#44=(
BOUNDED_SURFACE()
B_SPLINE_SURFACE(3,3,((#430,#431,#432,#433),(#434,#435,#436,#437),(#438,
#439,#440,#441),(#442,#443,#444,#445)),.UNSPECIFIED.,.F.,.F.,.F.)
B_SPLINE_SURFACE_WITH_KNOTS((4,4),(4,4),(0.,1.),(0.,1.),.UNSPECIFIED.)
GEOMETRIC_REPRESENTATION_ITEM()
RATIONAL_B_SPLINE_SURFACE(((1.,0.333333333333419,0.333333333333419,1.),
(0.804737854124421,0.268245951374876,0.268245951374876,0.804737854124421),
(0.804737854124421,0.268245951374876,0.268245951374876,0.804737854124421),
(1.,0.333333333333419,0.333333333333419,1.)))
REPRESENTATION_ITEM('')
SURFACE()
);
#45=(
BOUNDED_SURFACE()
B_SPLINE_SURFACE(3,3,((#447,#448,#449,#450),(#451,#452,#453,#454),(#455,
#456,#457,#458),(#459,#460,#461,#462)),.UNSPECIFIED.,.F.,.F.,.F.)
B_SPLINE_SURFACE_WITH_KNOTS((4,4),(4,4),(0.,1.),(0.,1.),.UNSPECIFIED.)
GEOMETRIC_REPRESENTATION_ITEM()
RATIONAL_B_SPLINE_SURFACE(((1.,0.33333333333342,0.33333333333342,1.),(0.804737854124421,
0.268245951374877,0.268245951374877,0.804737854124421),(0.804737854124421,
0.268245951374877,0.268245951374877,0.804737854124421),(1.,0.33333333333342,
0.33333333333342,1.)))
REPRESENTATION_ITEM('')
SURFACE()
);
#46=PLANE('',#293);
#47=PLANE('',#300);
#48=PLANE('',#305);
#49=PLANE('',#312);
#50=ADVANCED_FACE('',(#66),#62,.T.);
#51=ADVANCED_FACE('',(#67),#46,.F.);
#52=ADVANCED_FACE('',(#68),#63,.T.);
#53=ADVANCED_FACE('',(#69),#44,.T.);
#54=ADVANCED_FACE('',(#70),#45,.T.);
#55=ADVANCED_FACE('',(#71),#47,.T.);
#56=ADVANCED_FACE('',(#72),#64,.T.);
#57=ADVANCED_FACE('',(#73),#48,.F.);
#58=ADVANCED_FACE('',(#74),#65,.T.);
#59=ADVANCED_FACE('',(#75),#28,.T.);
#60=ADVANCED_FACE('',(#76),#29,.T.);
#61=ADVANCED_FACE('',(#77),#49,.F.);
#62=CYLINDRICAL_SURFACE('',#291,8.);
#63=CYLINDRICAL_SURFACE('',#295,8.);
#64=CYLINDRICAL_SURFACE('',#303,8.);
#65=CYLINDRICAL_SURFACE('',#307,8.);
#66=FACE_OUTER_BOUND('',#78,.T.);
#67=FACE_OUTER_BOUND('',#79,.T.);
#68=FACE_OUTER_BOUND('',#80,.T.);
#69=FACE_OUTER_BOUND('',#81,.T.);
#70=FACE_OUTER_BOUND('',#82,.T.);
#71=FACE_OUTER_BOUND('',#83,.T.);
#72=FACE_OUTER_BOUND('',#84,.T.);
#73=FACE_OUTER_BOUND('',#85,.T.);
#74=FACE_OUTER_BOUND('',#86,.T.);
#75=FACE_OUTER_BOUND('',#87,.T.);
#76=FACE_OUTER_BOUND('',#88,.T.);
#77=FACE_OUTER_BOUND('',#89,.T.);
#78=EDGE_LOOP('',(#90,#91,#92,#93));
#79=EDGE_LOOP('',(#94,#95));
#80=EDGE_LOOP('',(#96,#97,#98,#99));
#81=EDGE_LOOP('',(#100,#101,#102,#103));
#82=EDGE_LOOP('',(#104,#105,#106,#107));
#83=EDGE_LOOP('',(#108,#109));
#84=EDGE_LOOP('',(#110,#111,#112,#113));
#85=EDGE_LOOP('',(#114,#115));
#86=EDGE_LOOP('',(#116,#117,#118,#119));
#87=EDGE_LOOP('',(#120,#121,#122,#123));
#88=EDGE_LOOP('',(#124,#125,#126,#127));
#89=EDGE_LOOP('',(#128,#129));
#90=ORIENTED_EDGE('',*,*,#142,.T.);
#91=ORIENTED_EDGE('',*,*,#143,.T.);
#92=ORIENTED_EDGE('',*,*,#144,.F.);
#93=ORIENTED_EDGE('',*,*,#145,.T.);
#94=ORIENTED_EDGE('',*,*,#146,.F.);
#95=ORIENTED_EDGE('',*,*,#145,.F.);
#96=ORIENTED_EDGE('',*,*,#144,.T.);
#97=ORIENTED_EDGE('',*,*,#147,.T.);
#98=ORIENTED_EDGE('',*,*,#142,.F.);
#99=ORIENTED_EDGE('',*,*,#146,.T.);
#100=ORIENTED_EDGE('',*,*,#148,.T.);
#101=ORIENTED_EDGE('',*,*,#149,.T.);
#102=ORIENTED_EDGE('',*,*,#147,.F.);
#103=ORIENTED_EDGE('',*,*,#150,.F.);
#104=ORIENTED_EDGE('',*,*,#143,.F.);
#105=ORIENTED_EDGE('',*,*,#149,.F.);
#106=ORIENTED_EDGE('',*,*,#151,.T.);
#107=ORIENTED_EDGE('',*,*,#150,.T.);
#108=ORIENTED_EDGE('',*,*,#151,.F.);
#109=ORIENTED_EDGE('',*,*,#148,.F.);
#110=ORIENTED_EDGE('',*,*,#152,.F.);
#111=ORIENTED_EDGE('',*,*,#153,.T.);
#112=ORIENTED_EDGE('',*,*,#154,.T.);
#113=ORIENTED_EDGE('',*,*,#155,.T.);
#114=ORIENTED_EDGE('',*,*,#156,.F.);
#115=ORIENTED_EDGE('',*,*,#155,.F.);
#116=ORIENTED_EDGE('',*,*,#154,.F.);
#117=ORIENTED_EDGE('',*,*,#157,.T.);
#118=ORIENTED_EDGE('',*,*,#152,.T.);
#119=ORIENTED_EDGE('',*,*,#156,.T.);
#120=ORIENTED_EDGE('',*,*,#157,.F.);
#121=ORIENTED_EDGE('',*,*,#158,.T.);
#122=ORIENTED_EDGE('',*,*,#159,.T.);
#123=ORIENTED_EDGE('',*,*,#160,.F.);
#124=ORIENTED_EDGE('',*,*,#161,.T.);
#125=ORIENTED_EDGE('',*,*,#158,.F.);
#126=ORIENTED_EDGE('',*,*,#153,.F.);
#127=ORIENTED_EDGE('',*,*,#160,.T.);
#128=ORIENTED_EDGE('',*,*,#161,.F.);
#129=ORIENTED_EDGE('',*,*,#159,.F.);
#130=VERTEX_POINT('',#413);
#131=VERTEX_POINT('',#414);
#132=VERTEX_POINT('',#416);
#133=VERTEX_POINT('',#418);
#134=VERTEX_POINT('',#426);
#135=VERTEX_POINT('',#427);
#136=VERTEX_POINT('',#465);
#137=VERTEX_POINT('',#466);
#138=VERTEX_POINT('',#468);
#139=VERTEX_POINT('',#470);
#140=VERTEX_POINT('',#478);
#141=VERTEX_POINT('',#480);
#142=EDGE_CURVE('',#130,#131,#216,.T.);
#143=EDGE_CURVE('',#131,#132,#163,.T.);
#144=EDGE_CURVE('',#133,#132,#217,.T.);
#145=EDGE_CURVE('',#133,#130,#164,.T.);
#146=EDGE_CURVE('',#130,#133,#165,.T.);
#147=EDGE_CURVE('',#132,#131,#166,.T.);
#148=EDGE_CURVE('',#134,#135,#167,.T.);
#149=EDGE_CURVE('',#135,#131,#168,.T.);
#150=EDGE_CURVE('',#134,#132,#169,.T.);
#151=EDGE_CURVE('',#135,#134,#170,.T.);
#152=EDGE_CURVE('',#136,#137,#218,.T.);
#153=EDGE_CURVE('',#136,#138,#171,.T.);
#154=EDGE_CURVE('',#138,#139,#219,.T.);
#155=EDGE_CURVE('',#139,#137,#172,.T.);
#156=EDGE_CURVE('',#137,#139,#173,.T.);
#157=EDGE_CURVE('',#138,#136,#174,.T.);
#158=EDGE_CURVE('',#138,#140,#220,.T.);
#159=EDGE_CURVE('',#140,#141,#175,.T.);
#160=EDGE_CURVE('',#136,#141,#221,.T.);
#161=EDGE_CURVE('',#141,#140,#176,.T.);
#162=CIRCLE('',#278,4.);
#163=CIRCLE('',#289,8.);
#164=CIRCLE('',#290,8.);
#165=CIRCLE('',#292,8.);
#166=CIRCLE('',#294,8.);
#167=CIRCLE('',#296,4.);
#168=CIRCLE('',#297,4.);
#169=CIRCLE('',#298,4.);
#170=CIRCLE('',#299,4.);
#171=CIRCLE('',#301,8.);
#172=CIRCLE('',#302,8.);
#173=CIRCLE('',#304,8.);
#174=CIRCLE('',#306,8.);
#175=CIRCLE('',#308,7.5);
#176=CIRCLE('',#310,7.5);
#177=CURVE_STYLE('',#192,POSITIVE_LENGTH_MEASURE(0.18),#272);
#178=CURVE_STYLE('',#193,POSITIVE_LENGTH_MEASURE(0.18),#272);
#179=CURVE_STYLE('',#194,POSITIVE_LENGTH_MEASURE(0.18),#272);
#180=CURVE_STYLE('',#195,POSITIVE_LENGTH_MEASURE(0.18),#272);
#181=CURVE_STYLE('',#196,POSITIVE_LENGTH_MEASURE(0.18),#272);
#182=CURVE_STYLE('',#197,POSITIVE_LENGTH_MEASURE(0.13),#273);
#183=CURVE_STYLE('',#198,POSITIVE_LENGTH_MEASURE(0.13),#273);
#184=CURVE_STYLE('',#199,POSITIVE_LENGTH_MEASURE(0.13),#274);
#185=CURVE_STYLE('',#200,POSITIVE_LENGTH_MEASURE(0.13),#274);
#186=CURVE_STYLE('',#201,POSITIVE_LENGTH_MEASURE(0.13),#273);
#187=CURVE_STYLE('',#202,POSITIVE_LENGTH_MEASURE(0.13),#273);
#188=CURVE_STYLE('',#203,POSITIVE_LENGTH_MEASURE(0.13),#274);
#189=CURVE_STYLE('',#204,POSITIVE_LENGTH_MEASURE(0.13),#273);
#190=CURVE_STYLE('',#205,POSITIVE_LENGTH_MEASURE(0.13),#273);
#191=CURVE_STYLE('',#206,POSITIVE_LENGTH_MEASURE(0.13),#273);
#192=DRAUGHTING_PRE_DEFINED_CURVE_FONT('continuous');
#193=DRAUGHTING_PRE_DEFINED_CURVE_FONT('continuous');
#194=DRAUGHTING_PRE_DEFINED_CURVE_FONT('continuous');
#195=DRAUGHTING_PRE_DEFINED_CURVE_FONT('continuous');
#196=DRAUGHTING_PRE_DEFINED_CURVE_FONT('continuous');
#197=DRAUGHTING_PRE_DEFINED_CURVE_FONT('continuous');
#198=DRAUGHTING_PRE_DEFINED_CURVE_FONT('continuous');
#199=DRAUGHTING_PRE_DEFINED_CURVE_FONT('continuous');
#200=DRAUGHTING_PRE_DEFINED_CURVE_FONT('continuous');
#201=DRAUGHTING_PRE_DEFINED_CURVE_FONT('continuous');
#202=DRAUGHTING_PRE_DEFINED_CURVE_FONT('continuous');
#203=DRAUGHTING_PRE_DEFINED_CURVE_FONT('continuous');
#204=DRAUGHTING_PRE_DEFINED_CURVE_FONT('continuous');
#205=DRAUGHTING_PRE_DEFINED_CURVE_FONT('continuous');
#206=DRAUGHTING_PRE_DEFINED_CURVE_FONT('continuous');
#207=TRIMMED_CURVE('',#212,(PARAMETER_VALUE(0.)),(PARAMETER_VALUE(1.)),
 .T.,.PARAMETER.);
#208=TRIMMED_CURVE('',#213,(PARAMETER_VALUE(0.)),(PARAMETER_VALUE(1.)),
 .T.,.PARAMETER.);
#209=TRIMMED_CURVE('',#214,(PARAMETER_VALUE(0.)),(PARAMETER_VALUE(1.)),
 .T.,.PARAMETER.);
#210=TRIMMED_CURVE('',#215,(PARAMETER_VALUE(0.)),(PARAMETER_VALUE(1.)),
 .T.,.PARAMETER.);
#211=TRIMMED_CURVE('',#162,(PARAMETER_VALUE(0.)),(PARAMETER_VALUE(90.)),
 .T.,.PARAMETER.);
#212=LINE('',#397,#222);
#213=LINE('',#398,#223);
#214=LINE('',#399,#224);
#215=LINE('',#400,#225);
#216=LINE('',#412,#226);
#217=LINE('',#417,#227);
#218=LINE('',#464,#228);
#219=LINE('',#469,#229);
#220=LINE('',#477,#230);
#221=LINE('',#481,#231);
#222=VECTOR('',#315,4.);
#223=VECTOR('',#316,28.);
#224=VECTOR('',#317,8.);
#225=VECTOR('',#318,32.);
#226=VECTOR('',#341,1.);
#227=VECTOR('',#344,1.);
#228=VECTOR('',#367,1.);
#229=VECTOR('',#370,1.);
#230=VECTOR('',#383,1.);
#231=VECTOR('',#386,1.);
#232=PRESENTATION_LAYER_ASSIGNMENT('1','Layer 1',(#396,#207,#208,#209,#210,
#211,#279,#280,#283,#284,#285,#286,#287,#288,#40,#41));
#233=PRESENTATION_LAYER_ASSIGNMENT('2','Layer 2',(#281,#282));
#234=STYLED_ITEM('',(#252),#396);
#235=STYLED_ITEM('',(#253),#207);
#236=STYLED_ITEM('',(#254),#208);
#237=STYLED_ITEM('',(#255),#209);
#238=STYLED_ITEM('',(#256),#210);
#239=STYLED_ITEM('',(#257),#211);
#240=STYLED_ITEM('',(#258),#279);
#241=STYLED_ITEM('',(#259),#280);
#242=STYLED_ITEM('',(#260),#281);
#243=STYLED_ITEM('',(#261),#282);
#244=STYLED_ITEM('',(#262),#283);
#245=STYLED_ITEM('',(#263),#284);
#246=STYLED_ITEM('',(#264),#285);
#247=STYLED_ITEM('',(#265),#286);
#248=STYLED_ITEM('',(#266),#287);
#249=STYLED_ITEM('',(#267),#288);
#250=STYLED_ITEM('',(#268),#40);
#251=STYLED_ITEM('',(#269),#41);
#252=PRESENTATION_STYLE_ASSIGNMENT((#270));
#253=PRESENTATION_STYLE_ASSIGNMENT((#177));
#254=PRESENTATION_STYLE_ASSIGNMENT((#178));
#255=PRESENTATION_STYLE_ASSIGNMENT((#179));
#256=PRESENTATION_STYLE_ASSIGNMENT((#180));
#257=PRESENTATION_STYLE_ASSIGNMENT((#181));
#258=PRESENTATION_STYLE_ASSIGNMENT((#182));
#259=PRESENTATION_STYLE_ASSIGNMENT((#183));
#260=PRESENTATION_STYLE_ASSIGNMENT((#184));
#261=PRESENTATION_STYLE_ASSIGNMENT((#185));
#262=PRESENTATION_STYLE_ASSIGNMENT((#186));
#263=PRESENTATION_STYLE_ASSIGNMENT((#187));
#264=PRESENTATION_STYLE_ASSIGNMENT((#188));
#265=PRESENTATION_STYLE_ASSIGNMENT((#189));
#266=PRESENTATION_STYLE_ASSIGNMENT((#190));
#267=PRESENTATION_STYLE_ASSIGNMENT((#191));
#268=PRESENTATION_STYLE_ASSIGNMENT((#30));
#269=PRESENTATION_STYLE_ASSIGNMENT((#31));
#270=POINT_STYLE('',#271,POSITIVE_LENGTH_MEASURE(3.),#272);
#271=PRE_DEFINED_POINT_MARKER_SYMBOL('plus');
#272=COLOUR_RGB('Medium Royal',0.2,0.4,0.8);
#273=COLOUR_RGB('Strong Stone',0.576470588235294,0.54508278019379,0.392156862745098);
#274=COLOUR_RGB('Medium Umber',0.372533760585946,0.313725490196078,0.270572976272221);
#275=COLOUR_RGB('cutting part',0.8,0.8,0.8);
#276=COLOUR_RGB('non-cutting part and shank',0.501960784313725,0.501960784313725,
0.501960784313725);
#277=AXIS2_PLACEMENT_3D('',#395,#313,#314);
#278=AXIS2_PLACEMENT_3D('',#401,#319,#320);
#279=AXIS2_PLACEMENT_3D('',#402,#321,#322);
#280=AXIS2_PLACEMENT_3D('',#403,#323,#324);
#281=AXIS2_PLACEMENT_3D('CIP',#404,#325,#326);
#282=AXIS2_PLACEMENT_3D('PCS',#405,#327,#328);
#283=AXIS2_PLACEMENT_3D('MCS',#406,#329,#330);
#284=AXIS2_PLACEMENT_3D('',#407,#331,#332);
#285=AXIS2_PLACEMENT_3D('STEP_TEMP_EM4_1',#408,#333,#334);
#286=AXIS2_PLACEMENT_3D('',#409,#335,#336);
#287=AXIS2_PLACEMENT_3D('',#410,#337,#338);
#288=AXIS2_PLACEMENT_3D('',#411,#339,#340);
#289=AXIS2_PLACEMENT_3D('',#415,#342,#343);
#290=AXIS2_PLACEMENT_3D('',#419,#345,#346);
#291=AXIS2_PLACEMENT_3D('',#420,#347,#348);
#292=AXIS2_PLACEMENT_3D('',#421,#349,#350);
#293=AXIS2_PLACEMENT_3D('',#422,#351,#352);
#294=AXIS2_PLACEMENT_3D('',#423,#353,#354);
#295=AXIS2_PLACEMENT_3D('',#424,#355,#356);
#296=AXIS2_PLACEMENT_3D('',#425,#357,#358);
#297=AXIS2_PLACEMENT_3D('',#428,#359,#360);
#298=AXIS2_PLACEMENT_3D('',#429,#361,#362);
#299=AXIS2_PLACEMENT_3D('',#446,#363,#364);
#300=AXIS2_PLACEMENT_3D('',#463,#365,#366);
#301=AXIS2_PLACEMENT_3D('',#467,#368,#369);
#302=AXIS2_PLACEMENT_3D('',#471,#371,#372);
#303=AXIS2_PLACEMENT_3D('',#472,#373,#374);
#304=AXIS2_PLACEMENT_3D('',#473,#375,#376);
#305=AXIS2_PLACEMENT_3D('',#474,#377,#378);
#306=AXIS2_PLACEMENT_3D('',#475,#379,#380);
#307=AXIS2_PLACEMENT_3D('',#476,#381,#382);
#308=AXIS2_PLACEMENT_3D('',#479,#384,#385);
#309=AXIS2_PLACEMENT_3D('',#482,#387,#388);
#310=AXIS2_PLACEMENT_3D('',#483,#389,#390);
#311=AXIS2_PLACEMENT_3D('',#484,#391,#392);
#312=AXIS2_PLACEMENT_3D('',#485,#393,#394);
#313=DIRECTION('',(0.,0.,1.));
#314=DIRECTION('',(1.,0.,0.));
#315=DIRECTION('',(-1.,0.,0.));
#316=DIRECTION('',(0.,0.,1.));
#317=DIRECTION('',(1.,0.,0.));
#318=DIRECTION('',(0.,0.,-1.));
#319=DIRECTION('',(0.,1.,0.));
#320=DIRECTION('',(0.,0.,-1.));
#321=DIRECTION('',(0.,0.,1.));
#322=DIRECTION('',(1.,0.,0.));
#323=DIRECTION('',(0.,0.,1.));
#324=DIRECTION('',(1.,0.,0.));
#325=DIRECTION('',(0.,0.,1.));
#326=DIRECTION('',(1.,0.,0.));
#327=DIRECTION('',(0.,0.,1.));
#328=DIRECTION('',(1.,0.,0.));
#329=DIRECTION('',(0.,0.,1.));
#330=DIRECTION('',(1.,0.,0.));
#331=DIRECTION('',(0.,0.,1.));
#332=DIRECTION('',(1.,0.,0.));
#333=DIRECTION('',(0.,0.,1.));
#334=DIRECTION('',(1.,0.,0.));
#335=DIRECTION('',(0.,0.,1.));
#336=DIRECTION('',(1.,0.,0.));
#337=DIRECTION('',(0.,0.,1.));
#338=DIRECTION('',(1.,0.,0.));
#339=DIRECTION('',(0.,0.,1.));
#340=DIRECTION('',(1.,0.,0.));
#341=DIRECTION('',(0.,0.,-1.));
#342=DIRECTION('',(0.,0.,1.));
#343=DIRECTION('',(0.,-1.,0.));
#344=DIRECTION('',(0.,0.,-1.));
#345=DIRECTION('',(0.,0.,-1.));
#346=DIRECTION('',(0.,1.,0.));
#347=DIRECTION('',(0.,0.,-1.));
#348=DIRECTION('',(0.,1.,0.));
#349=DIRECTION('',(0.,0.,-1.));
#350=DIRECTION('',(0.,-1.,0.));
#351=DIRECTION('',(0.,0.,-1.));
#352=DIRECTION('',(1.,0.,0.));
#353=DIRECTION('',(0.,0.,1.));
#354=DIRECTION('',(0.,1.,0.));
#355=DIRECTION('',(0.,0.,-1.));
#356=DIRECTION('',(0.,1.,0.));
#357=DIRECTION('',(0.,0.,1.));
#358=DIRECTION('',(0.,1.,0.));
#359=DIRECTION('',(-1.,0.,0.));
#360=DIRECTION('',(0.,-1.,0.));
#361=DIRECTION('',(1.,0.,0.));
#362=DIRECTION('',(0.,1.,0.));
#363=DIRECTION('',(0.,0.,1.));
#364=DIRECTION('',(0.,-1.,0.));
#365=DIRECTION('',(0.,0.,-1.));
#366=DIRECTION('',(0.,1.,0.));
#367=DIRECTION('',(0.,0.,-1.));
#368=DIRECTION('',(0.,0.,-1.));
#369=DIRECTION('',(0.,1.,0.));
#370=DIRECTION('',(0.,0.,-1.));
#371=DIRECTION('',(0.,0.,1.));
#372=DIRECTION('',(0.,-1.,0.));
#373=DIRECTION('',(0.,0.,-1.));
#374=DIRECTION('',(0.,1.,0.));
#375=DIRECTION('',(0.,0.,1.));
#376=DIRECTION('',(0.,1.,0.));
#377=DIRECTION('',(0.,0.,1.));
#378=DIRECTION('',(-1.,0.,0.));
#379=DIRECTION('',(0.,0.,-1.));
#380=DIRECTION('',(0.,-1.,0.));
#381=DIRECTION('',(0.,0.,-1.));
#382=DIRECTION('',(0.,1.,0.));
#383=DIRECTION('',(0.,0.707106781186547,0.707106781186547));
#384=DIRECTION('',(0.,0.,-1.));
#385=DIRECTION('',(0.,-1.,0.));
#386=DIRECTION('',(0.,-0.707106781186547,0.707106781186547));
#387=DIRECTION('',(0.,0.,-1.));
#388=DIRECTION('',(0.,1.,0.));
#389=DIRECTION('',(0.,0.,-1.));
#390=DIRECTION('',(0.,1.,0.));
#391=DIRECTION('',(0.,0.,-1.));
#392=DIRECTION('',(0.,1.,0.));
#393=DIRECTION('',(0.,0.,-1.));
#394=DIRECTION('',(0.,1.,0.));
#395=CARTESIAN_POINT('',(0.,0.,0.));
#396=CARTESIAN_POINT('CRP',(-8.,0.,0.));
#397=CARTESIAN_POINT('',(0.,0.,0.));
#398=CARTESIAN_POINT('',(-8.,0.,4.));
#399=CARTESIAN_POINT('',(-8.,0.,32.));
#400=CARTESIAN_POINT('',(0.,0.,32.));
#401=CARTESIAN_POINT('',(-4.,0.,4.));
#402=CARTESIAN_POINT('',(0.,0.,0.));
#403=CARTESIAN_POINT('',(0.,0.,0.));
#404=CARTESIAN_POINT('',(0.,0.,0.));
#405=CARTESIAN_POINT('',(0.,0.,90.));
#406=CARTESIAN_POINT('',(0.,0.,58.));
#407=CARTESIAN_POINT('',(0.,0.,0.));
#408=CARTESIAN_POINT('',(0.,0.,0.));
#409=CARTESIAN_POINT('',(0.,0.,0.));
#410=CARTESIAN_POINT('',(0.,0.,0.));
#411=CARTESIAN_POINT('',(0.,0.,0.));
#412=CARTESIAN_POINT('',(0.,-8.,32.));
#413=CARTESIAN_POINT('',(0.,-8.,32.));
#414=CARTESIAN_POINT('',(0.,-8.,4.));
#415=CARTESIAN_POINT('',(0.,-1.579280122094E-14,4.));
#416=CARTESIAN_POINT('',(0.,8.,4.));
#417=CARTESIAN_POINT('',(0.,8.,32.));
#418=CARTESIAN_POINT('',(0.,8.,32.));
#419=CARTESIAN_POINT('',(0.,0.,32.));
#420=CARTESIAN_POINT('',(0.,0.,94.5));
#421=CARTESIAN_POINT('',(0.,0.,32.));
#422=CARTESIAN_POINT('',(150.,150.,32.));
#423=CARTESIAN_POINT('',(0.,-1.579280122094E-14,4.));
#424=CARTESIAN_POINT('',(0.,0.,94.5));
#425=CARTESIAN_POINT('',(0.,-1.579280122094E-14,0.));
#426=CARTESIAN_POINT('',(0.,4.,0.));
#427=CARTESIAN_POINT('',(0.,-4.,0.));
#428=CARTESIAN_POINT('',(0.,-4.,4.));
#429=CARTESIAN_POINT('',(0.,4.,4.));
#430=CARTESIAN_POINT('',(5.14311382525886E-13,-4.,-3.46944695195361E-15));
#431=CARTESIAN_POINT('',(-7.99999999999742,-3.99999999999898,-3.46944695195361E-15));
#432=CARTESIAN_POINT('',(-7.99999999999742,3.99999999999895,-3.46944695195361E-15));
#433=CARTESIAN_POINT('',(5.1235194764725E-13,3.99999999999998,-3.46944695195361E-15));
#434=CARTESIAN_POINT('',(2.15058876884332E-13,-6.34314575050752,2.11317525390263E-13));
#435=CARTESIAN_POINT('',(-12.6862915010116,-6.3431457505059,2.11317525390263E-13));
#436=CARTESIAN_POINT('',(-12.6862915010116,6.34314575050588,2.11317525390263E-13));
#437=CARTESIAN_POINT('',(2.11951631628378E-13,6.3431457505075,2.11317525390263E-13));
#438=CARTESIAN_POINT('',(3.45540085811823E-15,-7.99999999999988,1.65685424949248));
#439=CARTESIAN_POINT('',(-15.9999999999956,-7.99999999999783,1.65685424949248));
#440=CARTESIAN_POINT('',(-15.9999999999956,7.99999999999781,1.65685424949248));
#441=CARTESIAN_POINT('',(-4.63468899153065E-16,7.99999999999986,1.65685424949248));
#442=CARTESIAN_POINT('',(3.45540085807467E-15,-8.00000000000022,4.));
#443=CARTESIAN_POINT('',(-15.9999999999963,-7.99999999999818,4.));
#444=CARTESIAN_POINT('',(-15.9999999999963,7.99999999999815,4.));
#445=CARTESIAN_POINT('',(-4.63468899197242E-16,8.0000000000002,4.));
#446=CARTESIAN_POINT('',(0.,-1.579280122094E-14,0.));
#447=CARTESIAN_POINT('',(-5.1581081795232E-13,4.,-4.33680868994202E-15));
#448=CARTESIAN_POINT('',(7.99999999999714,3.99999999999897,-4.33680868994202E-15));
#449=CARTESIAN_POINT('',(7.99999999999715,-3.99999999999869,-4.33680868994202E-15));
#450=CARTESIAN_POINT('',(-5.13054743673602E-13,-3.99999999999973,-4.33680868994202E-15));
#451=CARTESIAN_POINT('',(-2.13149662481717E-13,6.34314575050752,2.12531295142087E-13));
#452=CARTESIAN_POINT('',(12.6862915010113,6.34314575050588,2.12531295142087E-13));
#453=CARTESIAN_POINT('',(12.6862915010113,-6.34314575050561,2.12531295142087E-13));
#454=CARTESIAN_POINT('',(-2.08779117269433E-13,-6.34314575050725,2.12531295142087E-13));
#455=CARTESIAN_POINT('',(8.6409295330754E-16,7.99999999999988,1.65685424949248));
#456=CARTESIAN_POINT('',(15.9999999999953,7.99999999999781,1.65685424949248));
#457=CARTESIAN_POINT('',(15.9999999999953,-7.99999999999753,1.65685424949248));
#458=CARTESIAN_POINT('',(6.37624151074378E-15,-7.99999999999961,1.65685424949248));
#459=CARTESIAN_POINT('',(8.64092953351589E-16,8.00000000000022,4.));
#460=CARTESIAN_POINT('',(15.999999999996,7.99999999999815,4.));
#461=CARTESIAN_POINT('',(15.999999999996,-7.99999999999787,4.));
#462=CARTESIAN_POINT('',(6.37624151078835E-15,-7.99999999999995,4.));
#463=CARTESIAN_POINT('',(0.,-1.652758930043E-14,0.));
#464=CARTESIAN_POINT('',(0.,8.,89.5));
#465=CARTESIAN_POINT('',(0.,8.,89.5));
#466=CARTESIAN_POINT('',(0.,8.,32.));
#467=CARTESIAN_POINT('',(0.,0.,89.5));
#468=CARTESIAN_POINT('',(0.,-8.,89.5));
#469=CARTESIAN_POINT('',(0.,-8.,89.5));
#470=CARTESIAN_POINT('',(0.,-8.,32.));
#471=CARTESIAN_POINT('',(0.,0.,32.));
#472=CARTESIAN_POINT('',(0.,0.,94.5));
#473=CARTESIAN_POINT('',(0.,0.,32.));
#474=CARTESIAN_POINT('',(-150.,150.,32.));
#475=CARTESIAN_POINT('',(0.,0.,89.5));
#476=CARTESIAN_POINT('',(0.,0.,94.5));
#477=CARTESIAN_POINT('',(0.,-7.5,90.));
#478=CARTESIAN_POINT('',(0.,-7.5,90.));
#479=CARTESIAN_POINT('',(0.,0.,90.));
#480=CARTESIAN_POINT('',(0.,7.5,90.));
#481=CARTESIAN_POINT('',(0.,7.5,90.));
#482=CARTESIAN_POINT('',(0.,0.,89.75));
#483=CARTESIAN_POINT('',(0.,0.,90.));
#484=CARTESIAN_POINT('',(0.,0.,89.75));
#485=CARTESIAN_POINT('',(0.,0.,90.));
#486=MECHANICAL_DESIGN_GEOMETRIC_PRESENTATION_REPRESENTATION('',(#234,#235,
#236,#237,#238,#239,#240,#241,#242,#243,#244,#245,#246,#247,#248,#249,#250,
#251),#487);
#487=(
GEOMETRIC_REPRESENTATION_CONTEXT(3)
GLOBAL_UNCERTAINTY_ASSIGNED_CONTEXT((#488))
GLOBAL_UNIT_ASSIGNED_CONTEXT((#494,#490,#489))
REPRESENTATION_CONTEXT('VQ6MHVRBCHD1600R400','TOP_LEVEL_ASSEMBLY_PART')
);
#488=UNCERTAINTY_MEASURE_WITH_UNIT(LENGTH_MEASURE(0.0254),#494,
'DISTANCE_ACCURACY_VALUE','Maximum Tolerance applied to model');
#489=(
NAMED_UNIT(*)
SI_UNIT($,.STERADIAN.)
SOLID_ANGLE_UNIT()
);
#490=(
CONVERSION_BASED_UNIT('DEGREE',#492)
NAMED_UNIT(#491)
PLANE_ANGLE_UNIT()
);
#491=DIMENSIONAL_EXPONENTS(0.,0.,0.,0.,0.,0.,0.);
#492=PLANE_ANGLE_MEASURE_WITH_UNIT(PLANE_ANGLE_MEASURE(0.0174532925),#493);
#493=(
NAMED_UNIT(*)
PLANE_ANGLE_UNIT()
SI_UNIT($,.RADIAN.)
);
#494=(
LENGTH_UNIT()
NAMED_UNIT(*)
SI_UNIT(.MILLI.,.METRE.)
);
ENDSEC;
END-ISO-10303-21;
