ISO-10303-21;
HEADER;
/* Generated by software containing ST-Developer
 * from STEP Tools, Inc. (www.steptools.com) 
 */
/* OPTION: using custom schema-name function */

FILE_DESCRIPTION(
/* description */ (''),
/* implementation_level */ '2;1');

FILE_NAME(
/* name */ 'IMX20R4F20021.stp',
/* time_stamp */ '2023-10-12T14:37:26+09:00',
/* author */ (''),
/* organization */ (''),
/* preprocessor_version */ 'ST-DEVELOPER v16',
/* originating_system */ 'SIEMENS PLM Software NX 10.0',
/* authorisation */ '');

FILE_SCHEMA (('AUTOMOTIVE_DESIGN { 1 0 10303 214 3 1 1 1 }'));
ENDSEC;

DATA;
#10=CONSTRUCTIVE_GEOMETRY_REPRESENTATION_RELATIONSHIP(
'supplemental geometry','',#26,#11);
#11=CONSTRUCTIVE_GEOMETRY_REPRESENTATION('supplemental geometry',(#369,
#370,#371,#372,#373,#374,#375,#376,#377,#378),#620);
#12=GEOMETRICALLY_BOUNDED_WIREFRAME_SHAPE_REPRESENTATION(
'IMX20R4F20021-None',(#27),#620);
#13=SHAPE_REPRESENTATION_RELATIONSHIP('None',
'relationship between IMX20R4F20021-None and IMX20R4F20021-None',#26,#15);
#14=SHAPE_REPRESENTATION_RELATIONSHIP('None',
'relationship between IMX20R4F20021-None and IMX20R4F20021-None',#26,#12);
#15=ADVANCED_BREP_SHAPE_REPRESENTATION('IMX20R4F20021-None',(#42,#43),#620);
#16=SHAPE_DEFINITION_REPRESENTATION(#17,#26);
#17=PRODUCT_DEFINITION_SHAPE('','SHAPE FOR IMX20R4F20021_ASM.',#18);
#18=PRODUCT_DEFINITION('part definition','',#20,#19);
#19=PRODUCT_DEFINITION_CONTEXT('part definition',#25,'design');
#20=PRODUCT_DEFINITION_FORMATION_WITH_SPECIFIED_SOURCE(' ',' ',#22,
 .NOT_KNOWN.);
#21=PRODUCT_RELATED_PRODUCT_CATEGORY('part','',(#22));
#22=PRODUCT('IMX20R4F20021_ASM','IMX20R4F20021_ASM','NOT SPECIFIED',(#23));
#23=PRODUCT_CONTEXT('',#25,'mechanical');
#24=APPLICATION_PROTOCOL_DEFINITION('international standard',
'automotive_design',2010,#25);
#25=APPLICATION_CONTEXT(
'core data for automotive mechanical design processes');
#26=SHAPE_REPRESENTATION('IMX20R4F20021-None',(#368),#620);
#27=GEOMETRIC_CURVE_SET('None',(#533,#288,#289,#290,#291,#292));
#28=FACE_BOUND('',#107,.T.);
#29=FACE_BOUND('',#108,.T.);
#30=FACE_BOUND('',#111,.T.);
#31=FACE_BOUND('',#112,.T.);
#32=SURFACE_STYLE_USAGE(.BOTH.,#34);
#33=SURFACE_STYLE_USAGE(.BOTH.,#35);
#34=SURFACE_SIDE_STYLE('',(#36));
#35=SURFACE_SIDE_STYLE('',(#37));
#36=SURFACE_STYLE_FILL_AREA(#38);
#37=SURFACE_STYLE_FILL_AREA(#39);
#38=FILL_AREA_STYLE('',(#40));
#39=FILL_AREA_STYLE('',(#41));
#40=FILL_AREA_STYLE_COLOUR('',#256);
#41=FILL_AREA_STYLE_COLOUR('',#257);
#42=MANIFOLD_SOLID_BREP('CUT',#44);
#43=MANIFOLD_SOLID_BREP('NOCUT',#45);
#44=CLOSED_SHELL('',(#58,#59,#60,#61,#62,#63));
#45=CLOSED_SHELL('',(#64,#65,#66,#67,#68,#69,#70,#71,#72,#73,#74,#75));
#46=CONICAL_SURFACE('',#387,9.7,40.);
#47=CONICAL_SURFACE('',#389,9.7,40.);
#48=CONICAL_SURFACE('',#402,6.825,1.909152432996);
#49=CONICAL_SURFACE('',#404,6.825,1.909152432996);
#50=CONICAL_SURFACE('',#413,4.625,45.);
#51=CONICAL_SURFACE('',#415,4.625,45.);
#52=PLANE('',#385);
#53=PLANE('',#390);
#54=PLANE('',#395);
#55=PLANE('',#400);
#56=PLANE('',#407);
#57=PLANE('',#416);
#58=ADVANCED_FACE('',(#82),#76,.T.);
#59=ADVANCED_FACE('',(#83),#77,.T.);
#60=ADVANCED_FACE('',(#84),#52,.F.);
#61=ADVANCED_FACE('',(#85),#46,.T.);
#62=ADVANCED_FACE('',(#86),#47,.T.);
#63=ADVANCED_FACE('',(#87),#53,.T.);
#64=ADVANCED_FACE('',(#88),#78,.T.);
#65=ADVANCED_FACE('',(#89),#54,.F.);
#66=ADVANCED_FACE('',(#90),#79,.T.);
#67=ADVANCED_FACE('',(#28,#29),#55,.F.);
#68=ADVANCED_FACE('',(#91),#48,.T.);
#69=ADVANCED_FACE('',(#92),#49,.T.);
#70=ADVANCED_FACE('',(#30,#31),#56,.F.);
#71=ADVANCED_FACE('',(#93),#80,.T.);
#72=ADVANCED_FACE('',(#94),#81,.T.);
#73=ADVANCED_FACE('',(#95),#50,.T.);
#74=ADVANCED_FACE('',(#96),#51,.T.);
#75=ADVANCED_FACE('',(#97),#57,.F.);
#76=CYLINDRICAL_SURFACE('',#381,10.);
#77=CYLINDRICAL_SURFACE('',#384,10.);
#78=CYLINDRICAL_SURFACE('',#393,9.75);
#79=CYLINDRICAL_SURFACE('',#397,9.75);
#80=CYLINDRICAL_SURFACE('',#409,5.);
#81=CYLINDRICAL_SURFACE('',#411,5.);
#82=FACE_OUTER_BOUND('',#98,.T.);
#83=FACE_OUTER_BOUND('',#99,.T.);
#84=FACE_OUTER_BOUND('',#100,.T.);
#85=FACE_OUTER_BOUND('',#101,.T.);
#86=FACE_OUTER_BOUND('',#102,.T.);
#87=FACE_OUTER_BOUND('',#103,.T.);
#88=FACE_OUTER_BOUND('',#104,.T.);
#89=FACE_OUTER_BOUND('',#105,.T.);
#90=FACE_OUTER_BOUND('',#106,.T.);
#91=FACE_OUTER_BOUND('',#109,.T.);
#92=FACE_OUTER_BOUND('',#110,.T.);
#93=FACE_OUTER_BOUND('',#113,.T.);
#94=FACE_OUTER_BOUND('',#114,.T.);
#95=FACE_OUTER_BOUND('',#115,.T.);
#96=FACE_OUTER_BOUND('',#116,.T.);
#97=FACE_OUTER_BOUND('',#117,.T.);
#98=EDGE_LOOP('',(#118,#119,#120,#121));
#99=EDGE_LOOP('',(#122,#123,#124,#125));
#100=EDGE_LOOP('',(#126,#127));
#101=EDGE_LOOP('',(#128,#129,#130,#131));
#102=EDGE_LOOP('',(#132,#133,#134,#135));
#103=EDGE_LOOP('',(#136,#137));
#104=EDGE_LOOP('',(#138,#139,#140,#141));
#105=EDGE_LOOP('',(#142,#143));
#106=EDGE_LOOP('',(#144,#145,#146,#147));
#107=EDGE_LOOP('',(#148,#149));
#108=EDGE_LOOP('',(#150,#151));
#109=EDGE_LOOP('',(#152,#153,#154,#155));
#110=EDGE_LOOP('',(#156,#157,#158,#159));
#111=EDGE_LOOP('',(#160,#161));
#112=EDGE_LOOP('',(#162,#163));
#113=EDGE_LOOP('',(#164,#165,#166,#167));
#114=EDGE_LOOP('',(#168,#169,#170,#171));
#115=EDGE_LOOP('',(#172,#173,#174,#175));
#116=EDGE_LOOP('',(#176,#177,#178,#179));
#117=EDGE_LOOP('',(#180,#181));
#118=ORIENTED_EDGE('',*,*,#202,.T.);
#119=ORIENTED_EDGE('',*,*,#203,.T.);
#120=ORIENTED_EDGE('',*,*,#204,.T.);
#121=ORIENTED_EDGE('',*,*,#205,.F.);
#122=ORIENTED_EDGE('',*,*,#206,.T.);
#123=ORIENTED_EDGE('',*,*,#203,.F.);
#124=ORIENTED_EDGE('',*,*,#207,.T.);
#125=ORIENTED_EDGE('',*,*,#205,.T.);
#126=ORIENTED_EDGE('',*,*,#202,.F.);
#127=ORIENTED_EDGE('',*,*,#207,.F.);
#128=ORIENTED_EDGE('',*,*,#208,.T.);
#129=ORIENTED_EDGE('',*,*,#209,.T.);
#130=ORIENTED_EDGE('',*,*,#206,.F.);
#131=ORIENTED_EDGE('',*,*,#210,.F.);
#132=ORIENTED_EDGE('',*,*,#204,.F.);
#133=ORIENTED_EDGE('',*,*,#209,.F.);
#134=ORIENTED_EDGE('',*,*,#211,.T.);
#135=ORIENTED_EDGE('',*,*,#210,.T.);
#136=ORIENTED_EDGE('',*,*,#211,.F.);
#137=ORIENTED_EDGE('',*,*,#208,.F.);
#138=ORIENTED_EDGE('',*,*,#212,.F.);
#139=ORIENTED_EDGE('',*,*,#213,.T.);
#140=ORIENTED_EDGE('',*,*,#214,.T.);
#141=ORIENTED_EDGE('',*,*,#215,.T.);
#142=ORIENTED_EDGE('',*,*,#216,.F.);
#143=ORIENTED_EDGE('',*,*,#215,.F.);
#144=ORIENTED_EDGE('',*,*,#214,.F.);
#145=ORIENTED_EDGE('',*,*,#217,.T.);
#146=ORIENTED_EDGE('',*,*,#212,.T.);
#147=ORIENTED_EDGE('',*,*,#216,.T.);
#148=ORIENTED_EDGE('',*,*,#213,.F.);
#149=ORIENTED_EDGE('',*,*,#217,.F.);
#150=ORIENTED_EDGE('',*,*,#218,.F.);
#151=ORIENTED_EDGE('',*,*,#219,.F.);
#152=ORIENTED_EDGE('',*,*,#220,.T.);
#153=ORIENTED_EDGE('',*,*,#221,.T.);
#154=ORIENTED_EDGE('',*,*,#219,.T.);
#155=ORIENTED_EDGE('',*,*,#222,.F.);
#156=ORIENTED_EDGE('',*,*,#218,.T.);
#157=ORIENTED_EDGE('',*,*,#221,.F.);
#158=ORIENTED_EDGE('',*,*,#223,.T.);
#159=ORIENTED_EDGE('',*,*,#222,.T.);
#160=ORIENTED_EDGE('',*,*,#220,.F.);
#161=ORIENTED_EDGE('',*,*,#223,.F.);
#162=ORIENTED_EDGE('',*,*,#224,.F.);
#163=ORIENTED_EDGE('',*,*,#225,.F.);
#164=ORIENTED_EDGE('',*,*,#226,.T.);
#165=ORIENTED_EDGE('',*,*,#227,.T.);
#166=ORIENTED_EDGE('',*,*,#225,.T.);
#167=ORIENTED_EDGE('',*,*,#228,.F.);
#168=ORIENTED_EDGE('',*,*,#224,.T.);
#169=ORIENTED_EDGE('',*,*,#227,.F.);
#170=ORIENTED_EDGE('',*,*,#229,.T.);
#171=ORIENTED_EDGE('',*,*,#228,.T.);
#172=ORIENTED_EDGE('',*,*,#229,.F.);
#173=ORIENTED_EDGE('',*,*,#230,.T.);
#174=ORIENTED_EDGE('',*,*,#231,.T.);
#175=ORIENTED_EDGE('',*,*,#232,.F.);
#176=ORIENTED_EDGE('',*,*,#233,.T.);
#177=ORIENTED_EDGE('',*,*,#230,.F.);
#178=ORIENTED_EDGE('',*,*,#226,.F.);
#179=ORIENTED_EDGE('',*,*,#232,.T.);
#180=ORIENTED_EDGE('',*,*,#233,.F.);
#181=ORIENTED_EDGE('',*,*,#231,.F.);
#182=VERTEX_POINT('',#550);
#183=VERTEX_POINT('',#551);
#184=VERTEX_POINT('',#553);
#185=VERTEX_POINT('',#555);
#186=VERTEX_POINT('',#563);
#187=VERTEX_POINT('',#564);
#188=VERTEX_POINT('',#572);
#189=VERTEX_POINT('',#573);
#190=VERTEX_POINT('',#575);
#191=VERTEX_POINT('',#577);
#192=VERTEX_POINT('',#585);
#193=VERTEX_POINT('',#586);
#194=VERTEX_POINT('',#590);
#195=VERTEX_POINT('',#591);
#196=VERTEX_POINT('',#598);
#197=VERTEX_POINT('',#599);
#198=VERTEX_POINT('',#603);
#199=VERTEX_POINT('',#604);
#200=VERTEX_POINT('',#611);
#201=VERTEX_POINT('',#613);
#202=EDGE_CURVE('',#182,#183,#234,.T.);
#203=EDGE_CURVE('',#183,#184,#298,.T.);
#204=EDGE_CURVE('',#184,#185,#235,.T.);
#205=EDGE_CURVE('',#182,#185,#299,.T.);
#206=EDGE_CURVE('',#185,#184,#236,.T.);
#207=EDGE_CURVE('',#183,#182,#237,.T.);
#208=EDGE_CURVE('',#186,#187,#238,.T.);
#209=EDGE_CURVE('',#187,#184,#300,.T.);
#210=EDGE_CURVE('',#186,#185,#301,.T.);
#211=EDGE_CURVE('',#187,#186,#239,.T.);
#212=EDGE_CURVE('',#188,#189,#302,.T.);
#213=EDGE_CURVE('',#188,#190,#240,.T.);
#214=EDGE_CURVE('',#190,#191,#303,.T.);
#215=EDGE_CURVE('',#191,#189,#241,.T.);
#216=EDGE_CURVE('',#189,#191,#242,.T.);
#217=EDGE_CURVE('',#190,#188,#243,.T.);
#218=EDGE_CURVE('',#192,#193,#244,.T.);
#219=EDGE_CURVE('',#193,#192,#245,.T.);
#220=EDGE_CURVE('',#194,#195,#246,.T.);
#221=EDGE_CURVE('',#195,#193,#304,.T.);
#222=EDGE_CURVE('',#194,#192,#305,.T.);
#223=EDGE_CURVE('',#195,#194,#247,.T.);
#224=EDGE_CURVE('',#196,#197,#248,.T.);
#225=EDGE_CURVE('',#197,#196,#249,.T.);
#226=EDGE_CURVE('',#198,#199,#250,.T.);
#227=EDGE_CURVE('',#199,#197,#306,.T.);
#228=EDGE_CURVE('',#198,#196,#307,.T.);
#229=EDGE_CURVE('',#199,#198,#251,.T.);
#230=EDGE_CURVE('',#199,#200,#308,.T.);
#231=EDGE_CURVE('',#200,#201,#252,.T.);
#232=EDGE_CURVE('',#198,#201,#309,.T.);
#233=EDGE_CURVE('',#201,#200,#253,.T.);
#234=CIRCLE('',#379,10.);
#235=CIRCLE('',#380,10.);
#236=CIRCLE('',#382,10.);
#237=CIRCLE('',#383,10.);
#238=CIRCLE('',#386,9.4);
#239=CIRCLE('',#388,9.4);
#240=CIRCLE('',#391,9.75);
#241=CIRCLE('',#392,9.75);
#242=CIRCLE('',#394,9.75);
#243=CIRCLE('',#396,9.75);
#244=CIRCLE('',#398,7.);
#245=CIRCLE('',#399,7.);
#246=CIRCLE('',#401,6.65);
#247=CIRCLE('',#403,6.65);
#248=CIRCLE('',#405,5.);
#249=CIRCLE('',#406,5.);
#250=CIRCLE('',#408,5.);
#251=CIRCLE('',#410,5.);
#252=CIRCLE('',#412,4.25);
#253=CIRCLE('',#414,4.25);
#254=COLOUR_RGB('Strong Stone',0.576470588235294,0.54508278019379,0.392156862745098);
#255=COLOUR_RGB('Medium Umber',0.372533760585946,0.313725490196078,0.270572976272221);
#256=COLOUR_RGB('Light Gray',0.8,0.8,0.8);
#257=COLOUR_RGB('non-cutting part and shank',0.501960784313725,0.501960784313725,
0.501960784313725);
#258=CURVE_STYLE('',#273,POSITIVE_LENGTH_MEASURE(0.18),#367);
#259=CURVE_STYLE('',#274,POSITIVE_LENGTH_MEASURE(0.18),#367);
#260=CURVE_STYLE('',#275,POSITIVE_LENGTH_MEASURE(0.18),#367);
#261=CURVE_STYLE('',#276,POSITIVE_LENGTH_MEASURE(0.18),#367);
#262=CURVE_STYLE('',#277,POSITIVE_LENGTH_MEASURE(0.18),#367);
#263=CURVE_STYLE('',#278,POSITIVE_LENGTH_MEASURE(0.13),#254);
#264=CURVE_STYLE('',#279,POSITIVE_LENGTH_MEASURE(0.13),#254);
#265=CURVE_STYLE('',#280,POSITIVE_LENGTH_MEASURE(0.13),#255);
#266=CURVE_STYLE('',#281,POSITIVE_LENGTH_MEASURE(0.13),#255);
#267=CURVE_STYLE('',#282,POSITIVE_LENGTH_MEASURE(0.13),#254);
#268=CURVE_STYLE('',#283,POSITIVE_LENGTH_MEASURE(0.13),#254);
#269=CURVE_STYLE('',#284,POSITIVE_LENGTH_MEASURE(0.13),#255);
#270=CURVE_STYLE('',#285,POSITIVE_LENGTH_MEASURE(0.13),#254);
#271=CURVE_STYLE('',#286,POSITIVE_LENGTH_MEASURE(0.13),#254);
#272=CURVE_STYLE('',#287,POSITIVE_LENGTH_MEASURE(0.13),#254);
#273=DRAUGHTING_PRE_DEFINED_CURVE_FONT('continuous');
#274=DRAUGHTING_PRE_DEFINED_CURVE_FONT('continuous');
#275=DRAUGHTING_PRE_DEFINED_CURVE_FONT('continuous');
#276=DRAUGHTING_PRE_DEFINED_CURVE_FONT('continuous');
#277=DRAUGHTING_PRE_DEFINED_CURVE_FONT('continuous');
#278=DRAUGHTING_PRE_DEFINED_CURVE_FONT('continuous');
#279=DRAUGHTING_PRE_DEFINED_CURVE_FONT('continuous');
#280=DRAUGHTING_PRE_DEFINED_CURVE_FONT('continuous');
#281=DRAUGHTING_PRE_DEFINED_CURVE_FONT('continuous');
#282=DRAUGHTING_PRE_DEFINED_CURVE_FONT('continuous');
#283=DRAUGHTING_PRE_DEFINED_CURVE_FONT('continuous');
#284=DRAUGHTING_PRE_DEFINED_CURVE_FONT('continuous');
#285=DRAUGHTING_PRE_DEFINED_CURVE_FONT('continuous');
#286=DRAUGHTING_PRE_DEFINED_CURVE_FONT('continuous');
#287=DRAUGHTING_PRE_DEFINED_CURVE_FONT('continuous');
#288=TRIMMED_CURVE('',#293,(PARAMETER_VALUE(0.)),(PARAMETER_VALUE(1.)),
 .T.,.PARAMETER.);
#289=TRIMMED_CURVE('',#294,(PARAMETER_VALUE(0.)),(PARAMETER_VALUE(1.)),
 .T.,.PARAMETER.);
#290=TRIMMED_CURVE('',#295,(PARAMETER_VALUE(0.)),(PARAMETER_VALUE(1.)),
 .T.,.PARAMETER.);
#291=TRIMMED_CURVE('',#296,(PARAMETER_VALUE(0.)),(PARAMETER_VALUE(1.)),
 .T.,.PARAMETER.);
#292=TRIMMED_CURVE('',#297,(PARAMETER_VALUE(0.)),(PARAMETER_VALUE(1.)),
 .T.,.PARAMETER.);
#293=LINE('',#534,#310);
#294=LINE('',#535,#311);
#295=LINE('',#536,#312);
#296=LINE('',#537,#313);
#297=LINE('',#538,#314);
#298=LINE('',#552,#315);
#299=LINE('',#556,#316);
#300=LINE('',#565,#317);
#301=LINE('',#566,#318);
#302=LINE('',#571,#319);
#303=LINE('',#576,#320);
#304=LINE('',#592,#321);
#305=LINE('',#593,#322);
#306=LINE('',#605,#323);
#307=LINE('',#606,#324);
#308=LINE('',#610,#325);
#309=LINE('',#614,#326);
#310=VECTOR('',#419,9.4);
#311=VECTOR('',#420,0.933434296116293);
#312=VECTOR('',#421,20.28494784444);
#313=VECTOR('',#422,10.);
#314=VECTOR('',#423,21.);
#315=VECTOR('',#446,1.);
#316=VECTOR('',#449,1.);
#317=VECTOR('',#462,1.);
#318=VECTOR('',#463,1.);
#319=VECTOR('',#472,1.);
#320=VECTOR('',#475,1.);
#321=VECTOR('',#496,1.);
#322=VECTOR('',#497,1.);
#323=VECTOR('',#512,1.);
#324=VECTOR('',#513,1.);
#325=VECTOR('',#520,1.);
#326=VECTOR('',#523,1.);
#327=PRESENTATION_LAYER_ASSIGNMENT('1','Layer 1',(#533,#288,#289,#290,#291,
#292,#369,#370,#373,#374,#375,#376,#377,#378,#42,#43));
#328=PRESENTATION_LAYER_ASSIGNMENT('2','Layer 2',(#371,#372));
#329=STYLED_ITEM('',(#347),#533);
#330=STYLED_ITEM('',(#348),#288);
#331=STYLED_ITEM('',(#349),#289);
#332=STYLED_ITEM('',(#350),#290);
#333=STYLED_ITEM('',(#351),#291);
#334=STYLED_ITEM('',(#352),#292);
#335=STYLED_ITEM('',(#353),#369);
#336=STYLED_ITEM('',(#354),#370);
#337=STYLED_ITEM('',(#355),#371);
#338=STYLED_ITEM('',(#356),#372);
#339=STYLED_ITEM('',(#357),#373);
#340=STYLED_ITEM('',(#358),#374);
#341=STYLED_ITEM('',(#359),#375);
#342=STYLED_ITEM('',(#360),#376);
#343=STYLED_ITEM('',(#361),#377);
#344=STYLED_ITEM('',(#362),#378);
#345=STYLED_ITEM('',(#363),#42);
#346=STYLED_ITEM('',(#364),#43);
#347=PRESENTATION_STYLE_ASSIGNMENT((#365));
#348=PRESENTATION_STYLE_ASSIGNMENT((#258));
#349=PRESENTATION_STYLE_ASSIGNMENT((#259));
#350=PRESENTATION_STYLE_ASSIGNMENT((#260));
#351=PRESENTATION_STYLE_ASSIGNMENT((#261));
#352=PRESENTATION_STYLE_ASSIGNMENT((#262));
#353=PRESENTATION_STYLE_ASSIGNMENT((#263));
#354=PRESENTATION_STYLE_ASSIGNMENT((#264));
#355=PRESENTATION_STYLE_ASSIGNMENT((#265));
#356=PRESENTATION_STYLE_ASSIGNMENT((#266));
#357=PRESENTATION_STYLE_ASSIGNMENT((#267));
#358=PRESENTATION_STYLE_ASSIGNMENT((#268));
#359=PRESENTATION_STYLE_ASSIGNMENT((#269));
#360=PRESENTATION_STYLE_ASSIGNMENT((#270));
#361=PRESENTATION_STYLE_ASSIGNMENT((#271));
#362=PRESENTATION_STYLE_ASSIGNMENT((#272));
#363=PRESENTATION_STYLE_ASSIGNMENT((#32));
#364=PRESENTATION_STYLE_ASSIGNMENT((#33));
#365=POINT_STYLE('',#366,POSITIVE_LENGTH_MEASURE(3.),#367);
#366=PRE_DEFINED_POINT_MARKER_SYMBOL('plus');
#367=DRAUGHTING_PRE_DEFINED_COLOUR('blue');
#368=AXIS2_PLACEMENT_3D('',#532,#417,#418);
#369=AXIS2_PLACEMENT_3D('',#539,#424,#425);
#370=AXIS2_PLACEMENT_3D('',#540,#426,#427);
#371=AXIS2_PLACEMENT_3D('CIP',#541,#428,#429);
#372=AXIS2_PLACEMENT_3D('PCS',#542,#430,#431);
#373=AXIS2_PLACEMENT_3D('MCS',#543,#432,#433);
#374=AXIS2_PLACEMENT_3D('',#544,#434,#435);
#375=AXIS2_PLACEMENT_3D('STEP_TEMP_IMX_8_1',#545,#436,#437);
#376=AXIS2_PLACEMENT_3D('',#546,#438,#439);
#377=AXIS2_PLACEMENT_3D('',#547,#440,#441);
#378=AXIS2_PLACEMENT_3D('',#548,#442,#443);
#379=AXIS2_PLACEMENT_3D('',#549,#444,#445);
#380=AXIS2_PLACEMENT_3D('',#554,#447,#448);
#381=AXIS2_PLACEMENT_3D('',#557,#450,#451);
#382=AXIS2_PLACEMENT_3D('',#558,#452,#453);
#383=AXIS2_PLACEMENT_3D('',#559,#454,#455);
#384=AXIS2_PLACEMENT_3D('',#560,#456,#457);
#385=AXIS2_PLACEMENT_3D('',#561,#458,#459);
#386=AXIS2_PLACEMENT_3D('',#562,#460,#461);
#387=AXIS2_PLACEMENT_3D('',#567,#464,#465);
#388=AXIS2_PLACEMENT_3D('',#568,#466,#467);
#389=AXIS2_PLACEMENT_3D('',#569,#468,#469);
#390=AXIS2_PLACEMENT_3D('',#570,#470,#471);
#391=AXIS2_PLACEMENT_3D('',#574,#473,#474);
#392=AXIS2_PLACEMENT_3D('',#578,#476,#477);
#393=AXIS2_PLACEMENT_3D('',#579,#478,#479);
#394=AXIS2_PLACEMENT_3D('',#580,#480,#481);
#395=AXIS2_PLACEMENT_3D('',#581,#482,#483);
#396=AXIS2_PLACEMENT_3D('',#582,#484,#485);
#397=AXIS2_PLACEMENT_3D('',#583,#486,#487);
#398=AXIS2_PLACEMENT_3D('',#584,#488,#489);
#399=AXIS2_PLACEMENT_3D('',#587,#490,#491);
#400=AXIS2_PLACEMENT_3D('',#588,#492,#493);
#401=AXIS2_PLACEMENT_3D('',#589,#494,#495);
#402=AXIS2_PLACEMENT_3D('',#594,#498,#499);
#403=AXIS2_PLACEMENT_3D('',#595,#500,#501);
#404=AXIS2_PLACEMENT_3D('',#596,#502,#503);
#405=AXIS2_PLACEMENT_3D('',#597,#504,#505);
#406=AXIS2_PLACEMENT_3D('',#600,#506,#507);
#407=AXIS2_PLACEMENT_3D('',#601,#508,#509);
#408=AXIS2_PLACEMENT_3D('',#602,#510,#511);
#409=AXIS2_PLACEMENT_3D('',#607,#514,#515);
#410=AXIS2_PLACEMENT_3D('',#608,#516,#517);
#411=AXIS2_PLACEMENT_3D('',#609,#518,#519);
#412=AXIS2_PLACEMENT_3D('',#612,#521,#522);
#413=AXIS2_PLACEMENT_3D('',#615,#524,#525);
#414=AXIS2_PLACEMENT_3D('',#616,#526,#527);
#415=AXIS2_PLACEMENT_3D('',#617,#528,#529);
#416=AXIS2_PLACEMENT_3D('',#618,#530,#531);
#417=DIRECTION('',(0.,0.,1.));
#418=DIRECTION('',(1.,0.,0.));
#419=DIRECTION('',(-1.,0.,0.));
#420=DIRECTION('',(-0.642787609686506,0.,0.766044443119006));
#421=DIRECTION('',(0.,0.,1.));
#422=DIRECTION('',(1.,0.,0.));
#423=DIRECTION('',(0.,0.,-1.));
#424=DIRECTION('',(0.,0.,1.));
#425=DIRECTION('',(1.,0.,0.));
#426=DIRECTION('',(0.,0.,1.));
#427=DIRECTION('',(1.,0.,0.));
#428=DIRECTION('',(0.,0.,1.));
#429=DIRECTION('',(1.,0.,0.));
#430=DIRECTION('',(0.,0.,1.));
#431=DIRECTION('',(1.,0.,0.));
#432=DIRECTION('',(0.,0.,1.));
#433=DIRECTION('',(1.,0.,0.));
#434=DIRECTION('',(0.,0.,1.));
#435=DIRECTION('',(1.,0.,0.));
#436=DIRECTION('',(0.,0.,1.));
#437=DIRECTION('',(1.,0.,0.));
#438=DIRECTION('',(0.,0.,1.));
#439=DIRECTION('',(1.,0.,0.));
#440=DIRECTION('',(0.,0.,1.));
#441=DIRECTION('',(1.,0.,0.));
#442=DIRECTION('',(0.,0.,1.));
#443=DIRECTION('',(1.,0.,0.));
#444=DIRECTION('',(0.,0.,-1.));
#445=DIRECTION('',(0.,1.,0.));
#446=DIRECTION('',(0.,0.,-1.));
#447=DIRECTION('',(0.,0.,1.));
#448=DIRECTION('',(0.,-1.,0.));
#449=DIRECTION('',(0.,0.,-1.));
#450=DIRECTION('',(0.,0.,-1.));
#451=DIRECTION('',(0.,1.,0.));
#452=DIRECTION('',(0.,0.,1.));
#453=DIRECTION('',(0.,1.,0.));
#454=DIRECTION('',(0.,0.,-1.));
#455=DIRECTION('',(0.,-1.,0.));
#456=DIRECTION('',(0.,0.,-1.));
#457=DIRECTION('',(0.,1.,0.));
#458=DIRECTION('',(0.,0.,-1.));
#459=DIRECTION('',(0.,1.,0.));
#460=DIRECTION('',(0.,0.,1.));
#461=DIRECTION('',(0.,1.,0.));
#462=DIRECTION('',(0.,-0.642787609686505,0.766044443119006));
#463=DIRECTION('',(0.,0.642787609686505,0.766044443119006));
#464=DIRECTION('',(0.,0.,1.));
#465=DIRECTION('',(0.,-1.,1.08126477121111E-16));
#466=DIRECTION('',(0.,0.,1.));
#467=DIRECTION('',(0.,-1.,0.));
#468=DIRECTION('',(0.,0.,1.));
#469=DIRECTION('',(0.,-1.,1.08126477121111E-16));
#470=DIRECTION('',(0.,0.,-1.));
#471=DIRECTION('',(0.,1.,0.));
#472=DIRECTION('',(0.,0.,-1.));
#473=DIRECTION('',(0.,0.,-1.));
#474=DIRECTION('',(0.,1.,0.));
#475=DIRECTION('',(0.,0.,-1.));
#476=DIRECTION('',(0.,0.,1.));
#477=DIRECTION('',(0.,-1.,0.));
#478=DIRECTION('',(0.,0.,-1.));
#479=DIRECTION('',(0.,1.,0.));
#480=DIRECTION('',(0.,0.,1.));
#481=DIRECTION('',(0.,1.,0.));
#482=DIRECTION('',(0.,0.,1.));
#483=DIRECTION('',(-1.,0.,0.));
#484=DIRECTION('',(0.,0.,-1.));
#485=DIRECTION('',(0.,-1.,0.));
#486=DIRECTION('',(0.,0.,-1.));
#487=DIRECTION('',(0.,1.,0.));
#488=DIRECTION('',(0.,0.,1.));
#489=DIRECTION('',(0.,1.,0.));
#490=DIRECTION('',(0.,0.,1.));
#491=DIRECTION('',(0.,-1.,0.));
#492=DIRECTION('',(0.,0.,-1.));
#493=DIRECTION('',(0.,1.,0.));
#494=DIRECTION('',(0.,0.,-1.));
#495=DIRECTION('',(0.,1.,0.));
#496=DIRECTION('',(0.,-0.0333148302326285,-0.999444906979155));
#497=DIRECTION('',(0.,0.0333148302326285,-0.999444906979155));
#498=DIRECTION('',(0.,0.,-1.));
#499=DIRECTION('',(0.,1.,0.));
#500=DIRECTION('',(0.,0.,-1.));
#501=DIRECTION('',(0.,-1.,0.));
#502=DIRECTION('',(0.,0.,-1.));
#503=DIRECTION('',(0.,1.,0.));
#504=DIRECTION('',(0.,0.,1.));
#505=DIRECTION('',(0.,1.,0.));
#506=DIRECTION('',(0.,0.,1.));
#507=DIRECTION('',(0.,-1.,0.));
#508=DIRECTION('',(0.,0.,-1.));
#509=DIRECTION('',(0.,1.,0.));
#510=DIRECTION('',(0.,0.,-1.));
#511=DIRECTION('',(0.,1.,0.));
#512=DIRECTION('',(0.,0.,-1.));
#513=DIRECTION('',(0.,0.,-1.));
#514=DIRECTION('',(0.,0.,-1.));
#515=DIRECTION('',(0.,1.,0.));
#516=DIRECTION('',(0.,0.,-1.));
#517=DIRECTION('',(0.,-1.,0.));
#518=DIRECTION('',(0.,0.,-1.));
#519=DIRECTION('',(0.,1.,0.));
#520=DIRECTION('',(0.,0.707106781186547,0.707106781186547));
#521=DIRECTION('',(0.,0.,-1.));
#522=DIRECTION('',(0.,-1.,0.));
#523=DIRECTION('',(0.,-0.707106781186547,0.707106781186547));
#524=DIRECTION('',(0.,0.,-1.));
#525=DIRECTION('',(0.,1.,2.7627797054253E-17));
#526=DIRECTION('',(0.,0.,-1.));
#527=DIRECTION('',(0.,1.,0.));
#528=DIRECTION('',(0.,0.,-1.));
#529=DIRECTION('',(0.,1.,2.7627797054253E-17));
#530=DIRECTION('',(0.,0.,-1.));
#531=DIRECTION('',(0.,1.,0.));
#532=CARTESIAN_POINT('',(0.,0.,0.));
#533=CARTESIAN_POINT('CRP',(-10.,0.,0.));
#534=CARTESIAN_POINT('',(0.,0.,1.06085361838E-14));
#535=CARTESIAN_POINT('',(-9.4,0.,0.));
#536=CARTESIAN_POINT('',(-10.,0.,0.7150521555565));
#537=CARTESIAN_POINT('',(-10.,0.,21.));
#538=CARTESIAN_POINT('',(0.,0.,21.));
#539=CARTESIAN_POINT('',(0.,0.,0.));
#540=CARTESIAN_POINT('',(0.,0.,0.));
#541=CARTESIAN_POINT('',(0.,0.,0.));
#542=CARTESIAN_POINT('',(0.,0.,30.));
#543=CARTESIAN_POINT('',(0.,0.,30.));
#544=CARTESIAN_POINT('',(0.,0.,0.));
#545=CARTESIAN_POINT('',(0.,0.,0.));
#546=CARTESIAN_POINT('',(0.,0.,0.));
#547=CARTESIAN_POINT('',(0.,0.,0.));
#548=CARTESIAN_POINT('',(0.,0.,0.));
#549=CARTESIAN_POINT('',(0.,0.,21.));
#550=CARTESIAN_POINT('',(0.,10.,21.));
#551=CARTESIAN_POINT('',(0.,-10.,21.));
#552=CARTESIAN_POINT('',(0.,-10.,21.));
#553=CARTESIAN_POINT('',(0.,-10.,0.7150521555566));
#554=CARTESIAN_POINT('',(0.,0.,0.7150521555566));
#555=CARTESIAN_POINT('',(0.,10.,0.7150521555566));
#556=CARTESIAN_POINT('',(0.,10.,21.));
#557=CARTESIAN_POINT('',(0.,0.,53.55));
#558=CARTESIAN_POINT('',(0.,0.,0.7150521555566));
#559=CARTESIAN_POINT('',(0.,0.,21.));
#560=CARTESIAN_POINT('',(0.,0.,53.55));
#561=CARTESIAN_POINT('',(0.,0.,21.));
#562=CARTESIAN_POINT('',(0.,0.,0.));
#563=CARTESIAN_POINT('',(0.,9.4,0.));
#564=CARTESIAN_POINT('',(0.,-9.4,0.));
#565=CARTESIAN_POINT('',(0.,-10.,0.7150521555566));
#566=CARTESIAN_POINT('',(0.,10.,0.7150521555566));
#567=CARTESIAN_POINT('',(0.,0.,0.3575260777783));
#568=CARTESIAN_POINT('',(0.,0.,0.));
#569=CARTESIAN_POINT('',(0.,0.,0.3575260777783));
#570=CARTESIAN_POINT('',(0.,0.,0.));
#571=CARTESIAN_POINT('',(0.,9.75,30.));
#572=CARTESIAN_POINT('',(0.,9.75,30.));
#573=CARTESIAN_POINT('',(0.,9.75,21.));
#574=CARTESIAN_POINT('',(0.,0.,30.));
#575=CARTESIAN_POINT('',(0.,-9.75,30.));
#576=CARTESIAN_POINT('',(0.,-9.75,30.));
#577=CARTESIAN_POINT('',(0.,-9.75,21.));
#578=CARTESIAN_POINT('',(0.,0.,21.));
#579=CARTESIAN_POINT('',(0.,0.,53.55));
#580=CARTESIAN_POINT('',(0.,0.,21.));
#581=CARTESIAN_POINT('',(-150.,150.,21.));
#582=CARTESIAN_POINT('',(0.,0.,30.));
#583=CARTESIAN_POINT('',(0.,0.,53.55));
#584=CARTESIAN_POINT('',(0.,0.,30.));
#585=CARTESIAN_POINT('',(0.,7.,30.));
#586=CARTESIAN_POINT('',(0.,-7.,30.));
#587=CARTESIAN_POINT('',(0.,0.,30.));
#588=CARTESIAN_POINT('',(0.,0.,30.));
#589=CARTESIAN_POINT('',(0.,0.,40.5));
#590=CARTESIAN_POINT('',(0.,6.65,40.5));
#591=CARTESIAN_POINT('',(0.,-6.65,40.5));
#592=CARTESIAN_POINT('',(0.,-6.65,40.5));
#593=CARTESIAN_POINT('',(0.,6.65,40.5));
#594=CARTESIAN_POINT('',(0.,0.,35.25));
#595=CARTESIAN_POINT('',(0.,0.,40.5));
#596=CARTESIAN_POINT('',(0.,0.,35.25));
#597=CARTESIAN_POINT('',(0.,0.,40.5));
#598=CARTESIAN_POINT('',(0.,5.,40.5));
#599=CARTESIAN_POINT('',(0.,-5.,40.5));
#600=CARTESIAN_POINT('',(0.,0.,40.5));
#601=CARTESIAN_POINT('',(0.,0.,40.5));
#602=CARTESIAN_POINT('',(0.,0.,50.25));
#603=CARTESIAN_POINT('',(0.,5.,50.25));
#604=CARTESIAN_POINT('',(0.,-5.,50.25));
#605=CARTESIAN_POINT('',(0.,-5.,50.25));
#606=CARTESIAN_POINT('',(0.,5.,50.25));
#607=CARTESIAN_POINT('',(0.,0.,53.55));
#608=CARTESIAN_POINT('',(0.,0.,50.25));
#609=CARTESIAN_POINT('',(0.,0.,53.55));
#610=CARTESIAN_POINT('',(0.,-4.25,51.));
#611=CARTESIAN_POINT('',(0.,-4.25,51.));
#612=CARTESIAN_POINT('',(0.,0.,51.));
#613=CARTESIAN_POINT('',(0.,4.25,51.));
#614=CARTESIAN_POINT('',(0.,4.25,51.));
#615=CARTESIAN_POINT('',(0.,0.,50.625));
#616=CARTESIAN_POINT('',(0.,0.,51.));
#617=CARTESIAN_POINT('',(0.,0.,50.625));
#618=CARTESIAN_POINT('',(0.,0.,51.));
#619=MECHANICAL_DESIGN_GEOMETRIC_PRESENTATION_REPRESENTATION('',(#329,#330,
#331,#332,#333,#334,#335,#336,#337,#338,#339,#340,#341,#342,#343,#344,#345,
#346),#620);
#620=(
GEOMETRIC_REPRESENTATION_CONTEXT(3)
GLOBAL_UNCERTAINTY_ASSIGNED_CONTEXT((#621))
GLOBAL_UNIT_ASSIGNED_CONTEXT((#627,#623,#622))
REPRESENTATION_CONTEXT('IMX20R4F20021','TOP_LEVEL_ASSEMBLY_PART')
);
#621=UNCERTAINTY_MEASURE_WITH_UNIT(LENGTH_MEASURE(2.E-5),#627,
'DISTANCE_ACCURACY_VALUE','Maximum Tolerance applied to model');
#622=(
NAMED_UNIT(*)
SI_UNIT($,.STERADIAN.)
SOLID_ANGLE_UNIT()
);
#623=(
CONVERSION_BASED_UNIT('DEGREE',#625)
NAMED_UNIT(#624)
PLANE_ANGLE_UNIT()
);
#624=DIMENSIONAL_EXPONENTS(0.,0.,0.,0.,0.,0.,0.);
#625=PLANE_ANGLE_MEASURE_WITH_UNIT(PLANE_ANGLE_MEASURE(0.0174532925),#626);
#626=(
NAMED_UNIT(*)
PLANE_ANGLE_UNIT()
SI_UNIT($,.RADIAN.)
);
#627=(
LENGTH_UNIT()
NAMED_UNIT(*)
SI_UNIT(.MILLI.,.METRE.)
);
ENDSEC;
END-ISO-10303-21;
