ISO-10303-21;
HEADER;
/* Generated by software containing ST-Developer
 * from STEP Tools, Inc. (www.steptools.com) 
 */
/* OPTION: using custom schema-name function */

FILE_DESCRIPTION(
/* description */ (''),
/* implementation_level */ '2;1');

FILE_NAME(
/* name */ 'VQMHVD1200S10.stp',
/* time_stamp */ '2023-03-17T09:17:56+09:00',
/* author */ (''),
/* organization */ (''),
/* preprocessor_version */ 'ST-DEVELOPER v16',
/* originating_system */ 'SIEMENS PLM Software NX 10.0',
/* authorisation */ '');

FILE_SCHEMA (('AUTOMOTIVE_DESIGN { 1 0 10303 214 3 1 1 1 }'));
ENDSEC;

DATA;
#10=CONSTRUCTIVE_GEOMETRY_REPRESENTATION_RELATIONSHIP(
'supplemental geometry','',#26,#11);
#11=CONSTRUCTIVE_GEOMETRY_REPRESENTATION('supplemental geometry',(#300,
#301,#302,#303,#304,#305,#306,#307,#308,#309),#551);
#12=GEOMETRICALLY_BOUNDED_WIREFRAME_SHAPE_REPRESENTATION(
'VQMHVD1200S10-None',(#27),#551);
#13=SHAPE_REPRESENTATION_RELATIONSHIP('None',
'relationship between VQMHVD1200S10-None and VQMHVD1200S10-None',#26,#15);
#14=SHAPE_REPRESENTATION_RELATIONSHIP('None',
'relationship between VQMHVD1200S10-None and VQMHVD1200S10-None',#26,#12);
#15=ADVANCED_BREP_SHAPE_REPRESENTATION('VQMHVD1200S10-None',(#44,#45),#551);
#16=SHAPE_DEFINITION_REPRESENTATION(#17,#26);
#17=PRODUCT_DEFINITION_SHAPE('','SHAPE FOR VQMHVD1200S10_ASM.',#18);
#18=PRODUCT_DEFINITION('part definition','',#20,#19);
#19=PRODUCT_DEFINITION_CONTEXT('part definition',#25,'design');
#20=PRODUCT_DEFINITION_FORMATION_WITH_SPECIFIED_SOURCE(' ',' ',#22,
 .NOT_KNOWN.);
#21=PRODUCT_RELATED_PRODUCT_CATEGORY('part','',(#22));
#22=PRODUCT('VQMHVD1200S10_ASM','VQMHVD1200S10_ASM','NOT SPECIFIED',(#23));
#23=PRODUCT_CONTEXT('',#25,'mechanical');
#24=APPLICATION_PROTOCOL_DEFINITION('international standard',
'automotive_design',2010,#25);
#25=APPLICATION_CONTEXT(
'core data for automotive mechanical design processes');
#26=SHAPE_REPRESENTATION('VQMHVD1200S10-None',(#299),#551);
#27=GEOMETRIC_CURVE_SET('None',(#429,#228,#229,#230,#231));
#28=CONICAL_SURFACE('',#326,5.489995996799,45.);
#29=CONICAL_SURFACE('',#328,5.489995996799,45.);
#30=CONICAL_SURFACE('',#334,4.75,45.);
#31=CONICAL_SURFACE('',#336,4.75,45.);
#32=(
BOUNDED_SURFACE()
B_SPLINE_SURFACE(3,3,((#466,#467,#468,#469,#470,#471,#472),(#473,#474,#475,
#476,#477,#478,#479),(#480,#481,#482,#483,#484,#485,#486),(#487,#488,#489,
#490,#491,#492,#493)),.UNSPECIFIED.,.F.,.F.,.F.)
B_SPLINE_SURFACE_WITH_KNOTS((4,4),(4,3,4),(0.,1.),(0.,0.5,1.),
 .UNSPECIFIED.)
GEOMETRIC_REPRESENTATION_ITEM()
RATIONAL_B_SPLINE_SURFACE(((1.,0.804736793957047,0.804736793957047,1.,0.804736793957047,
0.804736793957047,1.),(0.999866599563908,0.804629441717794,0.804629441717794,
0.999866599563908,0.804629441717794,0.804629441717794,0.999866599563908),
(0.999866599563908,0.804629441717794,0.804629441717794,0.999866599563908,
0.804629441717794,0.804629441717794,0.999866599563908),(1.,0.804736793957047,
0.804736793957047,1.,0.804736793957047,0.804736793957047,1.)))
REPRESENTATION_ITEM('')
SURFACE()
);
#33=(
BOUNDED_SURFACE()
B_SPLINE_SURFACE(3,3,((#497,#498,#499,#500,#501,#502,#503),(#504,#505,#506,
#507,#508,#509,#510),(#511,#512,#513,#514,#515,#516,#517),(#518,#519,#520,
#521,#522,#523,#524)),.UNSPECIFIED.,.F.,.F.,.F.)
B_SPLINE_SURFACE_WITH_KNOTS((4,4),(4,3,4),(0.,1.),(0.,0.5,1.),
 .UNSPECIFIED.)
GEOMETRIC_REPRESENTATION_ITEM()
RATIONAL_B_SPLINE_SURFACE(((1.,0.802510115196235,0.802510115196235,1.,0.802510115196235,
0.802510115196235,1.),(0.840000000004422,0.674108496768386,0.674108496768386,
0.840000000004422,0.674108496768386,0.674108496768386,0.840000000004422),
(0.840000000004422,0.674108496768386,0.674108496768386,0.840000000004422,
0.674108496768386,0.674108496768386,0.840000000004422),(1.,0.802510115196235,
0.802510115196235,1.,0.802510115196235,0.802510115196235,1.)))
REPRESENTATION_ITEM('')
SURFACE()
);
#34=SURFACE_STYLE_USAGE(.BOTH.,#36);
#35=SURFACE_STYLE_USAGE(.BOTH.,#37);
#36=SURFACE_SIDE_STYLE('',(#38));
#37=SURFACE_SIDE_STYLE('',(#39));
#38=SURFACE_STYLE_FILL_AREA(#40);
#39=SURFACE_STYLE_FILL_AREA(#41);
#40=FILL_AREA_STYLE('',(#42));
#41=FILL_AREA_STYLE('',(#43));
#42=FILL_AREA_STYLE_COLOUR('',#297);
#43=FILL_AREA_STYLE_COLOUR('',#298);
#44=MANIFOLD_SOLID_BREP('CUT',#46);
#45=MANIFOLD_SOLID_BREP('NOCUT',#47);
#46=CLOSED_SHELL('',(#52,#53,#54,#55));
#47=CLOSED_SHELL('',(#56,#57,#58,#59,#60,#61,#62,#63,#64,#65));
#48=PLANE('',#314);
#49=PLANE('',#317);
#50=PLANE('',#323);
#51=PLANE('',#337);
#52=ADVANCED_FACE('',(#70),#66,.T.);
#53=ADVANCED_FACE('',(#71),#48,.F.);
#54=ADVANCED_FACE('',(#72),#67,.T.);
#55=ADVANCED_FACE('',(#73),#49,.T.);
#56=ADVANCED_FACE('',(#74),#32,.T.);
#57=ADVANCED_FACE('',(#75),#50,.F.);
#58=ADVANCED_FACE('',(#76),#33,.T.);
#59=ADVANCED_FACE('',(#77),#28,.T.);
#60=ADVANCED_FACE('',(#78),#29,.T.);
#61=ADVANCED_FACE('',(#79),#68,.T.);
#62=ADVANCED_FACE('',(#80),#69,.T.);
#63=ADVANCED_FACE('',(#81),#30,.T.);
#64=ADVANCED_FACE('',(#82),#31,.T.);
#65=ADVANCED_FACE('',(#83),#51,.F.);
#66=CYLINDRICAL_SURFACE('',#312,6.);
#67=CYLINDRICAL_SURFACE('',#316,6.);
#68=CYLINDRICAL_SURFACE('',#330,5.);
#69=CYLINDRICAL_SURFACE('',#332,5.);
#70=FACE_OUTER_BOUND('',#84,.T.);
#71=FACE_OUTER_BOUND('',#85,.T.);
#72=FACE_OUTER_BOUND('',#86,.T.);
#73=FACE_OUTER_BOUND('',#87,.T.);
#74=FACE_OUTER_BOUND('',#88,.T.);
#75=FACE_OUTER_BOUND('',#89,.T.);
#76=FACE_OUTER_BOUND('',#90,.T.);
#77=FACE_OUTER_BOUND('',#91,.T.);
#78=FACE_OUTER_BOUND('',#92,.T.);
#79=FACE_OUTER_BOUND('',#93,.T.);
#80=FACE_OUTER_BOUND('',#94,.T.);
#81=FACE_OUTER_BOUND('',#95,.T.);
#82=FACE_OUTER_BOUND('',#96,.T.);
#83=FACE_OUTER_BOUND('',#97,.T.);
#84=EDGE_LOOP('',(#114,#115,#116,#117));
#85=EDGE_LOOP('',(#118,#119));
#86=EDGE_LOOP('',(#120,#121,#122,#123));
#87=EDGE_LOOP('',(#124,#125));
#88=EDGE_LOOP('',(#126,#127,#128,#129));
#89=EDGE_LOOP('',(#130,#131));
#90=EDGE_LOOP('',(#132,#133,#134,#135));
#91=EDGE_LOOP('',(#136,#137,#138,#139));
#92=EDGE_LOOP('',(#140,#141,#142,#143));
#93=EDGE_LOOP('',(#144,#145,#146,#147));
#94=EDGE_LOOP('',(#148,#149,#150,#151));
#95=EDGE_LOOP('',(#152,#153,#154,#155));
#96=EDGE_LOOP('',(#156,#157,#158,#159));
#97=EDGE_LOOP('',(#160,#161));
#98=CIRCLE('',#310,6.);
#99=CIRCLE('',#311,6.);
#100=CIRCLE('',#313,6.);
#101=CIRCLE('',#315,6.);
#102=CIRCLE('',#318,24.99999999985);
#103=CIRCLE('',#319,5.979991936599);
#104=CIRCLE('',#320,24.99999999985);
#105=CIRCLE('',#321,6.);
#106=CIRCLE('',#322,6.);
#107=CIRCLE('',#324,5.979991936599);
#108=CIRCLE('',#325,5.000000000003);
#109=CIRCLE('',#327,5.000000000003);
#110=CIRCLE('',#329,5.);
#111=CIRCLE('',#331,5.);
#112=CIRCLE('',#333,4.5);
#113=CIRCLE('',#335,4.5);
#114=ORIENTED_EDGE('',*,*,#176,.T.);
#115=ORIENTED_EDGE('',*,*,#177,.T.);
#116=ORIENTED_EDGE('',*,*,#178,.F.);
#117=ORIENTED_EDGE('',*,*,#179,.T.);
#118=ORIENTED_EDGE('',*,*,#180,.F.);
#119=ORIENTED_EDGE('',*,*,#179,.F.);
#120=ORIENTED_EDGE('',*,*,#178,.T.);
#121=ORIENTED_EDGE('',*,*,#181,.T.);
#122=ORIENTED_EDGE('',*,*,#176,.F.);
#123=ORIENTED_EDGE('',*,*,#180,.T.);
#124=ORIENTED_EDGE('',*,*,#177,.F.);
#125=ORIENTED_EDGE('',*,*,#181,.F.);
#126=ORIENTED_EDGE('',*,*,#182,.F.);
#127=ORIENTED_EDGE('',*,*,#183,.F.);
#128=ORIENTED_EDGE('',*,*,#184,.T.);
#129=ORIENTED_EDGE('',*,*,#185,.T.);
#130=ORIENTED_EDGE('',*,*,#186,.F.);
#131=ORIENTED_EDGE('',*,*,#185,.F.);
#132=ORIENTED_EDGE('',*,*,#184,.F.);
#133=ORIENTED_EDGE('',*,*,#187,.F.);
#134=ORIENTED_EDGE('',*,*,#182,.T.);
#135=ORIENTED_EDGE('',*,*,#186,.T.);
#136=ORIENTED_EDGE('',*,*,#187,.T.);
#137=ORIENTED_EDGE('',*,*,#188,.T.);
#138=ORIENTED_EDGE('',*,*,#189,.F.);
#139=ORIENTED_EDGE('',*,*,#190,.F.);
#140=ORIENTED_EDGE('',*,*,#191,.F.);
#141=ORIENTED_EDGE('',*,*,#188,.F.);
#142=ORIENTED_EDGE('',*,*,#183,.T.);
#143=ORIENTED_EDGE('',*,*,#190,.T.);
#144=ORIENTED_EDGE('',*,*,#192,.T.);
#145=ORIENTED_EDGE('',*,*,#193,.T.);
#146=ORIENTED_EDGE('',*,*,#191,.T.);
#147=ORIENTED_EDGE('',*,*,#194,.F.);
#148=ORIENTED_EDGE('',*,*,#189,.T.);
#149=ORIENTED_EDGE('',*,*,#193,.F.);
#150=ORIENTED_EDGE('',*,*,#195,.T.);
#151=ORIENTED_EDGE('',*,*,#194,.T.);
#152=ORIENTED_EDGE('',*,*,#195,.F.);
#153=ORIENTED_EDGE('',*,*,#196,.T.);
#154=ORIENTED_EDGE('',*,*,#197,.T.);
#155=ORIENTED_EDGE('',*,*,#198,.F.);
#156=ORIENTED_EDGE('',*,*,#199,.T.);
#157=ORIENTED_EDGE('',*,*,#196,.F.);
#158=ORIENTED_EDGE('',*,*,#192,.F.);
#159=ORIENTED_EDGE('',*,*,#198,.T.);
#160=ORIENTED_EDGE('',*,*,#199,.F.);
#161=ORIENTED_EDGE('',*,*,#197,.F.);
#162=VERTEX_POINT('',#445);
#163=VERTEX_POINT('',#446);
#164=VERTEX_POINT('',#448);
#165=VERTEX_POINT('',#450);
#166=VERTEX_POINT('',#459);
#167=VERTEX_POINT('',#460);
#168=VERTEX_POINT('',#462);
#169=VERTEX_POINT('',#464);
#170=VERTEX_POINT('',#526);
#171=VERTEX_POINT('',#528);
#172=VERTEX_POINT('',#534);
#173=VERTEX_POINT('',#535);
#174=VERTEX_POINT('',#542);
#175=VERTEX_POINT('',#544);
#176=EDGE_CURVE('',#162,#163,#236,.T.);
#177=EDGE_CURVE('',#163,#164,#98,.T.);
#178=EDGE_CURVE('',#165,#164,#237,.T.);
#179=EDGE_CURVE('',#165,#162,#99,.T.);
#180=EDGE_CURVE('',#162,#165,#100,.T.);
#181=EDGE_CURVE('',#164,#163,#101,.T.);
#182=EDGE_CURVE('',#166,#167,#102,.T.);
#183=EDGE_CURVE('',#168,#166,#103,.T.);
#184=EDGE_CURVE('',#168,#169,#104,.T.);
#185=EDGE_CURVE('',#169,#167,#105,.T.);
#186=EDGE_CURVE('',#167,#169,#106,.T.);
#187=EDGE_CURVE('',#166,#168,#107,.T.);
#188=EDGE_CURVE('',#168,#170,#238,.T.);
#189=EDGE_CURVE('',#171,#170,#108,.T.);
#190=EDGE_CURVE('',#166,#171,#239,.T.);
#191=EDGE_CURVE('',#170,#171,#109,.T.);
#192=EDGE_CURVE('',#172,#173,#110,.T.);
#193=EDGE_CURVE('',#173,#170,#240,.T.);
#194=EDGE_CURVE('',#172,#171,#241,.T.);
#195=EDGE_CURVE('',#173,#172,#111,.T.);
#196=EDGE_CURVE('',#173,#174,#242,.T.);
#197=EDGE_CURVE('',#174,#175,#112,.T.);
#198=EDGE_CURVE('',#172,#175,#243,.T.);
#199=EDGE_CURVE('',#175,#174,#113,.T.);
#200=CURVE_STYLE('',#214,POSITIVE_LENGTH_MEASURE(0.18),#294);
#201=CURVE_STYLE('',#215,POSITIVE_LENGTH_MEASURE(0.18),#294);
#202=CURVE_STYLE('',#216,POSITIVE_LENGTH_MEASURE(0.18),#294);
#203=CURVE_STYLE('',#217,POSITIVE_LENGTH_MEASURE(0.18),#294);
#204=CURVE_STYLE('',#218,POSITIVE_LENGTH_MEASURE(0.13),#295);
#205=CURVE_STYLE('',#219,POSITIVE_LENGTH_MEASURE(0.13),#295);
#206=CURVE_STYLE('',#220,POSITIVE_LENGTH_MEASURE(0.13),#296);
#207=CURVE_STYLE('',#221,POSITIVE_LENGTH_MEASURE(0.13),#296);
#208=CURVE_STYLE('',#222,POSITIVE_LENGTH_MEASURE(0.13),#295);
#209=CURVE_STYLE('',#223,POSITIVE_LENGTH_MEASURE(0.13),#295);
#210=CURVE_STYLE('',#224,POSITIVE_LENGTH_MEASURE(0.13),#296);
#211=CURVE_STYLE('',#225,POSITIVE_LENGTH_MEASURE(0.13),#295);
#212=CURVE_STYLE('',#226,POSITIVE_LENGTH_MEASURE(0.13),#295);
#213=CURVE_STYLE('',#227,POSITIVE_LENGTH_MEASURE(0.13),#295);
#214=DRAUGHTING_PRE_DEFINED_CURVE_FONT('continuous');
#215=DRAUGHTING_PRE_DEFINED_CURVE_FONT('continuous');
#216=DRAUGHTING_PRE_DEFINED_CURVE_FONT('continuous');
#217=DRAUGHTING_PRE_DEFINED_CURVE_FONT('continuous');
#218=DRAUGHTING_PRE_DEFINED_CURVE_FONT('continuous');
#219=DRAUGHTING_PRE_DEFINED_CURVE_FONT('continuous');
#220=DRAUGHTING_PRE_DEFINED_CURVE_FONT('continuous');
#221=DRAUGHTING_PRE_DEFINED_CURVE_FONT('continuous');
#222=DRAUGHTING_PRE_DEFINED_CURVE_FONT('continuous');
#223=DRAUGHTING_PRE_DEFINED_CURVE_FONT('continuous');
#224=DRAUGHTING_PRE_DEFINED_CURVE_FONT('continuous');
#225=DRAUGHTING_PRE_DEFINED_CURVE_FONT('continuous');
#226=DRAUGHTING_PRE_DEFINED_CURVE_FONT('continuous');
#227=DRAUGHTING_PRE_DEFINED_CURVE_FONT('continuous');
#228=TRIMMED_CURVE('',#232,(PARAMETER_VALUE(0.)),(PARAMETER_VALUE(1.)),
 .T.,.PARAMETER.);
#229=TRIMMED_CURVE('',#233,(PARAMETER_VALUE(0.)),(PARAMETER_VALUE(1.)),
 .T.,.PARAMETER.);
#230=TRIMMED_CURVE('',#234,(PARAMETER_VALUE(0.)),(PARAMETER_VALUE(1.)),
 .T.,.PARAMETER.);
#231=TRIMMED_CURVE('',#235,(PARAMETER_VALUE(0.)),(PARAMETER_VALUE(1.)),
 .T.,.PARAMETER.);
#232=LINE('',#430,#244);
#233=LINE('',#431,#245);
#234=LINE('',#432,#246);
#235=LINE('',#433,#247);
#236=LINE('',#444,#248);
#237=LINE('',#449,#249);
#238=LINE('',#525,#250);
#239=LINE('',#529,#251);
#240=LINE('',#536,#252);
#241=LINE('',#537,#253);
#242=LINE('',#541,#254);
#243=LINE('',#545,#255);
#244=VECTOR('',#340,6.);
#245=VECTOR('',#341,26.);
#246=VECTOR('',#342,6.);
#247=VECTOR('',#343,26.);
#248=VECTOR('',#364,1.);
#249=VECTOR('',#367,1.);
#250=VECTOR('',#396,1.);
#251=VECTOR('',#399,1.);
#252=VECTOR('',#408,1.);
#253=VECTOR('',#409,1.);
#254=VECTOR('',#416,1.);
#255=VECTOR('',#419,1.);
#256=PRESENTATION_LAYER_ASSIGNMENT('1','Layer 1',(#429,#228,#229,#230,#231,
#300,#301,#304,#305,#306,#307,#308,#309,#44,#45));
#257=PRESENTATION_LAYER_ASSIGNMENT('2','Layer 2',(#302,#303));
#258=STYLED_ITEM('',(#275),#429);
#259=STYLED_ITEM('',(#276),#228);
#260=STYLED_ITEM('',(#277),#229);
#261=STYLED_ITEM('',(#278),#230);
#262=STYLED_ITEM('',(#279),#231);
#263=STYLED_ITEM('',(#280),#300);
#264=STYLED_ITEM('',(#281),#301);
#265=STYLED_ITEM('',(#282),#302);
#266=STYLED_ITEM('',(#283),#303);
#267=STYLED_ITEM('',(#284),#304);
#268=STYLED_ITEM('',(#285),#305);
#269=STYLED_ITEM('',(#286),#306);
#270=STYLED_ITEM('',(#287),#307);
#271=STYLED_ITEM('',(#288),#308);
#272=STYLED_ITEM('',(#289),#309);
#273=STYLED_ITEM('',(#290),#44);
#274=STYLED_ITEM('',(#291),#45);
#275=PRESENTATION_STYLE_ASSIGNMENT((#292));
#276=PRESENTATION_STYLE_ASSIGNMENT((#200));
#277=PRESENTATION_STYLE_ASSIGNMENT((#201));
#278=PRESENTATION_STYLE_ASSIGNMENT((#202));
#279=PRESENTATION_STYLE_ASSIGNMENT((#203));
#280=PRESENTATION_STYLE_ASSIGNMENT((#204));
#281=PRESENTATION_STYLE_ASSIGNMENT((#205));
#282=PRESENTATION_STYLE_ASSIGNMENT((#206));
#283=PRESENTATION_STYLE_ASSIGNMENT((#207));
#284=PRESENTATION_STYLE_ASSIGNMENT((#208));
#285=PRESENTATION_STYLE_ASSIGNMENT((#209));
#286=PRESENTATION_STYLE_ASSIGNMENT((#210));
#287=PRESENTATION_STYLE_ASSIGNMENT((#211));
#288=PRESENTATION_STYLE_ASSIGNMENT((#212));
#289=PRESENTATION_STYLE_ASSIGNMENT((#213));
#290=PRESENTATION_STYLE_ASSIGNMENT((#34));
#291=PRESENTATION_STYLE_ASSIGNMENT((#35));
#292=POINT_STYLE('',#293,POSITIVE_LENGTH_MEASURE(3.),#294);
#293=PRE_DEFINED_POINT_MARKER_SYMBOL('plus');
#294=COLOUR_RGB('Medium Royal',0.2,0.4,0.8);
#295=COLOUR_RGB('Strong Stone',0.576470588235294,0.54508278019379,0.392156862745098);
#296=COLOUR_RGB('Medium Umber',0.372533760585946,0.313725490196078,0.270572976272221);
#297=COLOUR_RGB('cutting part',0.8,0.8,0.8);
#298=COLOUR_RGB('non-cutting part and shank',0.501960784313725,0.501960784313725,
0.501960784313725);
#299=AXIS2_PLACEMENT_3D('',#428,#338,#339);
#300=AXIS2_PLACEMENT_3D('',#434,#344,#345);
#301=AXIS2_PLACEMENT_3D('',#435,#346,#347);
#302=AXIS2_PLACEMENT_3D('CIP',#436,#348,#349);
#303=AXIS2_PLACEMENT_3D('PCS',#437,#350,#351);
#304=AXIS2_PLACEMENT_3D('MCS',#438,#352,#353);
#305=AXIS2_PLACEMENT_3D('',#439,#354,#355);
#306=AXIS2_PLACEMENT_3D('STEP_TEMP_EM10_1',#440,#356,#357);
#307=AXIS2_PLACEMENT_3D('',#441,#358,#359);
#308=AXIS2_PLACEMENT_3D('',#442,#360,#361);
#309=AXIS2_PLACEMENT_3D('',#443,#362,#363);
#310=AXIS2_PLACEMENT_3D('',#447,#365,#366);
#311=AXIS2_PLACEMENT_3D('',#451,#368,#369);
#312=AXIS2_PLACEMENT_3D('',#452,#370,#371);
#313=AXIS2_PLACEMENT_3D('',#453,#372,#373);
#314=AXIS2_PLACEMENT_3D('',#454,#374,#375);
#315=AXIS2_PLACEMENT_3D('',#455,#376,#377);
#316=AXIS2_PLACEMENT_3D('',#456,#378,#379);
#317=AXIS2_PLACEMENT_3D('',#457,#380,#381);
#318=AXIS2_PLACEMENT_3D('',#458,#382,#383);
#319=AXIS2_PLACEMENT_3D('',#461,#384,#385);
#320=AXIS2_PLACEMENT_3D('',#463,#386,#387);
#321=AXIS2_PLACEMENT_3D('',#465,#388,#389);
#322=AXIS2_PLACEMENT_3D('',#494,#390,#391);
#323=AXIS2_PLACEMENT_3D('',#495,#392,#393);
#324=AXIS2_PLACEMENT_3D('',#496,#394,#395);
#325=AXIS2_PLACEMENT_3D('',#527,#397,#398);
#326=AXIS2_PLACEMENT_3D('',#530,#400,#401);
#327=AXIS2_PLACEMENT_3D('',#531,#402,#403);
#328=AXIS2_PLACEMENT_3D('',#532,#404,#405);
#329=AXIS2_PLACEMENT_3D('',#533,#406,#407);
#330=AXIS2_PLACEMENT_3D('',#538,#410,#411);
#331=AXIS2_PLACEMENT_3D('',#539,#412,#413);
#332=AXIS2_PLACEMENT_3D('',#540,#414,#415);
#333=AXIS2_PLACEMENT_3D('',#543,#417,#418);
#334=AXIS2_PLACEMENT_3D('',#546,#420,#421);
#335=AXIS2_PLACEMENT_3D('',#547,#422,#423);
#336=AXIS2_PLACEMENT_3D('',#548,#424,#425);
#337=AXIS2_PLACEMENT_3D('',#549,#426,#427);
#338=DIRECTION('',(0.,0.,1.));
#339=DIRECTION('',(1.,0.,0.));
#340=DIRECTION('',(-1.,0.,0.));
#341=DIRECTION('',(0.,0.,1.));
#342=DIRECTION('',(1.,0.,0.));
#343=DIRECTION('',(0.,0.,-1.));
#344=DIRECTION('',(0.,0.,1.));
#345=DIRECTION('',(1.,0.,0.));
#346=DIRECTION('',(0.,0.,1.));
#347=DIRECTION('',(1.,0.,0.));
#348=DIRECTION('',(0.,0.,1.));
#349=DIRECTION('',(1.,0.,0.));
#350=DIRECTION('',(0.,0.,1.));
#351=DIRECTION('',(1.,0.,0.));
#352=DIRECTION('',(0.,0.,1.));
#353=DIRECTION('',(1.,0.,0.));
#354=DIRECTION('',(0.,0.,1.));
#355=DIRECTION('',(1.,0.,0.));
#356=DIRECTION('',(0.,0.,1.));
#357=DIRECTION('',(1.,0.,0.));
#358=DIRECTION('',(0.,0.,1.));
#359=DIRECTION('',(1.,0.,0.));
#360=DIRECTION('',(0.,0.,1.));
#361=DIRECTION('',(1.,0.,0.));
#362=DIRECTION('',(0.,0.,1.));
#363=DIRECTION('',(1.,0.,0.));
#364=DIRECTION('',(0.,0.,-1.));
#365=DIRECTION('',(0.,0.,1.));
#366=DIRECTION('',(0.,-1.,0.));
#367=DIRECTION('',(0.,0.,-1.));
#368=DIRECTION('',(0.,0.,-1.));
#369=DIRECTION('',(0.,1.,0.));
#370=DIRECTION('',(0.,0.,-1.));
#371=DIRECTION('',(0.,1.,0.));
#372=DIRECTION('',(0.,0.,-1.));
#373=DIRECTION('',(0.,-1.,0.));
#374=DIRECTION('',(0.,0.,-1.));
#375=DIRECTION('',(1.,0.,0.));
#376=DIRECTION('',(0.,0.,1.));
#377=DIRECTION('',(0.,1.,0.));
#378=DIRECTION('',(0.,0.,-1.));
#379=DIRECTION('',(0.,1.,0.));
#380=DIRECTION('',(0.,0.,-1.));
#381=DIRECTION('',(0.,1.,0.));
#382=DIRECTION('',(-0.999999999959538,8.99580781473034E-6,-3.13853252835912E-14));
#383=DIRECTION('',(8.98860827453893E-6,0.999199678400432,0.0400000325459613));
#384=DIRECTION('',(-3.138532171996E-14,0.,1.));
#385=DIRECTION('',(-3.023334692407E-14,-1.,0.));
#386=DIRECTION('',(0.999999999959538,-8.99580781471634E-6,-3.15988254345112E-14));
#387=DIRECTION('',(-8.9886082745164E-6,-0.999199678400432,0.0400000325459613));
#388=DIRECTION('',(-3.138532171996E-14,0.,1.));
#389=DIRECTION('',(-3.560752831272E-14,-1.,0.));
#390=DIRECTION('',(3.159882730989E-14,0.,1.));
#391=DIRECTION('',(3.564382387173E-14,1.,0.));
#392=DIRECTION('',(0.,0.,1.));
#393=DIRECTION('',(-1.,0.,0.));
#394=DIRECTION('',(3.159882730989E-14,0.,1.));
#395=DIRECTION('',(3.035652527787E-14,1.,0.));
#396=DIRECTION('',(0.,0.707106922039784,0.707106640333284));
#397=DIRECTION('',(0.,0.,1.));
#398=DIRECTION('',(0.,1.,0.));
#399=DIRECTION('',(0.,-0.707106922039784,0.707106640333284));
#400=DIRECTION('',(0.,0.,-1.));
#401=DIRECTION('',(0.,1.,1.7252518502256E-17));
#402=DIRECTION('',(0.,0.,1.));
#403=DIRECTION('',(0.,-1.,0.));
#404=DIRECTION('',(0.,0.,-1.));
#405=DIRECTION('',(0.,1.,1.7252518502256E-17));
#406=DIRECTION('',(0.,0.,-1.));
#407=DIRECTION('',(0.,1.,0.));
#408=DIRECTION('',(0.,-2.155074511314E-14,-1.));
#409=DIRECTION('',(0.,2.135463115356E-14,-1.));
#410=DIRECTION('',(0.,0.,-1.));
#411=DIRECTION('',(0.,1.,0.));
#412=DIRECTION('',(0.,0.,-1.));
#413=DIRECTION('',(0.,-1.,0.));
#414=DIRECTION('',(0.,0.,-1.));
#415=DIRECTION('',(0.,1.,0.));
#416=DIRECTION('',(0.,0.707106781186547,0.707106781186547));
#417=DIRECTION('',(0.,0.,-1.));
#418=DIRECTION('',(0.,-1.,0.));
#419=DIRECTION('',(0.,-0.707106781186547,0.707106781186547));
#420=DIRECTION('',(0.,0.,-1.));
#421=DIRECTION('',(0.,1.,1.38121799530375E-17));
#422=DIRECTION('',(0.,0.,-1.));
#423=DIRECTION('',(0.,1.,0.));
#424=DIRECTION('',(0.,0.,-1.));
#425=DIRECTION('',(0.,1.,1.38121799530375E-17));
#426=DIRECTION('',(0.,0.,-1.));
#427=DIRECTION('',(0.,1.,0.));
#428=CARTESIAN_POINT('',(0.,0.,0.));
#429=CARTESIAN_POINT('CRP',(-6.,0.,0.));
#430=CARTESIAN_POINT('',(0.,0.,0.));
#431=CARTESIAN_POINT('',(-6.,0.,0.));
#432=CARTESIAN_POINT('',(-6.,0.,26.));
#433=CARTESIAN_POINT('',(0.,0.,26.));
#434=CARTESIAN_POINT('',(0.,0.,0.));
#435=CARTESIAN_POINT('',(0.,0.,0.));
#436=CARTESIAN_POINT('',(0.,0.,0.));
#437=CARTESIAN_POINT('',(0.,0.,110.));
#438=CARTESIAN_POINT('',(0.,0.,80.));
#439=CARTESIAN_POINT('',(0.,0.,0.));
#440=CARTESIAN_POINT('',(0.,0.,0.));
#441=CARTESIAN_POINT('',(0.,0.,0.));
#442=CARTESIAN_POINT('',(0.,0.,0.));
#443=CARTESIAN_POINT('',(0.,0.,0.));
#444=CARTESIAN_POINT('',(0.,-6.,26.));
#445=CARTESIAN_POINT('',(0.,-6.,26.));
#446=CARTESIAN_POINT('',(0.,-6.,0.));
#447=CARTESIAN_POINT('',(0.,0.,0.));
#448=CARTESIAN_POINT('',(0.,6.,0.));
#449=CARTESIAN_POINT('',(0.,6.,26.));
#450=CARTESIAN_POINT('',(0.,6.,26.));
#451=CARTESIAN_POINT('',(0.,0.,26.));
#452=CARTESIAN_POINT('',(0.,0.,115.5));
#453=CARTESIAN_POINT('',(0.,0.,26.));
#454=CARTESIAN_POINT('',(150.,150.,26.));
#455=CARTESIAN_POINT('',(0.,0.,0.));
#456=CARTESIAN_POINT('',(0.,0.,115.5));
#457=CARTESIAN_POINT('',(0.,-2.020079505672E-14,0.));
#458=CARTESIAN_POINT('',(-0.0001709203482647,-18.99999999908,26.00000000001));
#459=CARTESIAN_POINT('',(0.,5.979991936599,27.00000142373));
#460=CARTESIAN_POINT('',(0.,6.,26.00000000001));
#461=CARTESIAN_POINT('',(1.822598034722E-13,0.,27.00000142373));
#462=CARTESIAN_POINT('',(-5.379485859712E-5,-5.979991960779,27.00000081365));
#463=CARTESIAN_POINT('',(0.0001709203482645,18.99999999909,26.00000000001));
#464=CARTESIAN_POINT('',(0.,-6.,26.00000000001));
#465=CARTESIAN_POINT('',(2.13645169876E-13,0.,26.00000000001));
#466=CARTESIAN_POINT('',(2.23562487966543E-13,6.00000000000025,26.00000000001));
#467=CARTESIAN_POINT('',(3.51473116051788,6.00000000000025,26.00000000001));
#468=CARTESIAN_POINT('',(6.00001580886292,3.51470417305845,26.00000000001));
#469=CARTESIAN_POINT('',(5.99999999993978,-2.69874236553537E-5,26.00000000001));
#470=CARTESIAN_POINT('',(5.99998419101663,-3.51475814790576,26.00000000001));
#471=CARTESIAN_POINT('',(3.51467718552836,-6.00003161760376,26.00000000001));
#472=CARTESIAN_POINT('',(-5.39748470865989E-5,-5.99999999975747,26.00000000001));
#473=CARTESIAN_POINT('',(2.23857910284725E-13,5.99999999999977,26.3334450032912));
#474=CARTESIAN_POINT('',(3.5147311605176,5.99999999999977,26.3334450032912));
#475=CARTESIAN_POINT('',(6.00001580886244,3.51470417305817,26.3334450032912));
#476=CARTESIAN_POINT('',(5.9999999999393,-2.69874236550369E-5,26.3334450032912));
#477=CARTESIAN_POINT('',(5.99998419101615,-3.51475814790548,26.3334450032912));
#478=CARTESIAN_POINT('',(3.51467718552808,-6.00003161760328,26.3334450032912));
#479=CARTESIAN_POINT('',(-5.39748470862992E-5,-5.99999999975699,26.3334450032912));
#480=CARTESIAN_POINT('',(2.24153273488707E-13,5.99332975571889,26.6668232840091));
#481=CARTESIAN_POINT('',(3.51082380794723,5.99332975571889,26.6668232840091));
#482=CARTESIAN_POINT('',(5.99334554700673,3.51079685048995,26.6668232840091));
#483=CARTESIAN_POINT('',(5.99332975565849,-2.69574215366736E-5,26.6668232840091));
#484=CARTESIAN_POINT('',(5.99331396431024,-3.51085076533303,26.6668232840091));
#485=CARTESIAN_POINT('',(3.5107698929621,-5.99336133817288,26.6668232840091));
#486=CARTESIAN_POINT('',(-5.39148428499069E-5,-5.99332975547639,26.6668232840091));
#487=CARTESIAN_POINT('',(2.2444845937375E-13,5.97999193659811,27.0000014237397));
#488=CARTESIAN_POINT('',(3.50301066653437,5.97999193659811,27.0000014237397));
#489=CARTESIAN_POINT('',(5.98000769274333,3.5029837690694,27.0000014237397));
#490=CARTESIAN_POINT('',(5.97999193653784,-2.68974293071508E-5,27.0000014237397));
#491=CARTESIAN_POINT('',(5.97997618033235,-3.50303756392801,27.0000014237397));
#492=CARTESIAN_POINT('',(3.50295687153401,-5.98002344876712,27.0000014237397));
#493=CARTESIAN_POINT('',(-5.37948583911959E-5,-5.97999193635614,27.0000014237397));
#494=CARTESIAN_POINT('',(-2.1386294323E-13,0.,26.00000000001));
#495=CARTESIAN_POINT('',(-150.,150.,26.));
#496=CARTESIAN_POINT('',(-1.822640709323E-13,0.,27.00000142373));
#497=CARTESIAN_POINT('',(-2.09142599072454E-13,1.38777878078145E-14,9.75192319044611));
#498=CARTESIAN_POINT('',(-2.09999249204484E-13,1.38632825261103E-14,9.75192319044611));
#499=CARTESIAN_POINT('',(-2.10612434758718E-13,1.44616664563633E-14,9.75192319044611));
#500=CARTESIAN_POINT('',(-2.10618861901747E-13,1.53184152782112E-14,9.75192319044611));
#501=CARTESIAN_POINT('',(-2.10625289044776E-13,1.61751641000592E-14,9.75192319044611));
#502=CARTESIAN_POINT('',(-2.10021149889392E-13,1.67826801351045E-14,9.75192319044611));
#503=CARTESIAN_POINT('',(-2.09164378552201E-13,1.67810285680146E-14,9.75192319044611));
#504=CARTESIAN_POINT('',(0.157968327990219,-8.37946351617686,19.5523504724174));
#505=CARTESIAN_POINT('',(-4.78738545940426,-8.47269254779776,19.5523504724174));
#506=CARTESIAN_POINT('',(-8.33398617216922,-5.02496298777583,19.5523504724174));
#507=CARTESIAN_POINT('',(-8.38058051167794,-0.0789499770408519,19.5523504724174));
#508=CARTESIAN_POINT('',(-8.42717485118666,4.86706303369412,19.5523504724174));
#509=CARTESIAN_POINT('',(-4.9461570852129,8.38099687595823,19.5523504724174));
#510=CARTESIAN_POINT('',(7.53934372935982E-5,8.38095238060109,19.5523504724174));
#511=CARTESIAN_POINT('',(0.157968327990207,-8.37946351617686,32.4476495275303));
#512=CARTESIAN_POINT('',(-4.78738545940427,-8.47269254779777,32.4476495275303));
#513=CARTESIAN_POINT('',(-8.33398617216922,-5.02496298777584,32.4476495275303));
#514=CARTESIAN_POINT('',(-8.38058051167795,-0.0789499770408641,32.4476495275303));
#515=CARTESIAN_POINT('',(-8.42717485118667,4.86706303369411,32.4476495275303));
#516=CARTESIAN_POINT('',(-4.94615708521292,8.38099687595821,32.4476495275303));
#517=CARTESIAN_POINT('',(7.53934372821559E-5,8.38095238060108,32.4476495275303));
#518=CARTESIAN_POINT('',(-2.38036586969193E-13,-1.04083408558608E-14,42.2480768095016));
#519=CARTESIAN_POINT('',(-2.35132354364742E-13,-1.03618420980251E-14,42.2480768095016));
#520=CARTESIAN_POINT('',(-2.33055422367258E-13,-1.23923796212101E-14,42.2480768095016));
#521=CARTESIAN_POINT('',(-2.33036310159526E-13,-1.52969215607851E-14,42.2480768095016));
#522=CARTESIAN_POINT('',(-2.33017197951793E-13,-1.82014635003602E-14,42.2480768095016));
#523=CARTESIAN_POINT('',(-2.35067228936923E-13,-2.02591568971623E-14,42.2480768095016));
#524=CARTESIAN_POINT('',(-2.37971821965623E-13,-2.02508808555037E-14,42.2480768095016));
#525=CARTESIAN_POINT('',(0.,-5.000000000002,27.97999199359));
#526=CARTESIAN_POINT('',(0.,-5.000000000004,27.97999199359));
#527=CARTESIAN_POINT('',(0.,-1.515096471581E-14,27.97999199359));
#528=CARTESIAN_POINT('',(0.,5.000000000002,27.97999199359));
#529=CARTESIAN_POINT('',(0.,5.000000000002,27.97999199359));
#530=CARTESIAN_POINT('',(0.,-1.515096471581E-14,27.4899959968));
#531=CARTESIAN_POINT('',(0.,-1.515096471581E-14,27.97999199359));
#532=CARTESIAN_POINT('',(0.,-1.515096471581E-14,27.4899959968));
#533=CARTESIAN_POINT('',(0.,0.,109.5));
#534=CARTESIAN_POINT('',(0.,5.,109.5));
#535=CARTESIAN_POINT('',(0.,-5.,109.5));
#536=CARTESIAN_POINT('',(0.,-5.,109.5));
#537=CARTESIAN_POINT('',(0.,5.,109.5));
#538=CARTESIAN_POINT('',(0.,0.,115.5));
#539=CARTESIAN_POINT('',(0.,0.,109.5));
#540=CARTESIAN_POINT('',(0.,0.,115.5));
#541=CARTESIAN_POINT('',(0.,-4.5,110.));
#542=CARTESIAN_POINT('',(0.,-4.5,110.));
#543=CARTESIAN_POINT('',(0.,0.,110.));
#544=CARTESIAN_POINT('',(0.,4.5,110.));
#545=CARTESIAN_POINT('',(0.,4.5,110.));
#546=CARTESIAN_POINT('',(0.,0.,109.75));
#547=CARTESIAN_POINT('',(0.,0.,110.));
#548=CARTESIAN_POINT('',(0.,0.,109.75));
#549=CARTESIAN_POINT('',(0.,0.,110.));
#550=MECHANICAL_DESIGN_GEOMETRIC_PRESENTATION_REPRESENTATION('',(#258,#259,
#260,#261,#262,#263,#264,#265,#266,#267,#268,#269,#270,#271,#272,#273,#274),
#551);
#551=(
GEOMETRIC_REPRESENTATION_CONTEXT(3)
GLOBAL_UNCERTAINTY_ASSIGNED_CONTEXT((#552))
GLOBAL_UNIT_ASSIGNED_CONTEXT((#558,#554,#553))
REPRESENTATION_CONTEXT('VQMHVD1200S10','TOP_LEVEL_ASSEMBLY_PART')
);
#552=UNCERTAINTY_MEASURE_WITH_UNIT(LENGTH_MEASURE(0.0254),#558,
'DISTANCE_ACCURACY_VALUE','Maximum Tolerance applied to model');
#553=(
NAMED_UNIT(*)
SI_UNIT($,.STERADIAN.)
SOLID_ANGLE_UNIT()
);
#554=(
CONVERSION_BASED_UNIT('DEGREE',#556)
NAMED_UNIT(#555)
PLANE_ANGLE_UNIT()
);
#555=DIMENSIONAL_EXPONENTS(0.,0.,0.,0.,0.,0.,0.);
#556=PLANE_ANGLE_MEASURE_WITH_UNIT(PLANE_ANGLE_MEASURE(0.0174532925),#557);
#557=(
NAMED_UNIT(*)
PLANE_ANGLE_UNIT()
SI_UNIT($,.RADIAN.)
);
#558=(
LENGTH_UNIT()
NAMED_UNIT(*)
SI_UNIT(.MILLI.,.METRE.)
);
ENDSEC;
END-ISO-10303-21;
