ISO-10303-21;
HEADER;
/* Generated by software containing ST-Developer
 * from STEP Tools, Inc. (www.steptools.com) 
 */
/* OPTION: using custom schema-name function */

FILE_DESCRIPTION(
/* description */ (''),
/* implementation_level */ '2;1');

FILE_NAME(
/* name */ 'VQMHVD1000S08.stp',
/* time_stamp */ '2023-03-17T09:17:57+09:00',
/* author */ (''),
/* organization */ (''),
/* preprocessor_version */ 'ST-DEVELOPER v16',
/* originating_system */ 'SIEMENS PLM Software NX 10.0',
/* authorisation */ '');

FILE_SCHEMA (('AUTOMOTIVE_DESIGN { 1 0 10303 214 3 1 1 1 }'));
ENDSEC;

DATA;
#10=CONSTRUCTIVE_GEOMETRY_REPRESENTATION_RELATIONSHIP(
'supplemental geometry','',#26,#11);
#11=CONSTRUCTIVE_GEOMETRY_REPRESENTATION('supplemental geometry',(#300,
#301,#302,#303,#304,#305,#306,#307,#308,#309),#551);
#12=GEOMETRICALLY_BOUNDED_WIREFRAME_SHAPE_REPRESENTATION(
'VQMHVD1000S08-None',(#27),#551);
#13=SHAPE_REPRESENTATION_RELATIONSHIP('None',
'relationship between VQMHVD1000S08-None and VQMHVD1000S08-None',#26,#15);
#14=SHAPE_REPRESENTATION_RELATIONSHIP('None',
'relationship between VQMHVD1000S08-None and VQMHVD1000S08-None',#26,#12);
#15=ADVANCED_BREP_SHAPE_REPRESENTATION('VQMHVD1000S08-None',(#44,#45),#551);
#16=SHAPE_DEFINITION_REPRESENTATION(#17,#26);
#17=PRODUCT_DEFINITION_SHAPE('','SHAPE FOR VQMHVD1000S08_ASM.',#18);
#18=PRODUCT_DEFINITION('part definition','',#20,#19);
#19=PRODUCT_DEFINITION_CONTEXT('part definition',#25,'design');
#20=PRODUCT_DEFINITION_FORMATION_WITH_SPECIFIED_SOURCE(' ',' ',#22,
 .NOT_KNOWN.);
#21=PRODUCT_RELATED_PRODUCT_CATEGORY('part','',(#22));
#22=PRODUCT('VQMHVD1000S08_ASM','VQMHVD1000S08_ASM','NOT SPECIFIED',(#23));
#23=PRODUCT_CONTEXT('',#25,'mechanical');
#24=APPLICATION_PROTOCOL_DEFINITION('international standard',
'automotive_design',2010,#25);
#25=APPLICATION_CONTEXT(
'core data for automotive mechanical design processes');
#26=SHAPE_REPRESENTATION('VQMHVD1000S08-None',(#299),#551);
#27=GEOMETRIC_CURVE_SET('None',(#429,#228,#229,#230,#231));
#28=CONICAL_SURFACE('',#326,4.489995996799,45.);
#29=CONICAL_SURFACE('',#328,4.489995996799,45.);
#30=CONICAL_SURFACE('',#334,3.75,45.);
#31=CONICAL_SURFACE('',#336,3.75,45.);
#32=(
BOUNDED_SURFACE()
B_SPLINE_SURFACE(3,3,((#466,#467,#468,#469,#470,#471,#472),(#473,#474,#475,
#476,#477,#478,#479),(#480,#481,#482,#483,#484,#485,#486),(#487,#488,#489,
#490,#491,#492,#493)),.UNSPECIFIED.,.F.,.F.,.F.)
B_SPLINE_SURFACE_WITH_KNOTS((4,4),(4,3,4),(0.,1.),(0.,0.5,1.),
 .UNSPECIFIED.)
GEOMETRIC_REPRESENTATION_ITEM()
RATIONAL_B_SPLINE_SURFACE(((1.,0.802510115196295,0.802510115196295,1.,0.802510115196295,
0.802510115196295,1.),(0.999866599344539,0.802403059820913,0.802403059820913,
0.999866599344539,0.802403059820913,0.802403059820913,0.999866599344539),
(0.999866599344539,0.802403059820913,0.802403059820913,0.999866599344539,
0.802403059820913,0.802403059820913,0.999866599344539),(1.,0.802510115196295,
0.802510115196295,1.,0.802510115196295,0.802510115196295,1.)))
REPRESENTATION_ITEM('')
SURFACE()
);
#33=(
BOUNDED_SURFACE()
B_SPLINE_SURFACE(3,3,((#497,#498,#499,#500,#501,#502,#503),(#504,#505,#506,
#507,#508,#509,#510),(#511,#512,#513,#514,#515,#516,#517),(#518,#519,#520,
#521,#522,#523,#524)),.UNSPECIFIED.,.F.,.F.,.F.)
B_SPLINE_SURFACE_WITH_KNOTS((4,4),(4,3,4),(0.,1.),(0.,0.5,1.),
 .UNSPECIFIED.)
GEOMETRIC_REPRESENTATION_ITEM()
RATIONAL_B_SPLINE_SURFACE(((1.,0.802510115196295,0.802510115196295,1.,0.802510115196295,
0.802510115196295,1.),(0.866666666661811,0.695508766499558,0.695508766499558,
0.866666666661811,0.695508766499558,0.695508766499558,0.866666666661811),
(0.866666666661811,0.695508766499558,0.695508766499558,0.866666666661811,
0.695508766499558,0.695508766499558,0.866666666661811),(1.,0.802510115196295,
0.802510115196295,1.,0.802510115196295,0.802510115196295,1.)))
REPRESENTATION_ITEM('')
SURFACE()
);
#34=SURFACE_STYLE_USAGE(.BOTH.,#36);
#35=SURFACE_STYLE_USAGE(.BOTH.,#37);
#36=SURFACE_SIDE_STYLE('',(#38));
#37=SURFACE_SIDE_STYLE('',(#39));
#38=SURFACE_STYLE_FILL_AREA(#40);
#39=SURFACE_STYLE_FILL_AREA(#41);
#40=FILL_AREA_STYLE('',(#42));
#41=FILL_AREA_STYLE('',(#43));
#42=FILL_AREA_STYLE_COLOUR('',#297);
#43=FILL_AREA_STYLE_COLOUR('',#298);
#44=MANIFOLD_SOLID_BREP('CUT',#46);
#45=MANIFOLD_SOLID_BREP('NOCUT',#47);
#46=CLOSED_SHELL('',(#52,#53,#54,#55));
#47=CLOSED_SHELL('',(#56,#57,#58,#59,#60,#61,#62,#63,#64,#65));
#48=PLANE('',#314);
#49=PLANE('',#317);
#50=PLANE('',#323);
#51=PLANE('',#337);
#52=ADVANCED_FACE('',(#70),#66,.T.);
#53=ADVANCED_FACE('',(#71),#48,.F.);
#54=ADVANCED_FACE('',(#72),#67,.T.);
#55=ADVANCED_FACE('',(#73),#49,.T.);
#56=ADVANCED_FACE('',(#74),#32,.T.);
#57=ADVANCED_FACE('',(#75),#50,.F.);
#58=ADVANCED_FACE('',(#76),#33,.T.);
#59=ADVANCED_FACE('',(#77),#28,.T.);
#60=ADVANCED_FACE('',(#78),#29,.T.);
#61=ADVANCED_FACE('',(#79),#68,.T.);
#62=ADVANCED_FACE('',(#80),#69,.T.);
#63=ADVANCED_FACE('',(#81),#30,.T.);
#64=ADVANCED_FACE('',(#82),#31,.T.);
#65=ADVANCED_FACE('',(#83),#51,.F.);
#66=CYLINDRICAL_SURFACE('',#312,5.);
#67=CYLINDRICAL_SURFACE('',#316,5.);
#68=CYLINDRICAL_SURFACE('',#330,4.);
#69=CYLINDRICAL_SURFACE('',#332,4.);
#70=FACE_OUTER_BOUND('',#84,.T.);
#71=FACE_OUTER_BOUND('',#85,.T.);
#72=FACE_OUTER_BOUND('',#86,.T.);
#73=FACE_OUTER_BOUND('',#87,.T.);
#74=FACE_OUTER_BOUND('',#88,.T.);
#75=FACE_OUTER_BOUND('',#89,.T.);
#76=FACE_OUTER_BOUND('',#90,.T.);
#77=FACE_OUTER_BOUND('',#91,.T.);
#78=FACE_OUTER_BOUND('',#92,.T.);
#79=FACE_OUTER_BOUND('',#93,.T.);
#80=FACE_OUTER_BOUND('',#94,.T.);
#81=FACE_OUTER_BOUND('',#95,.T.);
#82=FACE_OUTER_BOUND('',#96,.T.);
#83=FACE_OUTER_BOUND('',#97,.T.);
#84=EDGE_LOOP('',(#114,#115,#116,#117));
#85=EDGE_LOOP('',(#118,#119));
#86=EDGE_LOOP('',(#120,#121,#122,#123));
#87=EDGE_LOOP('',(#124,#125));
#88=EDGE_LOOP('',(#126,#127,#128,#129));
#89=EDGE_LOOP('',(#130,#131));
#90=EDGE_LOOP('',(#132,#133,#134,#135));
#91=EDGE_LOOP('',(#136,#137,#138,#139));
#92=EDGE_LOOP('',(#140,#141,#142,#143));
#93=EDGE_LOOP('',(#144,#145,#146,#147));
#94=EDGE_LOOP('',(#148,#149,#150,#151));
#95=EDGE_LOOP('',(#152,#153,#154,#155));
#96=EDGE_LOOP('',(#156,#157,#158,#159));
#97=EDGE_LOOP('',(#160,#161));
#98=CIRCLE('',#310,5.);
#99=CIRCLE('',#311,5.);
#100=CIRCLE('',#313,5.);
#101=CIRCLE('',#315,5.);
#102=CIRCLE('',#318,25.00000000031);
#103=CIRCLE('',#319,4.979991903703);
#104=CIRCLE('',#320,25.00000000043);
#105=CIRCLE('',#321,5.);
#106=CIRCLE('',#322,5.);
#107=CIRCLE('',#324,4.979991903703);
#108=CIRCLE('',#325,4.000000000003);
#109=CIRCLE('',#327,4.000000000003);
#110=CIRCLE('',#329,4.);
#111=CIRCLE('',#331,4.);
#112=CIRCLE('',#333,3.5);
#113=CIRCLE('',#335,3.5);
#114=ORIENTED_EDGE('',*,*,#176,.T.);
#115=ORIENTED_EDGE('',*,*,#177,.T.);
#116=ORIENTED_EDGE('',*,*,#178,.F.);
#117=ORIENTED_EDGE('',*,*,#179,.T.);
#118=ORIENTED_EDGE('',*,*,#180,.F.);
#119=ORIENTED_EDGE('',*,*,#179,.F.);
#120=ORIENTED_EDGE('',*,*,#178,.T.);
#121=ORIENTED_EDGE('',*,*,#181,.T.);
#122=ORIENTED_EDGE('',*,*,#176,.F.);
#123=ORIENTED_EDGE('',*,*,#180,.T.);
#124=ORIENTED_EDGE('',*,*,#177,.F.);
#125=ORIENTED_EDGE('',*,*,#181,.F.);
#126=ORIENTED_EDGE('',*,*,#182,.F.);
#127=ORIENTED_EDGE('',*,*,#183,.F.);
#128=ORIENTED_EDGE('',*,*,#184,.T.);
#129=ORIENTED_EDGE('',*,*,#185,.T.);
#130=ORIENTED_EDGE('',*,*,#186,.F.);
#131=ORIENTED_EDGE('',*,*,#185,.F.);
#132=ORIENTED_EDGE('',*,*,#184,.F.);
#133=ORIENTED_EDGE('',*,*,#187,.F.);
#134=ORIENTED_EDGE('',*,*,#182,.T.);
#135=ORIENTED_EDGE('',*,*,#186,.T.);
#136=ORIENTED_EDGE('',*,*,#187,.T.);
#137=ORIENTED_EDGE('',*,*,#188,.T.);
#138=ORIENTED_EDGE('',*,*,#189,.F.);
#139=ORIENTED_EDGE('',*,*,#190,.F.);
#140=ORIENTED_EDGE('',*,*,#191,.F.);
#141=ORIENTED_EDGE('',*,*,#188,.F.);
#142=ORIENTED_EDGE('',*,*,#183,.T.);
#143=ORIENTED_EDGE('',*,*,#190,.T.);
#144=ORIENTED_EDGE('',*,*,#192,.T.);
#145=ORIENTED_EDGE('',*,*,#193,.T.);
#146=ORIENTED_EDGE('',*,*,#191,.T.);
#147=ORIENTED_EDGE('',*,*,#194,.F.);
#148=ORIENTED_EDGE('',*,*,#189,.T.);
#149=ORIENTED_EDGE('',*,*,#193,.F.);
#150=ORIENTED_EDGE('',*,*,#195,.T.);
#151=ORIENTED_EDGE('',*,*,#194,.T.);
#152=ORIENTED_EDGE('',*,*,#195,.F.);
#153=ORIENTED_EDGE('',*,*,#196,.T.);
#154=ORIENTED_EDGE('',*,*,#197,.T.);
#155=ORIENTED_EDGE('',*,*,#198,.F.);
#156=ORIENTED_EDGE('',*,*,#199,.T.);
#157=ORIENTED_EDGE('',*,*,#196,.F.);
#158=ORIENTED_EDGE('',*,*,#192,.F.);
#159=ORIENTED_EDGE('',*,*,#198,.T.);
#160=ORIENTED_EDGE('',*,*,#199,.F.);
#161=ORIENTED_EDGE('',*,*,#197,.F.);
#162=VERTEX_POINT('',#445);
#163=VERTEX_POINT('',#446);
#164=VERTEX_POINT('',#448);
#165=VERTEX_POINT('',#450);
#166=VERTEX_POINT('',#459);
#167=VERTEX_POINT('',#460);
#168=VERTEX_POINT('',#462);
#169=VERTEX_POINT('',#464);
#170=VERTEX_POINT('',#526);
#171=VERTEX_POINT('',#528);
#172=VERTEX_POINT('',#534);
#173=VERTEX_POINT('',#535);
#174=VERTEX_POINT('',#542);
#175=VERTEX_POINT('',#544);
#176=EDGE_CURVE('',#162,#163,#236,.T.);
#177=EDGE_CURVE('',#163,#164,#98,.T.);
#178=EDGE_CURVE('',#165,#164,#237,.T.);
#179=EDGE_CURVE('',#165,#162,#99,.T.);
#180=EDGE_CURVE('',#162,#165,#100,.T.);
#181=EDGE_CURVE('',#164,#163,#101,.T.);
#182=EDGE_CURVE('',#166,#167,#102,.T.);
#183=EDGE_CURVE('',#168,#166,#103,.T.);
#184=EDGE_CURVE('',#168,#169,#104,.T.);
#185=EDGE_CURVE('',#169,#167,#105,.T.);
#186=EDGE_CURVE('',#167,#169,#106,.T.);
#187=EDGE_CURVE('',#166,#168,#107,.T.);
#188=EDGE_CURVE('',#168,#170,#238,.T.);
#189=EDGE_CURVE('',#171,#170,#108,.T.);
#190=EDGE_CURVE('',#166,#171,#239,.T.);
#191=EDGE_CURVE('',#170,#171,#109,.T.);
#192=EDGE_CURVE('',#172,#173,#110,.T.);
#193=EDGE_CURVE('',#173,#170,#240,.T.);
#194=EDGE_CURVE('',#172,#171,#241,.T.);
#195=EDGE_CURVE('',#173,#172,#111,.T.);
#196=EDGE_CURVE('',#173,#174,#242,.T.);
#197=EDGE_CURVE('',#174,#175,#112,.T.);
#198=EDGE_CURVE('',#172,#175,#243,.T.);
#199=EDGE_CURVE('',#175,#174,#113,.T.);
#200=CURVE_STYLE('',#214,POSITIVE_LENGTH_MEASURE(0.18),#294);
#201=CURVE_STYLE('',#215,POSITIVE_LENGTH_MEASURE(0.18),#294);
#202=CURVE_STYLE('',#216,POSITIVE_LENGTH_MEASURE(0.18),#294);
#203=CURVE_STYLE('',#217,POSITIVE_LENGTH_MEASURE(0.18),#294);
#204=CURVE_STYLE('',#218,POSITIVE_LENGTH_MEASURE(0.13),#295);
#205=CURVE_STYLE('',#219,POSITIVE_LENGTH_MEASURE(0.13),#295);
#206=CURVE_STYLE('',#220,POSITIVE_LENGTH_MEASURE(0.13),#296);
#207=CURVE_STYLE('',#221,POSITIVE_LENGTH_MEASURE(0.13),#296);
#208=CURVE_STYLE('',#222,POSITIVE_LENGTH_MEASURE(0.13),#295);
#209=CURVE_STYLE('',#223,POSITIVE_LENGTH_MEASURE(0.13),#295);
#210=CURVE_STYLE('',#224,POSITIVE_LENGTH_MEASURE(0.13),#296);
#211=CURVE_STYLE('',#225,POSITIVE_LENGTH_MEASURE(0.13),#295);
#212=CURVE_STYLE('',#226,POSITIVE_LENGTH_MEASURE(0.13),#295);
#213=CURVE_STYLE('',#227,POSITIVE_LENGTH_MEASURE(0.13),#295);
#214=DRAUGHTING_PRE_DEFINED_CURVE_FONT('continuous');
#215=DRAUGHTING_PRE_DEFINED_CURVE_FONT('continuous');
#216=DRAUGHTING_PRE_DEFINED_CURVE_FONT('continuous');
#217=DRAUGHTING_PRE_DEFINED_CURVE_FONT('continuous');
#218=DRAUGHTING_PRE_DEFINED_CURVE_FONT('continuous');
#219=DRAUGHTING_PRE_DEFINED_CURVE_FONT('continuous');
#220=DRAUGHTING_PRE_DEFINED_CURVE_FONT('continuous');
#221=DRAUGHTING_PRE_DEFINED_CURVE_FONT('continuous');
#222=DRAUGHTING_PRE_DEFINED_CURVE_FONT('continuous');
#223=DRAUGHTING_PRE_DEFINED_CURVE_FONT('continuous');
#224=DRAUGHTING_PRE_DEFINED_CURVE_FONT('continuous');
#225=DRAUGHTING_PRE_DEFINED_CURVE_FONT('continuous');
#226=DRAUGHTING_PRE_DEFINED_CURVE_FONT('continuous');
#227=DRAUGHTING_PRE_DEFINED_CURVE_FONT('continuous');
#228=TRIMMED_CURVE('',#232,(PARAMETER_VALUE(0.)),(PARAMETER_VALUE(1.)),
 .T.,.PARAMETER.);
#229=TRIMMED_CURVE('',#233,(PARAMETER_VALUE(0.)),(PARAMETER_VALUE(1.)),
 .T.,.PARAMETER.);
#230=TRIMMED_CURVE('',#234,(PARAMETER_VALUE(0.)),(PARAMETER_VALUE(1.)),
 .T.,.PARAMETER.);
#231=TRIMMED_CURVE('',#235,(PARAMETER_VALUE(0.)),(PARAMETER_VALUE(1.)),
 .T.,.PARAMETER.);
#232=LINE('',#430,#244);
#233=LINE('',#431,#245);
#234=LINE('',#432,#246);
#235=LINE('',#433,#247);
#236=LINE('',#444,#248);
#237=LINE('',#449,#249);
#238=LINE('',#525,#250);
#239=LINE('',#529,#251);
#240=LINE('',#536,#252);
#241=LINE('',#537,#253);
#242=LINE('',#541,#254);
#243=LINE('',#545,#255);
#244=VECTOR('',#340,5.);
#245=VECTOR('',#341,22.);
#246=VECTOR('',#342,5.);
#247=VECTOR('',#343,22.);
#248=VECTOR('',#364,1.);
#249=VECTOR('',#367,1.);
#250=VECTOR('',#396,1.);
#251=VECTOR('',#399,1.);
#252=VECTOR('',#408,1.);
#253=VECTOR('',#409,1.);
#254=VECTOR('',#416,1.);
#255=VECTOR('',#419,1.);
#256=PRESENTATION_LAYER_ASSIGNMENT('1','Layer 1',(#429,#228,#229,#230,#231,
#300,#301,#304,#305,#306,#307,#308,#309,#44,#45));
#257=PRESENTATION_LAYER_ASSIGNMENT('2','Layer 2',(#302,#303));
#258=STYLED_ITEM('',(#275),#429);
#259=STYLED_ITEM('',(#276),#228);
#260=STYLED_ITEM('',(#277),#229);
#261=STYLED_ITEM('',(#278),#230);
#262=STYLED_ITEM('',(#279),#231);
#263=STYLED_ITEM('',(#280),#300);
#264=STYLED_ITEM('',(#281),#301);
#265=STYLED_ITEM('',(#282),#302);
#266=STYLED_ITEM('',(#283),#303);
#267=STYLED_ITEM('',(#284),#304);
#268=STYLED_ITEM('',(#285),#305);
#269=STYLED_ITEM('',(#286),#306);
#270=STYLED_ITEM('',(#287),#307);
#271=STYLED_ITEM('',(#288),#308);
#272=STYLED_ITEM('',(#289),#309);
#273=STYLED_ITEM('',(#290),#44);
#274=STYLED_ITEM('',(#291),#45);
#275=PRESENTATION_STYLE_ASSIGNMENT((#292));
#276=PRESENTATION_STYLE_ASSIGNMENT((#200));
#277=PRESENTATION_STYLE_ASSIGNMENT((#201));
#278=PRESENTATION_STYLE_ASSIGNMENT((#202));
#279=PRESENTATION_STYLE_ASSIGNMENT((#203));
#280=PRESENTATION_STYLE_ASSIGNMENT((#204));
#281=PRESENTATION_STYLE_ASSIGNMENT((#205));
#282=PRESENTATION_STYLE_ASSIGNMENT((#206));
#283=PRESENTATION_STYLE_ASSIGNMENT((#207));
#284=PRESENTATION_STYLE_ASSIGNMENT((#208));
#285=PRESENTATION_STYLE_ASSIGNMENT((#209));
#286=PRESENTATION_STYLE_ASSIGNMENT((#210));
#287=PRESENTATION_STYLE_ASSIGNMENT((#211));
#288=PRESENTATION_STYLE_ASSIGNMENT((#212));
#289=PRESENTATION_STYLE_ASSIGNMENT((#213));
#290=PRESENTATION_STYLE_ASSIGNMENT((#34));
#291=PRESENTATION_STYLE_ASSIGNMENT((#35));
#292=POINT_STYLE('',#293,POSITIVE_LENGTH_MEASURE(3.),#294);
#293=PRE_DEFINED_POINT_MARKER_SYMBOL('plus');
#294=COLOUR_RGB('Medium Royal',0.2,0.4,0.8);
#295=COLOUR_RGB('Strong Stone',0.576470588235294,0.54508278019379,0.392156862745098);
#296=COLOUR_RGB('Medium Umber',0.372533760585946,0.313725490196078,0.270572976272221);
#297=COLOUR_RGB('cutting part',0.8,0.8,0.8);
#298=COLOUR_RGB('non-cutting part and shank',0.501960784313725,0.501960784313725,
0.501960784313725);
#299=AXIS2_PLACEMENT_3D('',#428,#338,#339);
#300=AXIS2_PLACEMENT_3D('',#434,#344,#345);
#301=AXIS2_PLACEMENT_3D('',#435,#346,#347);
#302=AXIS2_PLACEMENT_3D('CIP',#436,#348,#349);
#303=AXIS2_PLACEMENT_3D('PCS',#437,#350,#351);
#304=AXIS2_PLACEMENT_3D('MCS',#438,#352,#353);
#305=AXIS2_PLACEMENT_3D('',#439,#354,#355);
#306=AXIS2_PLACEMENT_3D('STEP_TEMP_EM10_1',#440,#356,#357);
#307=AXIS2_PLACEMENT_3D('',#441,#358,#359);
#308=AXIS2_PLACEMENT_3D('',#442,#360,#361);
#309=AXIS2_PLACEMENT_3D('',#443,#362,#363);
#310=AXIS2_PLACEMENT_3D('',#447,#365,#366);
#311=AXIS2_PLACEMENT_3D('',#451,#368,#369);
#312=AXIS2_PLACEMENT_3D('',#452,#370,#371);
#313=AXIS2_PLACEMENT_3D('',#453,#372,#373);
#314=AXIS2_PLACEMENT_3D('',#454,#374,#375);
#315=AXIS2_PLACEMENT_3D('',#455,#376,#377);
#316=AXIS2_PLACEMENT_3D('',#456,#378,#379);
#317=AXIS2_PLACEMENT_3D('',#457,#380,#381);
#318=AXIS2_PLACEMENT_3D('',#458,#382,#383);
#319=AXIS2_PLACEMENT_3D('',#461,#384,#385);
#320=AXIS2_PLACEMENT_3D('',#463,#386,#387);
#321=AXIS2_PLACEMENT_3D('',#465,#388,#389);
#322=AXIS2_PLACEMENT_3D('',#494,#390,#391);
#323=AXIS2_PLACEMENT_3D('',#495,#392,#393);
#324=AXIS2_PLACEMENT_3D('',#496,#394,#395);
#325=AXIS2_PLACEMENT_3D('',#527,#397,#398);
#326=AXIS2_PLACEMENT_3D('',#530,#400,#401);
#327=AXIS2_PLACEMENT_3D('',#531,#402,#403);
#328=AXIS2_PLACEMENT_3D('',#532,#404,#405);
#329=AXIS2_PLACEMENT_3D('',#533,#406,#407);
#330=AXIS2_PLACEMENT_3D('',#538,#410,#411);
#331=AXIS2_PLACEMENT_3D('',#539,#412,#413);
#332=AXIS2_PLACEMENT_3D('',#540,#414,#415);
#333=AXIS2_PLACEMENT_3D('',#543,#417,#418);
#334=AXIS2_PLACEMENT_3D('',#546,#420,#421);
#335=AXIS2_PLACEMENT_3D('',#547,#422,#423);
#336=AXIS2_PLACEMENT_3D('',#548,#424,#425);
#337=AXIS2_PLACEMENT_3D('',#549,#426,#427);
#338=DIRECTION('',(0.,0.,1.));
#339=DIRECTION('',(1.,0.,0.));
#340=DIRECTION('',(-1.,0.,0.));
#341=DIRECTION('',(0.,0.,1.));
#342=DIRECTION('',(1.,0.,0.));
#343=DIRECTION('',(0.,0.,-1.));
#344=DIRECTION('',(0.,0.,1.));
#345=DIRECTION('',(1.,0.,0.));
#346=DIRECTION('',(0.,0.,1.));
#347=DIRECTION('',(1.,0.,0.));
#348=DIRECTION('',(0.,0.,1.));
#349=DIRECTION('',(1.,0.,0.));
#350=DIRECTION('',(0.,0.,1.));
#351=DIRECTION('',(1.,0.,0.));
#352=DIRECTION('',(0.,0.,1.));
#353=DIRECTION('',(1.,0.,0.));
#354=DIRECTION('',(0.,0.,1.));
#355=DIRECTION('',(1.,0.,0.));
#356=DIRECTION('',(0.,0.,1.));
#357=DIRECTION('',(1.,0.,0.));
#358=DIRECTION('',(0.,0.,1.));
#359=DIRECTION('',(1.,0.,0.));
#360=DIRECTION('',(0.,0.,1.));
#361=DIRECTION('',(1.,0.,0.));
#362=DIRECTION('',(0.,0.,1.));
#363=DIRECTION('',(1.,0.,0.));
#364=DIRECTION('',(0.,0.,-1.));
#365=DIRECTION('',(0.,0.,1.));
#366=DIRECTION('',(0.,-1.,0.));
#367=DIRECTION('',(0.,0.,-1.));
#368=DIRECTION('',(0.,0.,-1.));
#369=DIRECTION('',(0.,1.,0.));
#370=DIRECTION('',(0.,0.,-1.));
#371=DIRECTION('',(0.,1.,0.));
#372=DIRECTION('',(0.,0.,-1.));
#373=DIRECTION('',(0.,-1.,0.));
#374=DIRECTION('',(0.,0.,-1.));
#375=DIRECTION('',(1.,0.,0.));
#376=DIRECTION('',(0.,0.,1.));
#377=DIRECTION('',(0.,1.,0.));
#378=DIRECTION('',(0.,0.,-1.));
#379=DIRECTION('',(0.,1.,0.));
#380=DIRECTION('',(0.,0.,-1.));
#381=DIRECTION('',(0.,1.,0.));
#382=DIRECTION('',(-0.999999999959538,8.99580785970734E-6,-3.11718152787912E-14));
#383=DIRECTION('',(8.98860832144847E-6,0.999199678618311,0.0400000271033604));
#384=DIRECTION('',(-3.117181613002E-14,0.,1.));
#385=DIRECTION('',(1.501198211334E-14,-1.,0.));
#386=DIRECTION('',(0.999999999959538,-8.99580786009634E-6,-3.11718167378912E-14));
#387=DIRECTION('',(-8.98860832183722E-6,-0.999199678618317,0.0400000271032007));
#388=DIRECTION('',(-3.117181613002E-14,0.,1.));
#389=DIRECTION('',(0.,-1.,0.));
#390=DIRECTION('',(3.117181613002E-14,0.,1.));
#391=DIRECTION('',(0.,1.,0.));
#392=DIRECTION('',(0.,0.,1.));
#393=DIRECTION('',(-1.,0.,0.));
#394=DIRECTION('',(3.117181613002E-14,0.,1.));
#395=DIRECTION('',(-1.488951743342E-14,1.,0.));
#396=DIRECTION('',(0.,0.707106898486788,0.707106663886288));
#397=DIRECTION('',(0.,0.,1.));
#398=DIRECTION('',(0.,1.,0.));
#399=DIRECTION('',(0.,-0.707106898486788,0.707106663886288));
#400=DIRECTION('',(0.,0.,-1.));
#401=DIRECTION('',(0.,1.,1.38157551226211E-17));
#402=DIRECTION('',(0.,0.,1.));
#403=DIRECTION('',(0.,-1.,0.));
#404=DIRECTION('',(0.,0.,-1.));
#405=DIRECTION('',(0.,1.,1.38157551226211E-17));
#406=DIRECTION('',(0.,0.,-1.));
#407=DIRECTION('',(0.,1.,0.));
#408=DIRECTION('',(0.,-2.323941169575E-14,-1.));
#409=DIRECTION('',(0.,2.30512383217E-14,-1.));
#410=DIRECTION('',(0.,0.,-1.));
#411=DIRECTION('',(0.,1.,0.));
#412=DIRECTION('',(0.,0.,-1.));
#413=DIRECTION('',(0.,-1.,0.));
#414=DIRECTION('',(0.,0.,-1.));
#415=DIRECTION('',(0.,1.,0.));
#416=DIRECTION('',(0.,0.707106781186547,0.707106781186547));
#417=DIRECTION('',(0.,0.,-1.));
#418=DIRECTION('',(0.,-1.,0.));
#419=DIRECTION('',(0.,-0.707106781186547,0.707106781186547));
#420=DIRECTION('',(0.,0.,-1.));
#421=DIRECTION('',(0.,1.,0.));
#422=DIRECTION('',(0.,0.,-1.));
#423=DIRECTION('',(0.,1.,0.));
#424=DIRECTION('',(0.,0.,-1.));
#425=DIRECTION('',(0.,1.,0.));
#426=DIRECTION('',(0.,0.,-1.));
#427=DIRECTION('',(0.,1.,0.));
#428=CARTESIAN_POINT('',(0.,0.,0.));
#429=CARTESIAN_POINT('CRP',(-5.,0.,0.));
#430=CARTESIAN_POINT('',(0.,0.,0.));
#431=CARTESIAN_POINT('',(-5.,0.,0.));
#432=CARTESIAN_POINT('',(-5.,0.,22.));
#433=CARTESIAN_POINT('',(0.,0.,22.));
#434=CARTESIAN_POINT('',(0.,0.,0.));
#435=CARTESIAN_POINT('',(0.,0.,0.));
#436=CARTESIAN_POINT('',(0.,0.,0.));
#437=CARTESIAN_POINT('',(0.,0.,100.));
#438=CARTESIAN_POINT('',(0.,0.,76.));
#439=CARTESIAN_POINT('',(0.,0.,0.));
#440=CARTESIAN_POINT('',(0.,0.,0.));
#441=CARTESIAN_POINT('',(0.,0.,0.));
#442=CARTESIAN_POINT('',(0.,0.,0.));
#443=CARTESIAN_POINT('',(0.,0.,0.));
#444=CARTESIAN_POINT('',(0.,-5.,22.));
#445=CARTESIAN_POINT('',(0.,-5.,22.));
#446=CARTESIAN_POINT('',(0.,-5.,0.));
#447=CARTESIAN_POINT('',(0.,0.,0.));
#448=CARTESIAN_POINT('',(0.,5.,0.));
#449=CARTESIAN_POINT('',(0.,5.,22.));
#450=CARTESIAN_POINT('',(0.,5.,22.));
#451=CARTESIAN_POINT('',(0.,0.,22.));
#452=CARTESIAN_POINT('',(0.,0.,105.));
#453=CARTESIAN_POINT('',(0.,0.,22.));
#454=CARTESIAN_POINT('',(150.,150.,22.));
#455=CARTESIAN_POINT('',(0.,0.,0.));
#456=CARTESIAN_POINT('',(0.,0.,105.));
#457=CARTESIAN_POINT('',(0.,-1.836419217858E-14,0.));
#458=CARTESIAN_POINT('',(-0.0001799161572395,-19.9999999995,22.));
#459=CARTESIAN_POINT('',(0.,4.979991903703,23.00000224547));
#460=CARTESIAN_POINT('',(0.,5.,22.));
#461=CARTESIAN_POINT('',(-7.353987447687E-14,0.,23.00000224547));
#462=CARTESIAN_POINT('',(-4.479905080164E-5,-4.979991966267,23.0000006776));
#463=CARTESIAN_POINT('',(0.0001799161572482,19.99999999962,22.));
#464=CARTESIAN_POINT('',(0.,-5.,22.));
#465=CARTESIAN_POINT('',(-4.236798835141E-14,0.,22.));
#466=CARTESIAN_POINT('',(-0.0942424684033129,4.99911175681703,22.));
#467=CARTESIAN_POINT('',(2.85611064339798,5.05473134954473,22.));
#468=CARTESIAN_POINT('',(4.9719803868111,2.99784723702897,22.));
#469=CARTESIAN_POINT('',(4.99977814617712,0.0471008385756929,22.));
#470=CARTESIAN_POINT('',(5.02757590554315,-2.90364555987759,22.));
#471=CARTESIAN_POINT('',(2.9508323519771,-5.00002654532194,22.));
#472=CARTESIAN_POINT('',(-4.49790392394594E-5,-4.99999999979712,22.));
#473=CARTESIAN_POINT('',(-0.0942424684033214,4.99911175681748,22.3334452774716));
#474=CARTESIAN_POINT('',(2.85611064339824,5.05473134954518,22.3334452774716));
#475=CARTESIAN_POINT('',(4.97198038681155,2.99784723702924,22.3334452774716));
#476=CARTESIAN_POINT('',(4.99977814617758,0.0471008385756972,22.3334452774716));
#477=CARTESIAN_POINT('',(5.02757590554361,-2.90364555987785,22.3334452774716));
#478=CARTESIAN_POINT('',(2.95083235197737,-5.00002654532239,22.3334452774716));
#479=CARTESIAN_POINT('',(-4.49790392394594E-5,-4.99999999979757,22.3334452774716));
#480=CARTESIAN_POINT('',(-0.0941167441394187,4.99244268653049,22.6668238322153));
#481=CARTESIAN_POINT('',(2.85230044599622,5.04798807988213,22.6668238322153));
#482=CARTESIAN_POINT('',(4.9653475111572,2.9938479557757,22.6668238322153));
#483=CARTESIAN_POINT('',(4.99310818689316,0.0470380036525515,22.6668238322153));
#484=CARTESIAN_POINT('',(5.02086886262913,-2.8997719484706,22.6668238322153));
#485=CARTESIAN_POINT('',(2.94689579098058,-4.99335625466084,22.6668238322153));
#486=CARTESIAN_POINT('',(-4.49190349063193E-5,-4.9933297445491,22.6668238322153));
#487=CARTESIAN_POINT('',(-0.0938653459267022,4.97910721493111,23.0000022454781));
#488=CARTESIAN_POINT('',(2.84468157604041,5.03450423922535,23.0000022454781));
#489=CARTESIAN_POINT('',(4.95208441433793,2.98585099378857,23.0000022454781));
#490=CARTESIAN_POINT('',(4.97977093765471,0.0469123589529156,23.0000022454781));
#491=CARTESIAN_POINT('',(5.00745746097149,-2.89202627588274,23.0000022454781));
#492=CARTESIAN_POINT('',(2.9390242444062,-4.98001834280073,23.0000022454781));
#493=CARTESIAN_POINT('',(-4.47990502539922E-5,-4.97999190350098,23.0000022454781));
#494=CARTESIAN_POINT('',(4.236798835138E-14,0.,22.));
#495=CARTESIAN_POINT('',(-150.,150.,22.));
#496=CARTESIAN_POINT('',(7.353987447687E-14,0.,23.00000224547));
#497=CARTESIAN_POINT('',(1.056283966544E-12,-3.46944695195361E-15,7.00000000033847));
#498=CARTESIAN_POINT('',(1.05423638407158E-12,-3.50144042808517E-15,7.00000000033847));
#499=CARTESIAN_POINT('',(1.05277263762833E-12,-2.06928683515385E-15,7.00000000033847));
#500=CARTESIAN_POINT('',(1.05275995256363E-12,-2.14937174270217E-17,7.00000000033847));
#501=CARTESIAN_POINT('',(1.05274726749893E-12,2.02629940029981E-15,7.00000000033847));
#502=CARTESIAN_POINT('',(1.05419315932867E-12,3.47647676205686E-15,7.00000000033846));
#503=CARTESIAN_POINT('',(1.05624098102018E-12,3.46985228748922E-15,7.00000000033846));
#504=CARTESIAN_POINT('',(0.130489571635158,-6.92184704791127,16.230769230888));
#505=CARTESIAN_POINT('',(-3.95461473701925,-6.99885879168821,16.230769230888));
#506=CARTESIAN_POINT('',(-6.8842805355959,-4.15086540512344,16.230769230888));
#507=CARTESIAN_POINT('',(-6.922769740872,-0.0652165457201227,16.230769230888));
#508=CARTESIAN_POINT('',(-6.9612589461481,4.02043231368319,16.230769230888));
#509=CARTESIAN_POINT('',(-4.08576787197517,6.9231136781492,16.230769230888));
#510=CARTESIAN_POINT('',(6.22786693066774E-5,6.92307692280713,16.230769230888));
#511=CARTESIAN_POINT('',(0.130489571635158,-6.92184704791127,27.76923076918));
#512=CARTESIAN_POINT('',(-3.95461473701925,-6.99885879168821,27.76923076918));
#513=CARTESIAN_POINT('',(-6.8842805355959,-4.15086540512344,27.76923076918));
#514=CARTESIAN_POINT('',(-6.922769740872,-0.0652165457201227,27.76923076918));
#515=CARTESIAN_POINT('',(-6.9612589461481,4.02043231368319,27.76923076918));
#516=CARTESIAN_POINT('',(-4.08576787197517,6.9231136781492,27.76923076918));
#517=CARTESIAN_POINT('',(6.22786693066367E-5,6.92307692280713,27.76923076918));
#518=CARTESIAN_POINT('',(1.05622975643538E-12,0.,36.9999999997295));
#519=CARTESIAN_POINT('',(1.05622975643538E-12,0.,36.9999999997295));
#520=CARTESIAN_POINT('',(1.05622975643538E-12,-1.16391588131806E-28,36.9999999997295));
#521=CARTESIAN_POINT('',(1.05622975643538E-12,0.,36.9999999997295));
#522=CARTESIAN_POINT('',(1.05622975643538E-12,1.16391588131806E-28,36.9999999997295));
#523=CARTESIAN_POINT('',(1.05622975643538E-12,8.08236381734473E-29,36.9999999997295));
#524=CARTESIAN_POINT('',(1.05622975643538E-12,1.97215226305253E-28,36.9999999997295));
#525=CARTESIAN_POINT('',(0.,-4.000000000002,23.97999199359));
#526=CARTESIAN_POINT('',(0.,-4.000000000004,23.97999199359));
#527=CARTESIAN_POINT('',(0.,-1.404914991716E-14,23.97999199359));
#528=CARTESIAN_POINT('',(0.,4.000000000002,23.97999199359));
#529=CARTESIAN_POINT('',(0.,4.000000000002,23.97999199359));
#530=CARTESIAN_POINT('',(0.,-1.404914991716E-14,23.4899959968));
#531=CARTESIAN_POINT('',(0.,-1.404914991716E-14,23.97999199359));
#532=CARTESIAN_POINT('',(0.,-1.404914991716E-14,23.4899959968));
#533=CARTESIAN_POINT('',(0.,0.,99.5));
#534=CARTESIAN_POINT('',(0.,4.,99.5));
#535=CARTESIAN_POINT('',(0.,-4.,99.5));
#536=CARTESIAN_POINT('',(0.,-4.,99.5));
#537=CARTESIAN_POINT('',(0.,4.,99.5));
#538=CARTESIAN_POINT('',(0.,0.,105.));
#539=CARTESIAN_POINT('',(0.,0.,99.5));
#540=CARTESIAN_POINT('',(0.,0.,105.));
#541=CARTESIAN_POINT('',(0.,-3.5,100.));
#542=CARTESIAN_POINT('',(0.,-3.5,100.));
#543=CARTESIAN_POINT('',(0.,0.,100.));
#544=CARTESIAN_POINT('',(0.,3.5,100.));
#545=CARTESIAN_POINT('',(0.,3.5,100.));
#546=CARTESIAN_POINT('',(0.,0.,99.75));
#547=CARTESIAN_POINT('',(0.,0.,100.));
#548=CARTESIAN_POINT('',(0.,0.,99.75));
#549=CARTESIAN_POINT('',(0.,0.,100.));
#550=MECHANICAL_DESIGN_GEOMETRIC_PRESENTATION_REPRESENTATION('',(#258,#259,
#260,#261,#262,#263,#264,#265,#266,#267,#268,#269,#270,#271,#272,#273,#274),
#551);
#551=(
GEOMETRIC_REPRESENTATION_CONTEXT(3)
GLOBAL_UNCERTAINTY_ASSIGNED_CONTEXT((#552))
GLOBAL_UNIT_ASSIGNED_CONTEXT((#558,#554,#553))
REPRESENTATION_CONTEXT('VQMHVD1000S08','TOP_LEVEL_ASSEMBLY_PART')
);
#552=UNCERTAINTY_MEASURE_WITH_UNIT(LENGTH_MEASURE(0.0254),#558,
'DISTANCE_ACCURACY_VALUE','Maximum Tolerance applied to model');
#553=(
NAMED_UNIT(*)
SI_UNIT($,.STERADIAN.)
SOLID_ANGLE_UNIT()
);
#554=(
CONVERSION_BASED_UNIT('DEGREE',#556)
NAMED_UNIT(#555)
PLANE_ANGLE_UNIT()
);
#555=DIMENSIONAL_EXPONENTS(0.,0.,0.,0.,0.,0.,0.);
#556=PLANE_ANGLE_MEASURE_WITH_UNIT(PLANE_ANGLE_MEASURE(0.0174532925),#557);
#557=(
NAMED_UNIT(*)
PLANE_ANGLE_UNIT()
SI_UNIT($,.RADIAN.)
);
#558=(
LENGTH_UNIT()
NAMED_UNIT(*)
SI_UNIT(.MILLI.,.METRE.)
);
ENDSEC;
END-ISO-10303-21;
