ISO-10303-21;
HEADER;
/* Generated by software containing ST-Developer
 * from STEP Tools, Inc. (www.steptools.com) 
 */
/* OPTION: using custom schema-name function */

FILE_DESCRIPTION(
/* description */ (''),
/* implementation_level */ '2;1');

FILE_NAME(
/* name */ 'VQMHVD0900S08.stp',
/* time_stamp */ '2023-03-17T09:17:57+09:00',
/* author */ (''),
/* organization */ (''),
/* preprocessor_version */ 'ST-DEVELOPER v16',
/* originating_system */ 'SIEMENS PLM Software NX 10.0',
/* authorisation */ '');

FILE_SCHEMA (('AUTOMOTIVE_DESIGN { 1 0 10303 214 3 1 1 1 }'));
ENDSEC;

DATA;
#10=CONSTRUCTIVE_GEOMETRY_REPRESENTATION_RELATIONSHIP(
'supplemental geometry','',#26,#11);
#11=CONSTRUCTIVE_GEOMETRY_REPRESENTATION('supplemental geometry',(#300,
#301,#302,#303,#304,#305,#306,#307,#308,#309),#551);
#12=GEOMETRICALLY_BOUNDED_WIREFRAME_SHAPE_REPRESENTATION(
'VQMHVD0900S08-None',(#27),#551);
#13=SHAPE_REPRESENTATION_RELATIONSHIP('None',
'relationship between VQMHVD0900S08-None and VQMHVD0900S08-None',#26,#15);
#14=SHAPE_REPRESENTATION_RELATIONSHIP('None',
'relationship between VQMHVD0900S08-None and VQMHVD0900S08-None',#26,#12);
#15=ADVANCED_BREP_SHAPE_REPRESENTATION('VQMHVD0900S08-None',(#44,#45),#551);
#16=SHAPE_DEFINITION_REPRESENTATION(#17,#26);
#17=PRODUCT_DEFINITION_SHAPE('','SHAPE FOR VQMHVD0900S08_ASM.',#18);
#18=PRODUCT_DEFINITION('part definition','',#20,#19);
#19=PRODUCT_DEFINITION_CONTEXT('part definition',#25,'design');
#20=PRODUCT_DEFINITION_FORMATION_WITH_SPECIFIED_SOURCE(' ',' ',#22,
 .NOT_KNOWN.);
#21=PRODUCT_RELATED_PRODUCT_CATEGORY('part','',(#22));
#22=PRODUCT('VQMHVD0900S08_ASM','VQMHVD0900S08_ASM','NOT SPECIFIED',(#23));
#23=PRODUCT_CONTEXT('',#25,'mechanical');
#24=APPLICATION_PROTOCOL_DEFINITION('international standard',
'automotive_design',2010,#25);
#25=APPLICATION_CONTEXT(
'core data for automotive mechanical design processes');
#26=SHAPE_REPRESENTATION('VQMHVD0900S08-None',(#299),#551);
#27=GEOMETRIC_CURVE_SET('None',(#429,#228,#229,#230,#231));
#28=CONICAL_SURFACE('',#326,4.2399959968,44.99999999999);
#29=CONICAL_SURFACE('',#328,4.2399959968,44.99999999999);
#30=CONICAL_SURFACE('',#334,3.75,45.);
#31=CONICAL_SURFACE('',#336,3.75,45.);
#32=(
BOUNDED_SURFACE()
B_SPLINE_SURFACE(3,3,((#466,#467,#468,#469,#470,#471,#472),(#473,#474,#475,
#476,#477,#478,#479),(#480,#481,#482,#483,#484,#485,#486),(#487,#488,#489,
#490,#491,#492,#493)),.UNSPECIFIED.,.F.,.F.,.F.)
B_SPLINE_SURFACE_WITH_KNOTS((4,4),(4,3,4),(0.,1.),(0.,0.5,1.),
 .UNSPECIFIED.)
GEOMETRIC_REPRESENTATION_ITEM()
RATIONAL_B_SPLINE_SURFACE(((1.,0.804736793957051,0.804736793957051,1.,0.804736793957051,
0.804736793957051,1.),(0.999866599659233,0.804629441794509,0.804629441794509,
0.999866599659233,0.804629441794509,0.804629441794509,0.999866599659233),
(0.999866599659233,0.804629441794509,0.804629441794509,0.999866599659233,
0.804629441794509,0.804629441794509,0.999866599659233),(1.,0.804736793957051,
0.804736793957051,1.,0.804736793957051,0.804736793957051,1.)))
REPRESENTATION_ITEM('')
SURFACE()
);
#33=(
BOUNDED_SURFACE()
B_SPLINE_SURFACE(3,3,((#497,#498,#499,#500,#501,#502,#503),(#504,#505,#506,
#507,#508,#509,#510),(#511,#512,#513,#514,#515,#516,#517),(#518,#519,#520,
#521,#522,#523,#524)),.UNSPECIFIED.,.F.,.F.,.F.)
B_SPLINE_SURFACE_WITH_KNOTS((4,4),(4,3,4),(0.,1.),(0.,0.5,1.),
 .UNSPECIFIED.)
GEOMETRIC_REPRESENTATION_ITEM()
RATIONAL_B_SPLINE_SURFACE(((1.,0.802510115196244,0.802510115196244,1.,0.802510115196244,
0.802510115196244,1.),(0.880000000005319,0.706208901376964,0.706208901376964,
0.880000000005319,0.706208901376964,0.706208901376964,0.880000000005319),
(0.880000000005319,0.706208901376964,0.706208901376964,0.880000000005319,
0.706208901376964,0.706208901376964,0.880000000005319),(1.,0.802510115196244,
0.802510115196244,1.,0.802510115196244,0.802510115196244,1.)))
REPRESENTATION_ITEM('')
SURFACE()
);
#34=SURFACE_STYLE_USAGE(.BOTH.,#36);
#35=SURFACE_STYLE_USAGE(.BOTH.,#37);
#36=SURFACE_SIDE_STYLE('',(#38));
#37=SURFACE_SIDE_STYLE('',(#39));
#38=SURFACE_STYLE_FILL_AREA(#40);
#39=SURFACE_STYLE_FILL_AREA(#41);
#40=FILL_AREA_STYLE('',(#42));
#41=FILL_AREA_STYLE('',(#43));
#42=FILL_AREA_STYLE_COLOUR('',#297);
#43=FILL_AREA_STYLE_COLOUR('',#298);
#44=MANIFOLD_SOLID_BREP('CUT',#46);
#45=MANIFOLD_SOLID_BREP('NOCUT',#47);
#46=CLOSED_SHELL('',(#52,#53,#54,#55));
#47=CLOSED_SHELL('',(#56,#57,#58,#59,#60,#61,#62,#63,#64,#65));
#48=PLANE('',#314);
#49=PLANE('',#317);
#50=PLANE('',#323);
#51=PLANE('',#337);
#52=ADVANCED_FACE('',(#70),#66,.T.);
#53=ADVANCED_FACE('',(#71),#48,.F.);
#54=ADVANCED_FACE('',(#72),#67,.T.);
#55=ADVANCED_FACE('',(#73),#49,.T.);
#56=ADVANCED_FACE('',(#74),#32,.T.);
#57=ADVANCED_FACE('',(#75),#50,.F.);
#58=ADVANCED_FACE('',(#76),#33,.T.);
#59=ADVANCED_FACE('',(#77),#28,.T.);
#60=ADVANCED_FACE('',(#78),#29,.T.);
#61=ADVANCED_FACE('',(#79),#68,.T.);
#62=ADVANCED_FACE('',(#80),#69,.T.);
#63=ADVANCED_FACE('',(#81),#30,.T.);
#64=ADVANCED_FACE('',(#82),#31,.T.);
#65=ADVANCED_FACE('',(#83),#51,.F.);
#66=CYLINDRICAL_SURFACE('',#312,4.5);
#67=CYLINDRICAL_SURFACE('',#316,4.5);
#68=CYLINDRICAL_SURFACE('',#330,4.);
#69=CYLINDRICAL_SURFACE('',#332,4.);
#70=FACE_OUTER_BOUND('',#84,.T.);
#71=FACE_OUTER_BOUND('',#85,.T.);
#72=FACE_OUTER_BOUND('',#86,.T.);
#73=FACE_OUTER_BOUND('',#87,.T.);
#74=FACE_OUTER_BOUND('',#88,.T.);
#75=FACE_OUTER_BOUND('',#89,.T.);
#76=FACE_OUTER_BOUND('',#90,.T.);
#77=FACE_OUTER_BOUND('',#91,.T.);
#78=FACE_OUTER_BOUND('',#92,.T.);
#79=FACE_OUTER_BOUND('',#93,.T.);
#80=FACE_OUTER_BOUND('',#94,.T.);
#81=FACE_OUTER_BOUND('',#95,.T.);
#82=FACE_OUTER_BOUND('',#96,.T.);
#83=FACE_OUTER_BOUND('',#97,.T.);
#84=EDGE_LOOP('',(#114,#115,#116,#117));
#85=EDGE_LOOP('',(#118,#119));
#86=EDGE_LOOP('',(#120,#121,#122,#123));
#87=EDGE_LOOP('',(#124,#125));
#88=EDGE_LOOP('',(#126,#127,#128,#129));
#89=EDGE_LOOP('',(#130,#131));
#90=EDGE_LOOP('',(#132,#133,#134,#135));
#91=EDGE_LOOP('',(#136,#137,#138,#139));
#92=EDGE_LOOP('',(#140,#141,#142,#143));
#93=EDGE_LOOP('',(#144,#145,#146,#147));
#94=EDGE_LOOP('',(#148,#149,#150,#151));
#95=EDGE_LOOP('',(#152,#153,#154,#155));
#96=EDGE_LOOP('',(#156,#157,#158,#159));
#97=EDGE_LOOP('',(#160,#161));
#98=CIRCLE('',#310,4.5);
#99=CIRCLE('',#311,4.5);
#100=CIRCLE('',#313,4.5);
#101=CIRCLE('',#315,4.5);
#102=CIRCLE('',#318,25.00000000147);
#103=CIRCLE('',#319,4.479991950895);
#104=CIRCLE('',#320,25.00000000147);
#105=CIRCLE('',#321,4.5);
#106=CIRCLE('',#322,4.5);
#107=CIRCLE('',#324,4.479991950895);
#108=CIRCLE('',#325,4.000000000004);
#109=CIRCLE('',#327,4.000000000004);
#110=CIRCLE('',#329,4.);
#111=CIRCLE('',#331,4.);
#112=CIRCLE('',#333,3.5);
#113=CIRCLE('',#335,3.5);
#114=ORIENTED_EDGE('',*,*,#176,.T.);
#115=ORIENTED_EDGE('',*,*,#177,.T.);
#116=ORIENTED_EDGE('',*,*,#178,.F.);
#117=ORIENTED_EDGE('',*,*,#179,.T.);
#118=ORIENTED_EDGE('',*,*,#180,.F.);
#119=ORIENTED_EDGE('',*,*,#179,.F.);
#120=ORIENTED_EDGE('',*,*,#178,.T.);
#121=ORIENTED_EDGE('',*,*,#181,.T.);
#122=ORIENTED_EDGE('',*,*,#176,.F.);
#123=ORIENTED_EDGE('',*,*,#180,.T.);
#124=ORIENTED_EDGE('',*,*,#177,.F.);
#125=ORIENTED_EDGE('',*,*,#181,.F.);
#126=ORIENTED_EDGE('',*,*,#182,.F.);
#127=ORIENTED_EDGE('',*,*,#183,.F.);
#128=ORIENTED_EDGE('',*,*,#184,.T.);
#129=ORIENTED_EDGE('',*,*,#185,.T.);
#130=ORIENTED_EDGE('',*,*,#186,.F.);
#131=ORIENTED_EDGE('',*,*,#185,.F.);
#132=ORIENTED_EDGE('',*,*,#184,.F.);
#133=ORIENTED_EDGE('',*,*,#187,.F.);
#134=ORIENTED_EDGE('',*,*,#182,.T.);
#135=ORIENTED_EDGE('',*,*,#186,.T.);
#136=ORIENTED_EDGE('',*,*,#187,.T.);
#137=ORIENTED_EDGE('',*,*,#188,.T.);
#138=ORIENTED_EDGE('',*,*,#189,.F.);
#139=ORIENTED_EDGE('',*,*,#190,.F.);
#140=ORIENTED_EDGE('',*,*,#191,.F.);
#141=ORIENTED_EDGE('',*,*,#188,.F.);
#142=ORIENTED_EDGE('',*,*,#183,.T.);
#143=ORIENTED_EDGE('',*,*,#190,.T.);
#144=ORIENTED_EDGE('',*,*,#192,.T.);
#145=ORIENTED_EDGE('',*,*,#193,.T.);
#146=ORIENTED_EDGE('',*,*,#191,.T.);
#147=ORIENTED_EDGE('',*,*,#194,.F.);
#148=ORIENTED_EDGE('',*,*,#189,.T.);
#149=ORIENTED_EDGE('',*,*,#193,.F.);
#150=ORIENTED_EDGE('',*,*,#195,.T.);
#151=ORIENTED_EDGE('',*,*,#194,.T.);
#152=ORIENTED_EDGE('',*,*,#195,.F.);
#153=ORIENTED_EDGE('',*,*,#196,.T.);
#154=ORIENTED_EDGE('',*,*,#197,.T.);
#155=ORIENTED_EDGE('',*,*,#198,.F.);
#156=ORIENTED_EDGE('',*,*,#199,.T.);
#157=ORIENTED_EDGE('',*,*,#196,.F.);
#158=ORIENTED_EDGE('',*,*,#192,.F.);
#159=ORIENTED_EDGE('',*,*,#198,.T.);
#160=ORIENTED_EDGE('',*,*,#199,.F.);
#161=ORIENTED_EDGE('',*,*,#197,.F.);
#162=VERTEX_POINT('',#445);
#163=VERTEX_POINT('',#446);
#164=VERTEX_POINT('',#448);
#165=VERTEX_POINT('',#450);
#166=VERTEX_POINT('',#459);
#167=VERTEX_POINT('',#460);
#168=VERTEX_POINT('',#462);
#169=VERTEX_POINT('',#464);
#170=VERTEX_POINT('',#526);
#171=VERTEX_POINT('',#528);
#172=VERTEX_POINT('',#534);
#173=VERTEX_POINT('',#535);
#174=VERTEX_POINT('',#542);
#175=VERTEX_POINT('',#544);
#176=EDGE_CURVE('',#162,#163,#236,.T.);
#177=EDGE_CURVE('',#163,#164,#98,.T.);
#178=EDGE_CURVE('',#165,#164,#237,.T.);
#179=EDGE_CURVE('',#165,#162,#99,.T.);
#180=EDGE_CURVE('',#162,#165,#100,.T.);
#181=EDGE_CURVE('',#164,#163,#101,.T.);
#182=EDGE_CURVE('',#166,#167,#102,.T.);
#183=EDGE_CURVE('',#168,#166,#103,.T.);
#184=EDGE_CURVE('',#168,#169,#104,.T.);
#185=EDGE_CURVE('',#169,#167,#105,.T.);
#186=EDGE_CURVE('',#167,#169,#106,.T.);
#187=EDGE_CURVE('',#166,#168,#107,.T.);
#188=EDGE_CURVE('',#168,#170,#238,.T.);
#189=EDGE_CURVE('',#171,#170,#108,.T.);
#190=EDGE_CURVE('',#166,#171,#239,.T.);
#191=EDGE_CURVE('',#170,#171,#109,.T.);
#192=EDGE_CURVE('',#172,#173,#110,.T.);
#193=EDGE_CURVE('',#173,#170,#240,.T.);
#194=EDGE_CURVE('',#172,#171,#241,.T.);
#195=EDGE_CURVE('',#173,#172,#111,.T.);
#196=EDGE_CURVE('',#173,#174,#242,.T.);
#197=EDGE_CURVE('',#174,#175,#112,.T.);
#198=EDGE_CURVE('',#172,#175,#243,.T.);
#199=EDGE_CURVE('',#175,#174,#113,.T.);
#200=CURVE_STYLE('',#214,POSITIVE_LENGTH_MEASURE(0.18),#294);
#201=CURVE_STYLE('',#215,POSITIVE_LENGTH_MEASURE(0.18),#294);
#202=CURVE_STYLE('',#216,POSITIVE_LENGTH_MEASURE(0.18),#294);
#203=CURVE_STYLE('',#217,POSITIVE_LENGTH_MEASURE(0.18),#294);
#204=CURVE_STYLE('',#218,POSITIVE_LENGTH_MEASURE(0.13),#295);
#205=CURVE_STYLE('',#219,POSITIVE_LENGTH_MEASURE(0.13),#295);
#206=CURVE_STYLE('',#220,POSITIVE_LENGTH_MEASURE(0.13),#296);
#207=CURVE_STYLE('',#221,POSITIVE_LENGTH_MEASURE(0.13),#296);
#208=CURVE_STYLE('',#222,POSITIVE_LENGTH_MEASURE(0.13),#295);
#209=CURVE_STYLE('',#223,POSITIVE_LENGTH_MEASURE(0.13),#295);
#210=CURVE_STYLE('',#224,POSITIVE_LENGTH_MEASURE(0.13),#296);
#211=CURVE_STYLE('',#225,POSITIVE_LENGTH_MEASURE(0.13),#295);
#212=CURVE_STYLE('',#226,POSITIVE_LENGTH_MEASURE(0.13),#295);
#213=CURVE_STYLE('',#227,POSITIVE_LENGTH_MEASURE(0.13),#295);
#214=DRAUGHTING_PRE_DEFINED_CURVE_FONT('continuous');
#215=DRAUGHTING_PRE_DEFINED_CURVE_FONT('continuous');
#216=DRAUGHTING_PRE_DEFINED_CURVE_FONT('continuous');
#217=DRAUGHTING_PRE_DEFINED_CURVE_FONT('continuous');
#218=DRAUGHTING_PRE_DEFINED_CURVE_FONT('continuous');
#219=DRAUGHTING_PRE_DEFINED_CURVE_FONT('continuous');
#220=DRAUGHTING_PRE_DEFINED_CURVE_FONT('continuous');
#221=DRAUGHTING_PRE_DEFINED_CURVE_FONT('continuous');
#222=DRAUGHTING_PRE_DEFINED_CURVE_FONT('continuous');
#223=DRAUGHTING_PRE_DEFINED_CURVE_FONT('continuous');
#224=DRAUGHTING_PRE_DEFINED_CURVE_FONT('continuous');
#225=DRAUGHTING_PRE_DEFINED_CURVE_FONT('continuous');
#226=DRAUGHTING_PRE_DEFINED_CURVE_FONT('continuous');
#227=DRAUGHTING_PRE_DEFINED_CURVE_FONT('continuous');
#228=TRIMMED_CURVE('',#232,(PARAMETER_VALUE(0.)),(PARAMETER_VALUE(1.)),
 .T.,.PARAMETER.);
#229=TRIMMED_CURVE('',#233,(PARAMETER_VALUE(0.)),(PARAMETER_VALUE(1.)),
 .T.,.PARAMETER.);
#230=TRIMMED_CURVE('',#234,(PARAMETER_VALUE(0.)),(PARAMETER_VALUE(1.)),
 .T.,.PARAMETER.);
#231=TRIMMED_CURVE('',#235,(PARAMETER_VALUE(0.)),(PARAMETER_VALUE(1.)),
 .T.,.PARAMETER.);
#232=LINE('',#430,#244);
#233=LINE('',#431,#245);
#234=LINE('',#432,#246);
#235=LINE('',#433,#247);
#236=LINE('',#444,#248);
#237=LINE('',#449,#249);
#238=LINE('',#525,#250);
#239=LINE('',#529,#251);
#240=LINE('',#536,#252);
#241=LINE('',#537,#253);
#242=LINE('',#541,#254);
#243=LINE('',#545,#255);
#244=VECTOR('',#340,4.5);
#245=VECTOR('',#341,22.);
#246=VECTOR('',#342,4.5);
#247=VECTOR('',#343,22.);
#248=VECTOR('',#364,1.);
#249=VECTOR('',#367,1.);
#250=VECTOR('',#396,1.);
#251=VECTOR('',#399,1.);
#252=VECTOR('',#408,1.);
#253=VECTOR('',#409,1.);
#254=VECTOR('',#416,1.);
#255=VECTOR('',#419,1.);
#256=PRESENTATION_LAYER_ASSIGNMENT('1','Layer 1',(#429,#228,#229,#230,#231,
#300,#301,#304,#305,#306,#307,#308,#309,#44,#45));
#257=PRESENTATION_LAYER_ASSIGNMENT('2','Layer 2',(#302,#303));
#258=STYLED_ITEM('',(#275),#429);
#259=STYLED_ITEM('',(#276),#228);
#260=STYLED_ITEM('',(#277),#229);
#261=STYLED_ITEM('',(#278),#230);
#262=STYLED_ITEM('',(#279),#231);
#263=STYLED_ITEM('',(#280),#300);
#264=STYLED_ITEM('',(#281),#301);
#265=STYLED_ITEM('',(#282),#302);
#266=STYLED_ITEM('',(#283),#303);
#267=STYLED_ITEM('',(#284),#304);
#268=STYLED_ITEM('',(#285),#305);
#269=STYLED_ITEM('',(#286),#306);
#270=STYLED_ITEM('',(#287),#307);
#271=STYLED_ITEM('',(#288),#308);
#272=STYLED_ITEM('',(#289),#309);
#273=STYLED_ITEM('',(#290),#44);
#274=STYLED_ITEM('',(#291),#45);
#275=PRESENTATION_STYLE_ASSIGNMENT((#292));
#276=PRESENTATION_STYLE_ASSIGNMENT((#200));
#277=PRESENTATION_STYLE_ASSIGNMENT((#201));
#278=PRESENTATION_STYLE_ASSIGNMENT((#202));
#279=PRESENTATION_STYLE_ASSIGNMENT((#203));
#280=PRESENTATION_STYLE_ASSIGNMENT((#204));
#281=PRESENTATION_STYLE_ASSIGNMENT((#205));
#282=PRESENTATION_STYLE_ASSIGNMENT((#206));
#283=PRESENTATION_STYLE_ASSIGNMENT((#207));
#284=PRESENTATION_STYLE_ASSIGNMENT((#208));
#285=PRESENTATION_STYLE_ASSIGNMENT((#209));
#286=PRESENTATION_STYLE_ASSIGNMENT((#210));
#287=PRESENTATION_STYLE_ASSIGNMENT((#211));
#288=PRESENTATION_STYLE_ASSIGNMENT((#212));
#289=PRESENTATION_STYLE_ASSIGNMENT((#213));
#290=PRESENTATION_STYLE_ASSIGNMENT((#34));
#291=PRESENTATION_STYLE_ASSIGNMENT((#35));
#292=POINT_STYLE('',#293,POSITIVE_LENGTH_MEASURE(3.),#294);
#293=PRE_DEFINED_POINT_MARKER_SYMBOL('plus');
#294=COLOUR_RGB('Medium Royal',0.2,0.4,0.8);
#295=COLOUR_RGB('Strong Stone',0.576470588235294,0.54508278019379,0.392156862745098);
#296=COLOUR_RGB('Medium Umber',0.372533760585946,0.313725490196078,0.270572976272221);
#297=COLOUR_RGB('cutting part',0.8,0.8,0.8);
#298=COLOUR_RGB('non-cutting part and shank',0.501960784313725,0.501960784313725,
0.501960784313725);
#299=AXIS2_PLACEMENT_3D('',#428,#338,#339);
#300=AXIS2_PLACEMENT_3D('',#434,#344,#345);
#301=AXIS2_PLACEMENT_3D('',#435,#346,#347);
#302=AXIS2_PLACEMENT_3D('CIP',#436,#348,#349);
#303=AXIS2_PLACEMENT_3D('PCS',#437,#350,#351);
#304=AXIS2_PLACEMENT_3D('MCS',#438,#352,#353);
#305=AXIS2_PLACEMENT_3D('',#439,#354,#355);
#306=AXIS2_PLACEMENT_3D('STEP_TEMP_EM10_1',#440,#356,#357);
#307=AXIS2_PLACEMENT_3D('',#441,#358,#359);
#308=AXIS2_PLACEMENT_3D('',#442,#360,#361);
#309=AXIS2_PLACEMENT_3D('',#443,#362,#363);
#310=AXIS2_PLACEMENT_3D('',#447,#365,#366);
#311=AXIS2_PLACEMENT_3D('',#451,#368,#369);
#312=AXIS2_PLACEMENT_3D('',#452,#370,#371);
#313=AXIS2_PLACEMENT_3D('',#453,#372,#373);
#314=AXIS2_PLACEMENT_3D('',#454,#374,#375);
#315=AXIS2_PLACEMENT_3D('',#455,#376,#377);
#316=AXIS2_PLACEMENT_3D('',#456,#378,#379);
#317=AXIS2_PLACEMENT_3D('',#457,#380,#381);
#318=AXIS2_PLACEMENT_3D('',#458,#382,#383);
#319=AXIS2_PLACEMENT_3D('',#461,#384,#385);
#320=AXIS2_PLACEMENT_3D('',#463,#386,#387);
#321=AXIS2_PLACEMENT_3D('',#465,#388,#389);
#322=AXIS2_PLACEMENT_3D('',#494,#390,#391);
#323=AXIS2_PLACEMENT_3D('',#495,#392,#393);
#324=AXIS2_PLACEMENT_3D('',#496,#394,#395);
#325=AXIS2_PLACEMENT_3D('',#527,#397,#398);
#326=AXIS2_PLACEMENT_3D('',#530,#400,#401);
#327=AXIS2_PLACEMENT_3D('',#531,#402,#403);
#328=AXIS2_PLACEMENT_3D('',#532,#404,#405);
#329=AXIS2_PLACEMENT_3D('',#533,#406,#407);
#330=AXIS2_PLACEMENT_3D('',#538,#410,#411);
#331=AXIS2_PLACEMENT_3D('',#539,#412,#413);
#332=AXIS2_PLACEMENT_3D('',#540,#414,#415);
#333=AXIS2_PLACEMENT_3D('',#543,#417,#418);
#334=AXIS2_PLACEMENT_3D('',#546,#420,#421);
#335=AXIS2_PLACEMENT_3D('',#547,#422,#423);
#336=AXIS2_PLACEMENT_3D('',#548,#424,#425);
#337=AXIS2_PLACEMENT_3D('',#549,#426,#427);
#338=DIRECTION('',(0.,0.,1.));
#339=DIRECTION('',(1.,0.,0.));
#340=DIRECTION('',(-1.,0.,0.));
#341=DIRECTION('',(0.,0.,1.));
#342=DIRECTION('',(1.,0.,0.));
#343=DIRECTION('',(0.,0.,-1.));
#344=DIRECTION('',(0.,0.,1.));
#345=DIRECTION('',(1.,0.,0.));
#346=DIRECTION('',(0.,0.,1.));
#347=DIRECTION('',(1.,0.,0.));
#348=DIRECTION('',(0.,0.,1.));
#349=DIRECTION('',(1.,0.,0.));
#350=DIRECTION('',(0.,0.,1.));
#351=DIRECTION('',(1.,0.,0.));
#352=DIRECTION('',(0.,0.,1.));
#353=DIRECTION('',(1.,0.,0.));
#354=DIRECTION('',(0.,0.,1.));
#355=DIRECTION('',(1.,0.,0.));
#356=DIRECTION('',(0.,0.,1.));
#357=DIRECTION('',(1.,0.,0.));
#358=DIRECTION('',(0.,0.,1.));
#359=DIRECTION('',(1.,0.,0.));
#360=DIRECTION('',(0.,0.,1.));
#361=DIRECTION('',(1.,0.,0.));
#362=DIRECTION('',(0.,0.,1.));
#363=DIRECTION('',(1.,0.,0.));
#364=DIRECTION('',(0.,0.,-1.));
#365=DIRECTION('',(0.,0.,1.));
#366=DIRECTION('',(0.,-1.,0.));
#367=DIRECTION('',(0.,0.,-1.));
#368=DIRECTION('',(0.,0.,-1.));
#369=DIRECTION('',(0.,1.,0.));
#370=DIRECTION('',(0.,0.,-1.));
#371=DIRECTION('',(0.,1.,0.));
#372=DIRECTION('',(0.,0.,-1.));
#373=DIRECTION('',(0.,-1.,0.));
#374=DIRECTION('',(0.,0.,-1.));
#375=DIRECTION('',(1.,0.,0.));
#376=DIRECTION('',(0.,0.,1.));
#377=DIRECTION('',(0.,1.,0.));
#378=DIRECTION('',(0.,0.,-1.));
#379=DIRECTION('',(0.,1.,0.));
#380=DIRECTION('',(0.,0.,-1.));
#381=DIRECTION('',(0.,1.,0.));
#382=DIRECTION('',(-0.999999999959538,8.99580789058634E-6,-3.73634828019614E-14));
#383=DIRECTION('',(8.98860835303534E-6,0.999199678727278,0.0400000243813592));
#384=DIRECTION('',(-3.736347823804E-14,0.,1.));
#385=DIRECTION('',(4.587500113665E-14,-1.,0.));
#386=DIRECTION('',(0.999999999959538,-8.99580789037734E-6,-3.48013890203713E-14));
#387=DIRECTION('',(-8.98860835292899E-6,-0.999199678727278,0.0400000243813592));
#388=DIRECTION('',(-3.736347823804E-14,0.,1.));
#389=DIRECTION('',(3.712419510872E-14,-1.,0.));
#390=DIRECTION('',(3.480141115886E-14,0.,1.));
#391=DIRECTION('',(-3.711280510643E-14,1.,0.));
#392=DIRECTION('',(0.,0.,1.));
#393=DIRECTION('',(-1.,0.,0.));
#394=DIRECTION('',(3.480141115886E-14,0.,1.));
#395=DIRECTION('',(-4.516920459069E-14,1.,0.));
#396=DIRECTION('',(1.07661251490102E-14,0.707106996632615,0.707106565740415));
#397=DIRECTION('',(0.,0.,1.));
#398=DIRECTION('',(0.,1.,0.));
#399=DIRECTION('',(0.,-0.707106996632615,0.707106565740415));
#400=DIRECTION('',(0.,0.,-1.));
#401=DIRECTION('',(0.,1.,4.14575834356537E-17));
#402=DIRECTION('',(0.,0.,1.));
#403=DIRECTION('',(0.,-1.,0.));
#404=DIRECTION('',(0.,0.,-1.));
#405=DIRECTION('',(0.,1.,4.14575834356537E-17));
#406=DIRECTION('',(0.,0.,-1.));
#407=DIRECTION('',(0.,1.,0.));
#408=DIRECTION('',(0.,-3.474723338928E-14,-1.));
#409=DIRECTION('',(0.,3.474723338928E-14,-1.));
#410=DIRECTION('',(0.,0.,-1.));
#411=DIRECTION('',(0.,1.,0.));
#412=DIRECTION('',(0.,0.,-1.));
#413=DIRECTION('',(0.,-1.,0.));
#414=DIRECTION('',(0.,0.,-1.));
#415=DIRECTION('',(0.,1.,0.));
#416=DIRECTION('',(0.,0.707106781186547,0.707106781186547));
#417=DIRECTION('',(0.,0.,-1.));
#418=DIRECTION('',(0.,-1.,0.));
#419=DIRECTION('',(0.,-0.707106781186547,0.707106781186547));
#420=DIRECTION('',(0.,0.,-1.));
#421=DIRECTION('',(0.,1.,-1.38259405308239E-17));
#422=DIRECTION('',(0.,0.,-1.));
#423=DIRECTION('',(0.,1.,0.));
#424=DIRECTION('',(0.,0.,-1.));
#425=DIRECTION('',(0.,1.,-1.38259405308239E-17));
#426=DIRECTION('',(0.,0.,-1.));
#427=DIRECTION('',(0.,1.,0.));
#428=CARTESIAN_POINT('',(0.,0.,0.));
#429=CARTESIAN_POINT('CRP',(-4.5,0.,0.));
#430=CARTESIAN_POINT('',(0.,0.,0.));
#431=CARTESIAN_POINT('',(-4.5,0.,0.));
#432=CARTESIAN_POINT('',(-4.5,0.,22.));
#433=CARTESIAN_POINT('',(0.,0.,22.));
#434=CARTESIAN_POINT('',(0.,0.,0.));
#435=CARTESIAN_POINT('',(0.,0.,0.));
#436=CARTESIAN_POINT('',(0.,0.,0.));
#437=CARTESIAN_POINT('',(0.,0.,75.));
#438=CARTESIAN_POINT('',(0.,0.,51.));
#439=CARTESIAN_POINT('',(0.,0.,0.));
#440=CARTESIAN_POINT('',(0.,0.,0.));
#441=CARTESIAN_POINT('',(0.,0.,0.));
#442=CARTESIAN_POINT('',(0.,0.,0.));
#443=CARTESIAN_POINT('',(0.,0.,0.));
#444=CARTESIAN_POINT('',(0.,-4.5,22.));
#445=CARTESIAN_POINT('',(0.,-4.5,22.));
#446=CARTESIAN_POINT('',(0.,-4.5,0.));
#447=CARTESIAN_POINT('',(0.,0.,0.));
#448=CARTESIAN_POINT('',(0.,4.5,0.));
#449=CARTESIAN_POINT('',(0.,4.5,22.));
#450=CARTESIAN_POINT('',(0.,4.5,22.));
#451=CARTESIAN_POINT('',(0.,0.,22.));
#452=CARTESIAN_POINT('',(0.,0.,78.75));
#453=CARTESIAN_POINT('',(0.,0.,22.));
#454=CARTESIAN_POINT('',(150.,150.,22.));
#455=CARTESIAN_POINT('',(0.,0.,0.));
#456=CARTESIAN_POINT('',(0.,0.,78.75));
#457=CARTESIAN_POINT('',(0.,-1.37726849832E-14,0.));
#458=CARTESIAN_POINT('',(-0.0001844140619372,-20.50000000064,21.99999999998));
#459=CARTESIAN_POINT('',(0.,4.479991950895,23.00000106661));
#460=CARTESIAN_POINT('',(0.,4.5,21.99999999998));
#461=CARTESIAN_POINT('',(-2.044223960797E-13,0.,23.00000106661));
#462=CARTESIAN_POINT('',(-4.030114690351E-5,-4.47999196901,23.00000060957));
#463=CARTESIAN_POINT('',(0.000184414061933,20.50000000064,21.99999999998));
#464=CARTESIAN_POINT('',(0.,-4.5,21.99999999998));
#465=CARTESIAN_POINT('',(-1.670588779883E-13,0.,21.99999999998));
#466=CARTESIAN_POINT('',(6.50521303489937E-16,4.50000000000025,21.99999999998));
#467=CARTESIAN_POINT('',(2.63604837038825,4.50000000000025,21.99999999998));
#468=CARTESIAN_POINT('',(4.50001185664705,2.63602812979392,21.99999999998));
#469=CARTESIAN_POINT('',(4.49999999995473,-2.02405676615795E-5,21.99999999998));
#470=CARTESIAN_POINT('',(4.49998814326242,-2.63606861092924,21.99999999998));
#471=CARTESIAN_POINT('',(2.63600788914627,-4.5000237132028,21.99999999998));
#472=CARTESIAN_POINT('',(-4.0481135322099E-5,-4.49999999981817,21.99999999998));
#473=CARTESIAN_POINT('',(1.04480998232791E-15,4.50000000000027,22.3334448841112));
#474=CARTESIAN_POINT('',(2.63604837038826,4.50000000000027,22.3334448841112));
#475=CARTESIAN_POINT('',(4.50001185664706,2.63602812979393,22.3334448841112));
#476=CARTESIAN_POINT('',(4.49999999995475,-2.02405676611597E-5,22.3334448841112));
#477=CARTESIAN_POINT('',(4.49998814326244,-2.63606861092925,22.3334448841112));
#478=CARTESIAN_POINT('',(2.63600788914627,-4.50002371320281,22.3334448841112));
#479=CARTESIAN_POINT('',(-4.04811353217049E-5,-4.49999999981819,22.3334448841112));
#480=CARTESIAN_POINT('',(1.4390197637997E-15,4.49332976048632,22.6668230457507));
#481=CARTESIAN_POINT('',(2.6321410206103,4.49332976048632,22.6668230457507));
#482=CARTESIAN_POINT('',(4.4933415995583,2.6321208100181,22.6668230457507));
#483=CARTESIAN_POINT('',(4.49332976044087,-2.02105655642508E-5,22.6668230457507));
#484=CARTESIAN_POINT('',(4.49331792132345,-2.63216123114923,22.6668230457507));
#485=CARTESIAN_POINT('',(2.63210059937266,-4.49335343853937,22.6668230457507));
#486=CARTESIAN_POINT('',(-4.04211311283331E-5,-4.49332976030451,22.6668230457507));
#487=CARTESIAN_POINT('',(1.83299288474778E-15,4.47999195089509,23.0000010666173));
#488=CARTESIAN_POINT('',(2.62432788477974,4.47999195089509,23.0000010666173));
#489=CARTESIAN_POINT('',(4.48000375482447,2.62430773417981,23.0000010666173));
#490=CARTESIAN_POINT('',(4.47999195084978,-2.01505733777227E-5,23.0000010666173));
#491=CARTESIAN_POINT('',(4.47998014687508,-2.62434803532657,23.0000010666173));
#492=CARTESIAN_POINT('',(2.62428758352679,-4.48001555866321,23.0000010666173));
#493=CARTESIAN_POINT('',(-4.03011467557232E-5,-4.47999195071382,23.0000010666173));
#494=CARTESIAN_POINT('',(1.670076229781E-13,0.,21.99999999998));
#495=CARTESIAN_POINT('',(-150.,150.,22.));
#496=CARTESIAN_POINT('',(2.018090712575E-13,0.,23.00000106661));
#497=CARTESIAN_POINT('',(1.64256629131554E-14,6.93889390390723E-15,7.69091197837764));
#498=CARTESIAN_POINT('',(9.88711854950272E-15,6.84676023973835E-15,7.69091197837764));
#499=CARTESIAN_POINT('',(5.22006398036886E-15,1.14271153194515E-14,7.69091197837764));
#500=CARTESIAN_POINT('',(5.18958741344708E-15,1.79662377518881E-14,7.69091197837764));
#501=CARTESIAN_POINT('',(5.1591108465253E-15,2.45053601843248E-14,7.69091197837764));
#502=CARTESIAN_POINT('',(9.78326872288737E-15,2.91290183617862E-14,7.69091197837764));
#503=CARTESIAN_POINT('',(1.63223878235819E-14,2.9097835121756E-14,7.69091197837764));
#504=CARTESIAN_POINT('',(0.116946335791228,-6.20344322549519,16.5798909009217));
#505=CARTESIAN_POINT('',(-3.54417366202999,-6.27246208374435,16.5798909009217));
#506=CARTESIAN_POINT('',(-6.16977566180756,-3.72005588958079,16.5798909009217));
#507=CARTESIAN_POINT('',(-6.20427015411172,-0.0584478587777718,16.5798909009217));
#508=CARTESIAN_POINT('',(-6.23876464641588,3.60316017202524,16.5798909009217));
#509=CARTESIAN_POINT('',(-3.6617146913121,6.20457839486833,16.5798909009217));
#510=CARTESIAN_POINT('',(5.58148987075237E-5,6.20454545428447,16.5798909009217));
#511=CARTESIAN_POINT('',(0.116946335791215,-6.2034432254952,27.4201090990406));
#512=CARTESIAN_POINT('',(-3.54417366203,-6.27246208374436,27.4201090990406));
#513=CARTESIAN_POINT('',(-6.16977566180756,-3.7200558895808,27.4201090990406));
#514=CARTESIAN_POINT('',(-6.20427015411173,-0.0584478587777854,27.4201090990406));
#515=CARTESIAN_POINT('',(-6.23876464641589,3.60316017202523,27.4201090990406));
#516=CARTESIAN_POINT('',(-3.66171469131211,6.20457839486831,27.4201090990406));
#517=CARTESIAN_POINT('',(5.58148986946881E-5,6.20454545428445,27.4201090990406));
#518=CARTESIAN_POINT('',(-1.75640751942652E-14,-2.08166817117217E-14,36.3090880215847));
#519=CARTESIAN_POINT('',(-1.92158607202929E-14,-2.08205284759475E-14,36.3090880215847));
#520=CARTESIAN_POINT('',(-2.03810627134249E-14,-1.96497532896752E-14,36.3090880215847));
#521=CARTESIAN_POINT('',(-2.03693343514709E-14,-1.79980049229087E-14,36.3090880215847));
#522=CARTESIAN_POINT('',(-2.03576059895169E-14,-1.63462565561422E-14,36.3090880215847));
#523=CARTESIAN_POINT('',(-1.91758959710306E-14,-1.51921457929141E-14,36.3090880215847));
#524=CARTESIAN_POINT('',(-1.75243316222789E-14,-1.52194482382665E-14,36.3090880215847));
#525=CARTESIAN_POINT('',(0.,-4.000000000002,23.47999199359));
#526=CARTESIAN_POINT('',(0.,-4.000000000004,23.47999199359));
#527=CARTESIAN_POINT('',(0.,0.,23.47999199359));
#528=CARTESIAN_POINT('',(0.,4.000000000002,23.47999199359));
#529=CARTESIAN_POINT('',(0.,4.000000000002,23.47999199359));
#530=CARTESIAN_POINT('',(0.,0.,23.2399959968));
#531=CARTESIAN_POINT('',(0.,0.,23.47999199359));
#532=CARTESIAN_POINT('',(0.,0.,23.2399959968));
#533=CARTESIAN_POINT('',(0.,0.,74.5));
#534=CARTESIAN_POINT('',(0.,4.,74.5));
#535=CARTESIAN_POINT('',(0.,-4.,74.5));
#536=CARTESIAN_POINT('',(0.,-4.,74.5));
#537=CARTESIAN_POINT('',(0.,4.,74.5));
#538=CARTESIAN_POINT('',(0.,0.,78.75));
#539=CARTESIAN_POINT('',(0.,0.,74.5));
#540=CARTESIAN_POINT('',(0.,0.,78.75));
#541=CARTESIAN_POINT('',(0.,-3.5,75.));
#542=CARTESIAN_POINT('',(0.,-3.5,75.));
#543=CARTESIAN_POINT('',(0.,0.,75.));
#544=CARTESIAN_POINT('',(0.,3.5,75.));
#545=CARTESIAN_POINT('',(0.,3.5,75.));
#546=CARTESIAN_POINT('',(0.,0.,74.75));
#547=CARTESIAN_POINT('',(0.,0.,75.));
#548=CARTESIAN_POINT('',(0.,0.,74.75));
#549=CARTESIAN_POINT('',(0.,0.,75.));
#550=MECHANICAL_DESIGN_GEOMETRIC_PRESENTATION_REPRESENTATION('',(#258,#259,
#260,#261,#262,#263,#264,#265,#266,#267,#268,#269,#270,#271,#272,#273,#274),
#551);
#551=(
GEOMETRIC_REPRESENTATION_CONTEXT(3)
GLOBAL_UNCERTAINTY_ASSIGNED_CONTEXT((#552))
GLOBAL_UNIT_ASSIGNED_CONTEXT((#558,#554,#553))
REPRESENTATION_CONTEXT('VQMHVD0900S08','TOP_LEVEL_ASSEMBLY_PART')
);
#552=UNCERTAINTY_MEASURE_WITH_UNIT(LENGTH_MEASURE(0.0254),#558,
'DISTANCE_ACCURACY_VALUE','Maximum Tolerance applied to model');
#553=(
NAMED_UNIT(*)
SI_UNIT($,.STERADIAN.)
SOLID_ANGLE_UNIT()
);
#554=(
CONVERSION_BASED_UNIT('DEGREE',#556)
NAMED_UNIT(#555)
PLANE_ANGLE_UNIT()
);
#555=DIMENSIONAL_EXPONENTS(0.,0.,0.,0.,0.,0.,0.);
#556=PLANE_ANGLE_MEASURE_WITH_UNIT(PLANE_ANGLE_MEASURE(0.0174532925),#557);
#557=(
NAMED_UNIT(*)
PLANE_ANGLE_UNIT()
SI_UNIT($,.RADIAN.)
);
#558=(
LENGTH_UNIT()
NAMED_UNIT(*)
SI_UNIT(.MILLI.,.METRE.)
);
ENDSEC;
END-ISO-10303-21;
