ISO-10303-21;
HEADER;
/* Generated by software containing ST-Developer
 * from STEP Tools, Inc. (www.steptools.com) 
 */
/* OPTION: using custom schema-name function */

FILE_DESCRIPTION(
/* description */ (''),
/* implementation_level */ '2;1');

FILE_NAME(
/* name */ 'VQSVRD1000S08.stp',
/* time_stamp */ '2023-03-17T09:17:49+09:00',
/* author */ (''),
/* organization */ (''),
/* preprocessor_version */ 'ST-DEVELOPER v16',
/* originating_system */ 'SIEMENS PLM Software NX 10.0',
/* authorisation */ '');

FILE_SCHEMA (('AUTOMOTIVE_DESIGN { 1 0 10303 214 3 1 1 1 }'));
ENDSEC;

DATA;
#10=CONSTRUCTIVE_GEOMETRY_REPRESENTATION_RELATIONSHIP(
'supplemental geometry','',#26,#11);
#11=CONSTRUCTIVE_GEOMETRY_REPRESENTATION('supplemental geometry',(#307,
#308,#309,#310,#311,#312,#313,#314,#315,#316),#513);
#12=GEOMETRICALLY_BOUNDED_WIREFRAME_SHAPE_REPRESENTATION(
'VQSVRD1000S08-None',(#27),#513);
#13=SHAPE_REPRESENTATION_RELATIONSHIP('None',
'relationship between VQSVRD1000S08-None and VQSVRD1000S08-None',#26,#15);
#14=SHAPE_REPRESENTATION_RELATIONSHIP('None',
'relationship between VQSVRD1000S08-None and VQSVRD1000S08-None',#26,#12);
#15=ADVANCED_BREP_SHAPE_REPRESENTATION('VQSVRD1000S08-None',(#42,#43),#513);
#16=SHAPE_DEFINITION_REPRESENTATION(#17,#26);
#17=PRODUCT_DEFINITION_SHAPE('','SHAPE FOR VQSVRD1000S08_ASM.',#18);
#18=PRODUCT_DEFINITION('part definition','',#20,#19);
#19=PRODUCT_DEFINITION_CONTEXT('part definition',#25,'design');
#20=PRODUCT_DEFINITION_FORMATION_WITH_SPECIFIED_SOURCE(' ',' ',#22,
 .NOT_KNOWN.);
#21=PRODUCT_RELATED_PRODUCT_CATEGORY('part','',(#22));
#22=PRODUCT('VQSVRD1000S08_ASM','VQSVRD1000S08_ASM','NOT SPECIFIED',(#23));
#23=PRODUCT_CONTEXT('',#25,'mechanical');
#24=APPLICATION_PROTOCOL_DEFINITION('international standard',
'automotive_design',2010,#25);
#25=APPLICATION_CONTEXT(
'core data for automotive mechanical design processes');
#26=SHAPE_REPRESENTATION('VQSVRD1000S08-None',(#305),#513);
#27=GEOMETRIC_CURVE_SET('None',(#444,#231,#232,#233,#234,#235));
#28=CONICAL_SURFACE('',#333,4.5,45.);
#29=CONICAL_SURFACE('',#337,4.5,45.);
#30=CONICAL_SURFACE('',#343,3.75,45.);
#31=CONICAL_SURFACE('',#345,3.75,45.);
#32=SURFACE_STYLE_USAGE(.BOTH.,#34);
#33=SURFACE_STYLE_USAGE(.BOTH.,#35);
#34=SURFACE_SIDE_STYLE('',(#36));
#35=SURFACE_SIDE_STYLE('',(#37));
#36=SURFACE_STYLE_FILL_AREA(#38);
#37=SURFACE_STYLE_FILL_AREA(#39);
#38=FILL_AREA_STYLE('',(#40));
#39=FILL_AREA_STYLE('',(#41));
#40=FILL_AREA_STYLE_COLOUR('',#303);
#41=FILL_AREA_STYLE_COLOUR('',#304);
#42=MANIFOLD_SOLID_BREP('CUT',#44);
#43=MANIFOLD_SOLID_BREP('NOCUT',#45);
#44=CLOSED_SHELL('',(#52,#53,#54,#55,#56,#57));
#45=CLOSED_SHELL('',(#58,#59,#60,#61,#62,#63,#64,#65));
#46=TOROIDAL_SURFACE('',#327,4.5,0.5);
#47=TOROIDAL_SURFACE('',#329,4.5,0.5);
#48=PLANE('',#321);
#49=PLANE('',#330);
#50=PLANE('',#335);
#51=PLANE('',#346);
#52=ADVANCED_FACE('',(#70),#66,.T.);
#53=ADVANCED_FACE('',(#71),#48,.F.);
#54=ADVANCED_FACE('',(#72),#67,.T.);
#55=ADVANCED_FACE('',(#73),#46,.T.);
#56=ADVANCED_FACE('',(#74),#47,.T.);
#57=ADVANCED_FACE('',(#75),#49,.T.);
#58=ADVANCED_FACE('',(#76),#28,.T.);
#59=ADVANCED_FACE('',(#77),#50,.F.);
#60=ADVANCED_FACE('',(#78),#29,.T.);
#61=ADVANCED_FACE('',(#79),#68,.T.);
#62=ADVANCED_FACE('',(#80),#69,.T.);
#63=ADVANCED_FACE('',(#81),#30,.T.);
#64=ADVANCED_FACE('',(#82),#31,.T.);
#65=ADVANCED_FACE('',(#83),#51,.F.);
#66=CYLINDRICAL_SURFACE('',#319,5.);
#67=CYLINDRICAL_SURFACE('',#323,5.);
#68=CYLINDRICAL_SURFACE('',#339,4.);
#69=CYLINDRICAL_SURFACE('',#341,4.);
#70=FACE_OUTER_BOUND('',#84,.T.);
#71=FACE_OUTER_BOUND('',#85,.T.);
#72=FACE_OUTER_BOUND('',#86,.T.);
#73=FACE_OUTER_BOUND('',#87,.T.);
#74=FACE_OUTER_BOUND('',#88,.T.);
#75=FACE_OUTER_BOUND('',#89,.T.);
#76=FACE_OUTER_BOUND('',#90,.T.);
#77=FACE_OUTER_BOUND('',#91,.T.);
#78=FACE_OUTER_BOUND('',#92,.T.);
#79=FACE_OUTER_BOUND('',#93,.T.);
#80=FACE_OUTER_BOUND('',#94,.T.);
#81=FACE_OUTER_BOUND('',#95,.T.);
#82=FACE_OUTER_BOUND('',#96,.T.);
#83=FACE_OUTER_BOUND('',#97,.T.);
#84=EDGE_LOOP('',(#98,#99,#100,#101));
#85=EDGE_LOOP('',(#102,#103));
#86=EDGE_LOOP('',(#104,#105,#106,#107));
#87=EDGE_LOOP('',(#108,#109,#110,#111));
#88=EDGE_LOOP('',(#112,#113,#114,#115));
#89=EDGE_LOOP('',(#116,#117));
#90=EDGE_LOOP('',(#118,#119,#120,#121));
#91=EDGE_LOOP('',(#122,#123));
#92=EDGE_LOOP('',(#124,#125,#126,#127));
#93=EDGE_LOOP('',(#128,#129,#130,#131));
#94=EDGE_LOOP('',(#132,#133,#134,#135));
#95=EDGE_LOOP('',(#136,#137,#138,#139));
#96=EDGE_LOOP('',(#140,#141,#142,#143));
#97=EDGE_LOOP('',(#144,#145));
#98=ORIENTED_EDGE('',*,*,#160,.T.);
#99=ORIENTED_EDGE('',*,*,#161,.T.);
#100=ORIENTED_EDGE('',*,*,#162,.F.);
#101=ORIENTED_EDGE('',*,*,#163,.T.);
#102=ORIENTED_EDGE('',*,*,#164,.F.);
#103=ORIENTED_EDGE('',*,*,#163,.F.);
#104=ORIENTED_EDGE('',*,*,#162,.T.);
#105=ORIENTED_EDGE('',*,*,#165,.T.);
#106=ORIENTED_EDGE('',*,*,#160,.F.);
#107=ORIENTED_EDGE('',*,*,#164,.T.);
#108=ORIENTED_EDGE('',*,*,#166,.T.);
#109=ORIENTED_EDGE('',*,*,#167,.T.);
#110=ORIENTED_EDGE('',*,*,#165,.F.);
#111=ORIENTED_EDGE('',*,*,#168,.F.);
#112=ORIENTED_EDGE('',*,*,#161,.F.);
#113=ORIENTED_EDGE('',*,*,#167,.F.);
#114=ORIENTED_EDGE('',*,*,#169,.T.);
#115=ORIENTED_EDGE('',*,*,#168,.T.);
#116=ORIENTED_EDGE('',*,*,#169,.F.);
#117=ORIENTED_EDGE('',*,*,#166,.F.);
#118=ORIENTED_EDGE('',*,*,#170,.F.);
#119=ORIENTED_EDGE('',*,*,#171,.F.);
#120=ORIENTED_EDGE('',*,*,#172,.T.);
#121=ORIENTED_EDGE('',*,*,#173,.T.);
#122=ORIENTED_EDGE('',*,*,#174,.F.);
#123=ORIENTED_EDGE('',*,*,#173,.F.);
#124=ORIENTED_EDGE('',*,*,#172,.F.);
#125=ORIENTED_EDGE('',*,*,#175,.F.);
#126=ORIENTED_EDGE('',*,*,#170,.T.);
#127=ORIENTED_EDGE('',*,*,#174,.T.);
#128=ORIENTED_EDGE('',*,*,#175,.T.);
#129=ORIENTED_EDGE('',*,*,#176,.T.);
#130=ORIENTED_EDGE('',*,*,#177,.T.);
#131=ORIENTED_EDGE('',*,*,#178,.F.);
#132=ORIENTED_EDGE('',*,*,#179,.T.);
#133=ORIENTED_EDGE('',*,*,#176,.F.);
#134=ORIENTED_EDGE('',*,*,#171,.T.);
#135=ORIENTED_EDGE('',*,*,#178,.T.);
#136=ORIENTED_EDGE('',*,*,#180,.T.);
#137=ORIENTED_EDGE('',*,*,#181,.T.);
#138=ORIENTED_EDGE('',*,*,#179,.F.);
#139=ORIENTED_EDGE('',*,*,#182,.F.);
#140=ORIENTED_EDGE('',*,*,#177,.F.);
#141=ORIENTED_EDGE('',*,*,#181,.F.);
#142=ORIENTED_EDGE('',*,*,#183,.T.);
#143=ORIENTED_EDGE('',*,*,#182,.T.);
#144=ORIENTED_EDGE('',*,*,#180,.F.);
#145=ORIENTED_EDGE('',*,*,#183,.F.);
#146=VERTEX_POINT('',#461);
#147=VERTEX_POINT('',#462);
#148=VERTEX_POINT('',#464);
#149=VERTEX_POINT('',#466);
#150=VERTEX_POINT('',#474);
#151=VERTEX_POINT('',#475);
#152=VERTEX_POINT('',#483);
#153=VERTEX_POINT('',#484);
#154=VERTEX_POINT('',#486);
#155=VERTEX_POINT('',#488);
#156=VERTEX_POINT('',#496);
#157=VERTEX_POINT('',#498);
#158=VERTEX_POINT('',#504);
#159=VERTEX_POINT('',#505);
#160=EDGE_CURVE('',#146,#147,#240,.T.);
#161=EDGE_CURVE('',#147,#148,#185,.T.);
#162=EDGE_CURVE('',#149,#148,#241,.T.);
#163=EDGE_CURVE('',#149,#146,#186,.T.);
#164=EDGE_CURVE('',#146,#149,#187,.T.);
#165=EDGE_CURVE('',#148,#147,#188,.T.);
#166=EDGE_CURVE('',#150,#151,#189,.T.);
#167=EDGE_CURVE('',#151,#147,#190,.T.);
#168=EDGE_CURVE('',#150,#148,#191,.T.);
#169=EDGE_CURVE('',#151,#150,#192,.T.);
#170=EDGE_CURVE('',#152,#153,#242,.T.);
#171=EDGE_CURVE('',#154,#152,#193,.T.);
#172=EDGE_CURVE('',#154,#155,#243,.T.);
#173=EDGE_CURVE('',#155,#153,#194,.T.);
#174=EDGE_CURVE('',#153,#155,#195,.T.);
#175=EDGE_CURVE('',#152,#154,#196,.T.);
#176=EDGE_CURVE('',#154,#156,#244,.T.);
#177=EDGE_CURVE('',#156,#157,#197,.T.);
#178=EDGE_CURVE('',#152,#157,#245,.T.);
#179=EDGE_CURVE('',#157,#156,#198,.T.);
#180=EDGE_CURVE('',#158,#159,#199,.T.);
#181=EDGE_CURVE('',#159,#156,#246,.T.);
#182=EDGE_CURVE('',#158,#157,#247,.T.);
#183=EDGE_CURVE('',#159,#158,#200,.T.);
#184=CIRCLE('',#306,0.5);
#185=CIRCLE('',#317,5.);
#186=CIRCLE('',#318,5.);
#187=CIRCLE('',#320,5.);
#188=CIRCLE('',#322,5.);
#189=CIRCLE('',#324,4.5);
#190=CIRCLE('',#325,0.5);
#191=CIRCLE('',#326,0.5);
#192=CIRCLE('',#328,4.5);
#193=CIRCLE('',#331,4.);
#194=CIRCLE('',#332,5.);
#195=CIRCLE('',#334,5.);
#196=CIRCLE('',#336,4.);
#197=CIRCLE('',#338,4.);
#198=CIRCLE('',#340,4.);
#199=CIRCLE('',#342,3.5);
#200=CIRCLE('',#344,3.5);
#201=CURVE_STYLE('',#216,POSITIVE_LENGTH_MEASURE(0.18),#300);
#202=CURVE_STYLE('',#217,POSITIVE_LENGTH_MEASURE(0.18),#300);
#203=CURVE_STYLE('',#218,POSITIVE_LENGTH_MEASURE(0.18),#300);
#204=CURVE_STYLE('',#219,POSITIVE_LENGTH_MEASURE(0.18),#300);
#205=CURVE_STYLE('',#220,POSITIVE_LENGTH_MEASURE(0.18),#300);
#206=CURVE_STYLE('',#221,POSITIVE_LENGTH_MEASURE(0.13),#301);
#207=CURVE_STYLE('',#222,POSITIVE_LENGTH_MEASURE(0.13),#301);
#208=CURVE_STYLE('',#223,POSITIVE_LENGTH_MEASURE(0.13),#302);
#209=CURVE_STYLE('',#224,POSITIVE_LENGTH_MEASURE(0.13),#302);
#210=CURVE_STYLE('',#225,POSITIVE_LENGTH_MEASURE(0.13),#301);
#211=CURVE_STYLE('',#226,POSITIVE_LENGTH_MEASURE(0.13),#301);
#212=CURVE_STYLE('',#227,POSITIVE_LENGTH_MEASURE(0.13),#302);
#213=CURVE_STYLE('',#228,POSITIVE_LENGTH_MEASURE(0.13),#301);
#214=CURVE_STYLE('',#229,POSITIVE_LENGTH_MEASURE(0.13),#301);
#215=CURVE_STYLE('',#230,POSITIVE_LENGTH_MEASURE(0.13),#301);
#216=DRAUGHTING_PRE_DEFINED_CURVE_FONT('continuous');
#217=DRAUGHTING_PRE_DEFINED_CURVE_FONT('continuous');
#218=DRAUGHTING_PRE_DEFINED_CURVE_FONT('continuous');
#219=DRAUGHTING_PRE_DEFINED_CURVE_FONT('continuous');
#220=DRAUGHTING_PRE_DEFINED_CURVE_FONT('continuous');
#221=DRAUGHTING_PRE_DEFINED_CURVE_FONT('continuous');
#222=DRAUGHTING_PRE_DEFINED_CURVE_FONT('continuous');
#223=DRAUGHTING_PRE_DEFINED_CURVE_FONT('continuous');
#224=DRAUGHTING_PRE_DEFINED_CURVE_FONT('continuous');
#225=DRAUGHTING_PRE_DEFINED_CURVE_FONT('continuous');
#226=DRAUGHTING_PRE_DEFINED_CURVE_FONT('continuous');
#227=DRAUGHTING_PRE_DEFINED_CURVE_FONT('continuous');
#228=DRAUGHTING_PRE_DEFINED_CURVE_FONT('continuous');
#229=DRAUGHTING_PRE_DEFINED_CURVE_FONT('continuous');
#230=DRAUGHTING_PRE_DEFINED_CURVE_FONT('continuous');
#231=TRIMMED_CURVE('',#236,(PARAMETER_VALUE(0.)),(PARAMETER_VALUE(1.)),
 .T.,.PARAMETER.);
#232=TRIMMED_CURVE('',#237,(PARAMETER_VALUE(0.)),(PARAMETER_VALUE(1.)),
 .T.,.PARAMETER.);
#233=TRIMMED_CURVE('',#238,(PARAMETER_VALUE(0.)),(PARAMETER_VALUE(1.)),
 .T.,.PARAMETER.);
#234=TRIMMED_CURVE('',#239,(PARAMETER_VALUE(0.)),(PARAMETER_VALUE(1.)),
 .T.,.PARAMETER.);
#235=TRIMMED_CURVE('',#184,(PARAMETER_VALUE(0.)),(PARAMETER_VALUE(90.)),
 .T.,.PARAMETER.);
#236=LINE('',#445,#248);
#237=LINE('',#446,#249);
#238=LINE('',#447,#250);
#239=LINE('',#448,#251);
#240=LINE('',#460,#252);
#241=LINE('',#465,#253);
#242=LINE('',#482,#254);
#243=LINE('',#487,#255);
#244=LINE('',#495,#256);
#245=LINE('',#499,#257);
#246=LINE('',#506,#258);
#247=LINE('',#507,#259);
#248=VECTOR('',#349,4.5);
#249=VECTOR('',#350,21.5);
#250=VECTOR('',#351,5.);
#251=VECTOR('',#352,22.);
#252=VECTOR('',#375,1.);
#253=VECTOR('',#378,1.);
#254=VECTOR('',#405,1.);
#255=VECTOR('',#408,1.);
#256=VECTOR('',#421,1.);
#257=VECTOR('',#424,1.);
#258=VECTOR('',#433,1.);
#259=VECTOR('',#434,1.);
#260=PRESENTATION_LAYER_ASSIGNMENT('1','Layer 1',(#444,#231,#232,#233,#234,
#235,#307,#308,#311,#312,#313,#314,#315,#316,#42,#43));
#261=PRESENTATION_LAYER_ASSIGNMENT('2','Layer 2',(#309,#310));
#262=STYLED_ITEM('',(#280),#444);
#263=STYLED_ITEM('',(#281),#231);
#264=STYLED_ITEM('',(#282),#232);
#265=STYLED_ITEM('',(#283),#233);
#266=STYLED_ITEM('',(#284),#234);
#267=STYLED_ITEM('',(#285),#235);
#268=STYLED_ITEM('',(#286),#307);
#269=STYLED_ITEM('',(#287),#308);
#270=STYLED_ITEM('',(#288),#309);
#271=STYLED_ITEM('',(#289),#310);
#272=STYLED_ITEM('',(#290),#311);
#273=STYLED_ITEM('',(#291),#312);
#274=STYLED_ITEM('',(#292),#313);
#275=STYLED_ITEM('',(#293),#314);
#276=STYLED_ITEM('',(#294),#315);
#277=STYLED_ITEM('',(#295),#316);
#278=STYLED_ITEM('',(#296),#42);
#279=STYLED_ITEM('',(#297),#43);
#280=PRESENTATION_STYLE_ASSIGNMENT((#298));
#281=PRESENTATION_STYLE_ASSIGNMENT((#201));
#282=PRESENTATION_STYLE_ASSIGNMENT((#202));
#283=PRESENTATION_STYLE_ASSIGNMENT((#203));
#284=PRESENTATION_STYLE_ASSIGNMENT((#204));
#285=PRESENTATION_STYLE_ASSIGNMENT((#205));
#286=PRESENTATION_STYLE_ASSIGNMENT((#206));
#287=PRESENTATION_STYLE_ASSIGNMENT((#207));
#288=PRESENTATION_STYLE_ASSIGNMENT((#208));
#289=PRESENTATION_STYLE_ASSIGNMENT((#209));
#290=PRESENTATION_STYLE_ASSIGNMENT((#210));
#291=PRESENTATION_STYLE_ASSIGNMENT((#211));
#292=PRESENTATION_STYLE_ASSIGNMENT((#212));
#293=PRESENTATION_STYLE_ASSIGNMENT((#213));
#294=PRESENTATION_STYLE_ASSIGNMENT((#214));
#295=PRESENTATION_STYLE_ASSIGNMENT((#215));
#296=PRESENTATION_STYLE_ASSIGNMENT((#32));
#297=PRESENTATION_STYLE_ASSIGNMENT((#33));
#298=POINT_STYLE('',#299,POSITIVE_LENGTH_MEASURE(3.),#300);
#299=PRE_DEFINED_POINT_MARKER_SYMBOL('plus');
#300=COLOUR_RGB('Medium Royal',0.2,0.4,0.8);
#301=COLOUR_RGB('Strong Stone',0.576470588235294,0.54508278019379,0.392156862745098);
#302=COLOUR_RGB('Medium Umber',0.372533760585946,0.313725490196078,0.270572976272221);
#303=COLOUR_RGB('cutting part',0.8,0.8,0.8);
#304=COLOUR_RGB('non-cutting part and shank',0.501960784313725,0.501960784313725,
0.501960784313725);
#305=AXIS2_PLACEMENT_3D('',#443,#347,#348);
#306=AXIS2_PLACEMENT_3D('',#449,#353,#354);
#307=AXIS2_PLACEMENT_3D('',#450,#355,#356);
#308=AXIS2_PLACEMENT_3D('',#451,#357,#358);
#309=AXIS2_PLACEMENT_3D('CIP',#452,#359,#360);
#310=AXIS2_PLACEMENT_3D('PCS',#453,#361,#362);
#311=AXIS2_PLACEMENT_3D('MCS',#454,#363,#364);
#312=AXIS2_PLACEMENT_3D('',#455,#365,#366);
#313=AXIS2_PLACEMENT_3D('STEP_TEMP_EM25_1',#456,#367,#368);
#314=AXIS2_PLACEMENT_3D('',#457,#369,#370);
#315=AXIS2_PLACEMENT_3D('',#458,#371,#372);
#316=AXIS2_PLACEMENT_3D('',#459,#373,#374);
#317=AXIS2_PLACEMENT_3D('',#463,#376,#377);
#318=AXIS2_PLACEMENT_3D('',#467,#379,#380);
#319=AXIS2_PLACEMENT_3D('',#468,#381,#382);
#320=AXIS2_PLACEMENT_3D('',#469,#383,#384);
#321=AXIS2_PLACEMENT_3D('',#470,#385,#386);
#322=AXIS2_PLACEMENT_3D('',#471,#387,#388);
#323=AXIS2_PLACEMENT_3D('',#472,#389,#390);
#324=AXIS2_PLACEMENT_3D('',#473,#391,#392);
#325=AXIS2_PLACEMENT_3D('',#476,#393,#394);
#326=AXIS2_PLACEMENT_3D('',#477,#395,#396);
#327=AXIS2_PLACEMENT_3D('',#478,#397,#398);
#328=AXIS2_PLACEMENT_3D('',#479,#399,#400);
#329=AXIS2_PLACEMENT_3D('',#480,#401,#402);
#330=AXIS2_PLACEMENT_3D('',#481,#403,#404);
#331=AXIS2_PLACEMENT_3D('',#485,#406,#407);
#332=AXIS2_PLACEMENT_3D('',#489,#409,#410);
#333=AXIS2_PLACEMENT_3D('',#490,#411,#412);
#334=AXIS2_PLACEMENT_3D('',#491,#413,#414);
#335=AXIS2_PLACEMENT_3D('',#492,#415,#416);
#336=AXIS2_PLACEMENT_3D('',#493,#417,#418);
#337=AXIS2_PLACEMENT_3D('',#494,#419,#420);
#338=AXIS2_PLACEMENT_3D('',#497,#422,#423);
#339=AXIS2_PLACEMENT_3D('',#500,#425,#426);
#340=AXIS2_PLACEMENT_3D('',#501,#427,#428);
#341=AXIS2_PLACEMENT_3D('',#502,#429,#430);
#342=AXIS2_PLACEMENT_3D('',#503,#431,#432);
#343=AXIS2_PLACEMENT_3D('',#508,#435,#436);
#344=AXIS2_PLACEMENT_3D('',#509,#437,#438);
#345=AXIS2_PLACEMENT_3D('',#510,#439,#440);
#346=AXIS2_PLACEMENT_3D('',#511,#441,#442);
#347=DIRECTION('',(0.,0.,1.));
#348=DIRECTION('',(1.,0.,0.));
#349=DIRECTION('',(-1.,0.,0.));
#350=DIRECTION('',(0.,0.,1.));
#351=DIRECTION('',(1.,0.,0.));
#352=DIRECTION('',(0.,0.,-1.));
#353=DIRECTION('',(0.,1.,0.));
#354=DIRECTION('',(0.,0.,-1.));
#355=DIRECTION('',(0.,0.,1.));
#356=DIRECTION('',(1.,0.,0.));
#357=DIRECTION('',(0.,0.,1.));
#358=DIRECTION('',(1.,0.,0.));
#359=DIRECTION('',(0.,0.,1.));
#360=DIRECTION('',(1.,0.,0.));
#361=DIRECTION('',(0.,0.,1.));
#362=DIRECTION('',(1.,0.,0.));
#363=DIRECTION('',(0.,0.,1.));
#364=DIRECTION('',(1.,0.,0.));
#365=DIRECTION('',(0.,0.,1.));
#366=DIRECTION('',(1.,0.,0.));
#367=DIRECTION('',(0.,0.,1.));
#368=DIRECTION('',(1.,0.,0.));
#369=DIRECTION('',(0.,0.,1.));
#370=DIRECTION('',(1.,0.,0.));
#371=DIRECTION('',(0.,0.,1.));
#372=DIRECTION('',(1.,0.,0.));
#373=DIRECTION('',(0.,0.,1.));
#374=DIRECTION('',(1.,0.,0.));
#375=DIRECTION('',(0.,0.,-1.));
#376=DIRECTION('',(0.,0.,1.));
#377=DIRECTION('',(0.,-1.,0.));
#378=DIRECTION('',(0.,0.,-1.));
#379=DIRECTION('',(0.,0.,-1.));
#380=DIRECTION('',(0.,1.,0.));
#381=DIRECTION('',(0.,0.,-1.));
#382=DIRECTION('',(0.,1.,0.));
#383=DIRECTION('',(0.,0.,-1.));
#384=DIRECTION('',(0.,-1.,0.));
#385=DIRECTION('',(0.,0.,-1.));
#386=DIRECTION('',(1.,0.,0.));
#387=DIRECTION('',(0.,0.,1.));
#388=DIRECTION('',(0.,1.,0.));
#389=DIRECTION('',(0.,0.,-1.));
#390=DIRECTION('',(0.,1.,0.));
#391=DIRECTION('',(0.,0.,1.));
#392=DIRECTION('',(0.,1.,0.));
#393=DIRECTION('',(-1.,0.,0.));
#394=DIRECTION('',(0.,-1.,0.));
#395=DIRECTION('',(1.,0.,0.));
#396=DIRECTION('',(0.,1.,0.));
#397=DIRECTION('',(0.,0.,-1.));
#398=DIRECTION('',(0.,1.,0.));
#399=DIRECTION('',(0.,0.,1.));
#400=DIRECTION('',(0.,-1.,0.));
#401=DIRECTION('',(0.,0.,-1.));
#402=DIRECTION('',(0.,1.,0.));
#403=DIRECTION('',(0.,0.,-1.));
#404=DIRECTION('',(0.,1.,0.));
#405=DIRECTION('',(0.,0.707106781186547,-0.707106781186547));
#406=DIRECTION('',(0.,0.,1.));
#407=DIRECTION('',(0.,-1.,0.));
#408=DIRECTION('',(0.,-0.707106781186547,-0.707106781186547));
#409=DIRECTION('',(0.,0.,1.));
#410=DIRECTION('',(0.,-1.,0.));
#411=DIRECTION('',(0.,0.,-1.));
#412=DIRECTION('',(0.,1.,-3.45390438223356E-17));
#413=DIRECTION('',(0.,0.,1.));
#414=DIRECTION('',(0.,1.,0.));
#415=DIRECTION('',(0.,0.,1.));
#416=DIRECTION('',(-1.,0.,0.));
#417=DIRECTION('',(0.,0.,1.));
#418=DIRECTION('',(0.,1.,0.));
#419=DIRECTION('',(0.,0.,-1.));
#420=DIRECTION('',(0.,1.,-3.45390438223356E-17));
#421=DIRECTION('',(0.,0.,1.));
#422=DIRECTION('',(0.,0.,-1.));
#423=DIRECTION('',(0.,-1.,0.));
#424=DIRECTION('',(0.,0.,1.));
#425=DIRECTION('',(0.,0.,-1.));
#426=DIRECTION('',(0.,1.,0.));
#427=DIRECTION('',(0.,0.,-1.));
#428=DIRECTION('',(0.,1.,0.));
#429=DIRECTION('',(0.,0.,-1.));
#430=DIRECTION('',(0.,1.,0.));
#431=DIRECTION('',(0.,0.,-1.));
#432=DIRECTION('',(0.,1.,0.));
#433=DIRECTION('',(0.,-0.707106781186547,-0.707106781186547));
#434=DIRECTION('',(0.,0.707106781186547,-0.707106781186547));
#435=DIRECTION('',(0.,0.,-1.));
#436=DIRECTION('',(0.,1.,0.));
#437=DIRECTION('',(0.,0.,-1.));
#438=DIRECTION('',(0.,-1.,0.));
#439=DIRECTION('',(0.,0.,-1.));
#440=DIRECTION('',(0.,1.,0.));
#441=DIRECTION('',(0.,0.,-1.));
#442=DIRECTION('',(0.,1.,0.));
#443=CARTESIAN_POINT('',(0.,0.,0.));
#444=CARTESIAN_POINT('CRP',(-5.,0.,0.));
#445=CARTESIAN_POINT('',(0.,0.,0.));
#446=CARTESIAN_POINT('',(-5.,0.,0.5));
#447=CARTESIAN_POINT('',(-5.,0.,22.));
#448=CARTESIAN_POINT('',(0.,0.,22.));
#449=CARTESIAN_POINT('',(-4.5,0.,0.5));
#450=CARTESIAN_POINT('',(0.,0.,0.));
#451=CARTESIAN_POINT('',(0.,0.,0.));
#452=CARTESIAN_POINT('',(0.,0.,0.));
#453=CARTESIAN_POINT('',(0.,0.,90.));
#454=CARTESIAN_POINT('',(0.,0.,66.));
#455=CARTESIAN_POINT('',(0.,0.,0.));
#456=CARTESIAN_POINT('',(0.,0.,0.));
#457=CARTESIAN_POINT('',(0.,0.,0.));
#458=CARTESIAN_POINT('',(0.,0.,0.));
#459=CARTESIAN_POINT('',(0.,0.,0.));
#460=CARTESIAN_POINT('',(0.,-5.,22.));
#461=CARTESIAN_POINT('',(0.,-5.,22.));
#462=CARTESIAN_POINT('',(0.,-5.,0.5));
#463=CARTESIAN_POINT('',(0.,-1.643574079049E-14,0.5));
#464=CARTESIAN_POINT('',(0.,5.,0.5));
#465=CARTESIAN_POINT('',(0.,5.,22.));
#466=CARTESIAN_POINT('',(0.,5.,22.));
#467=CARTESIAN_POINT('',(0.,0.,22.));
#468=CARTESIAN_POINT('',(0.,0.,94.5));
#469=CARTESIAN_POINT('',(0.,0.,22.));
#470=CARTESIAN_POINT('',(150.,150.,22.));
#471=CARTESIAN_POINT('',(0.,-1.643574079049E-14,0.5));
#472=CARTESIAN_POINT('',(0.,0.,94.5));
#473=CARTESIAN_POINT('',(0.,-1.643574079049E-14,0.));
#474=CARTESIAN_POINT('',(0.,4.5,0.));
#475=CARTESIAN_POINT('',(0.,-4.5,0.));
#476=CARTESIAN_POINT('',(0.,-4.5,0.5));
#477=CARTESIAN_POINT('',(0.,4.5,0.5));
#478=CARTESIAN_POINT('',(0.,-1.643574079049E-14,0.5));
#479=CARTESIAN_POINT('',(0.,-1.643574079049E-14,0.));
#480=CARTESIAN_POINT('',(0.,-1.643574079049E-14,0.5));
#481=CARTESIAN_POINT('',(0.,-1.652758930043E-14,0.));
#482=CARTESIAN_POINT('',(0.,4.,23.));
#483=CARTESIAN_POINT('',(0.,4.,23.));
#484=CARTESIAN_POINT('',(0.,5.,22.));
#485=CARTESIAN_POINT('',(0.,-1.239440635331E-14,23.));
#486=CARTESIAN_POINT('',(0.,-4.,23.));
#487=CARTESIAN_POINT('',(0.,-4.,23.));
#488=CARTESIAN_POINT('',(0.,-5.,22.));
#489=CARTESIAN_POINT('',(0.,-1.239440635331E-14,22.));
#490=CARTESIAN_POINT('',(0.,-1.239440635331E-14,22.5));
#491=CARTESIAN_POINT('',(0.,-1.239440635331E-14,22.));
#492=CARTESIAN_POINT('',(-150.,150.,22.));
#493=CARTESIAN_POINT('',(0.,-1.239440635331E-14,23.));
#494=CARTESIAN_POINT('',(0.,-1.239440635331E-14,22.5));
#495=CARTESIAN_POINT('',(0.,-4.,89.5));
#496=CARTESIAN_POINT('',(0.,-4.,89.5));
#497=CARTESIAN_POINT('',(0.,0.,89.5));
#498=CARTESIAN_POINT('',(0.,4.,89.5));
#499=CARTESIAN_POINT('',(0.,4.,89.5));
#500=CARTESIAN_POINT('',(0.,0.,94.5));
#501=CARTESIAN_POINT('',(0.,0.,89.5));
#502=CARTESIAN_POINT('',(0.,0.,94.5));
#503=CARTESIAN_POINT('',(0.,0.,90.));
#504=CARTESIAN_POINT('',(0.,3.5,90.));
#505=CARTESIAN_POINT('',(0.,-3.5,90.));
#506=CARTESIAN_POINT('',(0.,-3.5,90.));
#507=CARTESIAN_POINT('',(0.,3.5,90.));
#508=CARTESIAN_POINT('',(0.,0.,89.75));
#509=CARTESIAN_POINT('',(0.,0.,90.));
#510=CARTESIAN_POINT('',(0.,0.,89.75));
#511=CARTESIAN_POINT('',(0.,0.,90.));
#512=MECHANICAL_DESIGN_GEOMETRIC_PRESENTATION_REPRESENTATION('',(#262,#263,
#264,#265,#266,#267,#268,#269,#270,#271,#272,#273,#274,#275,#276,#277,#278,
#279),#513);
#513=(
GEOMETRIC_REPRESENTATION_CONTEXT(3)
GLOBAL_UNCERTAINTY_ASSIGNED_CONTEXT((#514))
GLOBAL_UNIT_ASSIGNED_CONTEXT((#520,#516,#515))
REPRESENTATION_CONTEXT('VQSVRD1000S08','TOP_LEVEL_ASSEMBLY_PART')
);
#514=UNCERTAINTY_MEASURE_WITH_UNIT(LENGTH_MEASURE(2.E-5),#520,
'DISTANCE_ACCURACY_VALUE','Maximum Tolerance applied to model');
#515=(
NAMED_UNIT(*)
SI_UNIT($,.STERADIAN.)
SOLID_ANGLE_UNIT()
);
#516=(
CONVERSION_BASED_UNIT('DEGREE',#518)
NAMED_UNIT(#517)
PLANE_ANGLE_UNIT()
);
#517=DIMENSIONAL_EXPONENTS(0.,0.,0.,0.,0.,0.,0.);
#518=PLANE_ANGLE_MEASURE_WITH_UNIT(PLANE_ANGLE_MEASURE(0.0174532925),#519);
#519=(
NAMED_UNIT(*)
PLANE_ANGLE_UNIT()
SI_UNIT($,.RADIAN.)
);
#520=(
LENGTH_UNIT()
NAMED_UNIT(*)
SI_UNIT(.MILLI.,.METRE.)
);
ENDSEC;
END-ISO-10303-21;
