ISO-10303-21;
HEADER;
/* Generated by software containing ST-Developer
 * from STEP Tools, Inc. (www.steptools.com) 
 */
/* OPTION: using custom schema-name function */

FILE_DESCRIPTION(
/* description */ (''),
/* implementation_level */ '2;1');

FILE_NAME(
/* name */ 'IMX20S4HV20040.stp',
/* time_stamp */ '2023-10-12T14:40:07+09:00',
/* author */ (''),
/* organization */ (''),
/* preprocessor_version */ 'ST-DEVELOPER v16',
/* originating_system */ 'SIEMENS PLM Software NX 10.0',
/* authorisation */ '');

FILE_SCHEMA (('AUTOMOTIVE_DESIGN { 1 0 10303 214 3 1 1 1 }'));
ENDSEC;

DATA;
#10=CONSTRUCTIVE_GEOMETRY_REPRESENTATION_RELATIONSHIP(
'supplemental geometry','',#26,#11);
#11=CONSTRUCTIVE_GEOMETRY_REPRESENTATION('supplemental geometry',(#376,
#377,#378,#379,#380,#381,#382,#383,#384,#385),#643);
#12=GEOMETRICALLY_BOUNDED_WIREFRAME_SHAPE_REPRESENTATION(
'IMX20S4HV20040-None',(#27),#643);
#13=SHAPE_REPRESENTATION_RELATIONSHIP('None',
'relationship between IMX20S4HV20040-None and IMX20S4HV20040-None',#26,
#15);
#14=SHAPE_REPRESENTATION_RELATIONSHIP('None',
'relationship between IMX20S4HV20040-None and IMX20S4HV20040-None',#26,
#12);
#15=ADVANCED_BREP_SHAPE_REPRESENTATION('IMX20S4HV20040-None',(#50,#51),
#643);
#16=SHAPE_DEFINITION_REPRESENTATION(#17,#26);
#17=PRODUCT_DEFINITION_SHAPE('','SHAPE FOR IMX20S4HV20040_ASM.',#18);
#18=PRODUCT_DEFINITION('part definition','',#20,#19);
#19=PRODUCT_DEFINITION_CONTEXT('part definition',#25,'design');
#20=PRODUCT_DEFINITION_FORMATION_WITH_SPECIFIED_SOURCE(' ',' ',#22,
 .NOT_KNOWN.);
#21=PRODUCT_RELATED_PRODUCT_CATEGORY('part','',(#22));
#22=PRODUCT('IMX20S4HV20040_ASM','IMX20S4HV20040_ASM','NOT SPECIFIED',(#23));
#23=PRODUCT_CONTEXT('',#25,'mechanical');
#24=APPLICATION_PROTOCOL_DEFINITION('international standard',
'automotive_design',2010,#25);
#25=APPLICATION_CONTEXT(
'core data for automotive mechanical design processes');
#26=SHAPE_REPRESENTATION('IMX20S4HV20040-None',(#375),#643);
#27=GEOMETRIC_CURVE_SET('None',(#552,#304,#305,#306,#307));
#28=CONICAL_SURFACE('',#414,6.825,1.909152432996);
#29=CONICAL_SURFACE('',#416,6.825,1.909152432996);
#30=CONICAL_SURFACE('',#425,4.625,45.);
#31=CONICAL_SURFACE('',#427,4.625,45.);
#32=FACE_BOUND('',#109,.T.);
#33=FACE_BOUND('',#110,.T.);
#34=FACE_BOUND('',#113,.T.);
#35=FACE_BOUND('',#114,.T.);
#36=FACE_BOUND('',#117,.T.);
#37=FACE_BOUND('',#118,.T.);
#38=SPHERICAL_SURFACE('',#398,10.);
#39=SPHERICAL_SURFACE('',#402,10.);
#40=SURFACE_STYLE_USAGE(.BOTH.,#42);
#41=SURFACE_STYLE_USAGE(.BOTH.,#43);
#42=SURFACE_SIDE_STYLE('',(#44));
#43=SURFACE_SIDE_STYLE('',(#45));
#44=SURFACE_STYLE_FILL_AREA(#46);
#45=SURFACE_STYLE_FILL_AREA(#47);
#46=FILL_AREA_STYLE('',(#48));
#47=FILL_AREA_STYLE('',(#49));
#48=FILL_AREA_STYLE_COLOUR('',#274);
#49=FILL_AREA_STYLE_COLOUR('',#275);
#50=MANIFOLD_SOLID_BREP('CUT',#52);
#51=MANIFOLD_SOLID_BREP('NOCUT',#53);
#52=CLOSED_SHELL('',(#61,#62,#63,#64));
#53=CLOSED_SHELL('',(#65,#66,#67,#68,#69,#70,#71,#72,#73,#74,#75,#76,#77,
#78,#79));
#54=PLANE('',#390);
#55=PLANE('',#393);
#56=PLANE('',#400);
#57=PLANE('',#405);
#58=PLANE('',#412);
#59=PLANE('',#419);
#60=PLANE('',#428);
#61=ADVANCED_FACE('',(#86),#80,.T.);
#62=ADVANCED_FACE('',(#87),#54,.F.);
#63=ADVANCED_FACE('',(#88),#81,.T.);
#64=ADVANCED_FACE('',(#89),#55,.T.);
#65=ADVANCED_FACE('',(#90),#38,.T.);
#66=ADVANCED_FACE('',(#91),#56,.F.);
#67=ADVANCED_FACE('',(#92),#39,.T.);
#68=ADVANCED_FACE('',(#32,#33),#57,.F.);
#69=ADVANCED_FACE('',(#93),#82,.T.);
#70=ADVANCED_FACE('',(#94),#83,.T.);
#71=ADVANCED_FACE('',(#34,#35),#58,.F.);
#72=ADVANCED_FACE('',(#95),#28,.T.);
#73=ADVANCED_FACE('',(#96),#29,.T.);
#74=ADVANCED_FACE('',(#36,#37),#59,.F.);
#75=ADVANCED_FACE('',(#97),#84,.T.);
#76=ADVANCED_FACE('',(#98),#85,.T.);
#77=ADVANCED_FACE('',(#99),#30,.T.);
#78=ADVANCED_FACE('',(#100),#31,.T.);
#79=ADVANCED_FACE('',(#101),#60,.F.);
#80=CYLINDRICAL_SURFACE('',#388,10.);
#81=CYLINDRICAL_SURFACE('',#392,10.);
#82=CYLINDRICAL_SURFACE('',#407,9.75);
#83=CYLINDRICAL_SURFACE('',#409,9.75);
#84=CYLINDRICAL_SURFACE('',#421,5.);
#85=CYLINDRICAL_SURFACE('',#423,5.);
#86=FACE_OUTER_BOUND('',#102,.T.);
#87=FACE_OUTER_BOUND('',#103,.T.);
#88=FACE_OUTER_BOUND('',#104,.T.);
#89=FACE_OUTER_BOUND('',#105,.T.);
#90=FACE_OUTER_BOUND('',#106,.T.);
#91=FACE_OUTER_BOUND('',#107,.T.);
#92=FACE_OUTER_BOUND('',#108,.T.);
#93=FACE_OUTER_BOUND('',#111,.T.);
#94=FACE_OUTER_BOUND('',#112,.T.);
#95=FACE_OUTER_BOUND('',#115,.T.);
#96=FACE_OUTER_BOUND('',#116,.T.);
#97=FACE_OUTER_BOUND('',#119,.T.);
#98=FACE_OUTER_BOUND('',#120,.T.);
#99=FACE_OUTER_BOUND('',#121,.T.);
#100=FACE_OUTER_BOUND('',#122,.T.);
#101=FACE_OUTER_BOUND('',#123,.T.);
#102=EDGE_LOOP('',(#148,#149,#150,#151));
#103=EDGE_LOOP('',(#152,#153));
#104=EDGE_LOOP('',(#154,#155,#156,#157));
#105=EDGE_LOOP('',(#158,#159));
#106=EDGE_LOOP('',(#160,#161,#162,#163));
#107=EDGE_LOOP('',(#164,#165));
#108=EDGE_LOOP('',(#166,#167,#168,#169));
#109=EDGE_LOOP('',(#170,#171));
#110=EDGE_LOOP('',(#172,#173));
#111=EDGE_LOOP('',(#174,#175,#176,#177));
#112=EDGE_LOOP('',(#178,#179,#180,#181));
#113=EDGE_LOOP('',(#182,#183));
#114=EDGE_LOOP('',(#184,#185));
#115=EDGE_LOOP('',(#186,#187,#188,#189));
#116=EDGE_LOOP('',(#190,#191,#192,#193));
#117=EDGE_LOOP('',(#194,#195));
#118=EDGE_LOOP('',(#196,#197));
#119=EDGE_LOOP('',(#198,#199,#200,#201));
#120=EDGE_LOOP('',(#202,#203,#204,#205));
#121=EDGE_LOOP('',(#206,#207,#208,#209));
#122=EDGE_LOOP('',(#210,#211,#212,#213));
#123=EDGE_LOOP('',(#214,#215));
#124=CIRCLE('',#386,10.);
#125=CIRCLE('',#387,10.);
#126=CIRCLE('',#389,10.);
#127=CIRCLE('',#391,10.);
#128=CIRCLE('',#394,10.);
#129=CIRCLE('',#395,9.949874371066);
#130=CIRCLE('',#396,10.);
#131=CIRCLE('',#397,10.);
#132=CIRCLE('',#399,10.);
#133=CIRCLE('',#401,9.949874371066);
#134=CIRCLE('',#403,9.75);
#135=CIRCLE('',#404,9.75);
#136=CIRCLE('',#406,9.75);
#137=CIRCLE('',#408,9.75);
#138=CIRCLE('',#410,7.);
#139=CIRCLE('',#411,7.);
#140=CIRCLE('',#413,6.65);
#141=CIRCLE('',#415,6.65);
#142=CIRCLE('',#417,5.);
#143=CIRCLE('',#418,5.);
#144=CIRCLE('',#420,5.);
#145=CIRCLE('',#422,5.);
#146=CIRCLE('',#424,4.25);
#147=CIRCLE('',#426,4.25);
#148=ORIENTED_EDGE('',*,*,#238,.T.);
#149=ORIENTED_EDGE('',*,*,#239,.T.);
#150=ORIENTED_EDGE('',*,*,#240,.F.);
#151=ORIENTED_EDGE('',*,*,#241,.T.);
#152=ORIENTED_EDGE('',*,*,#242,.F.);
#153=ORIENTED_EDGE('',*,*,#241,.F.);
#154=ORIENTED_EDGE('',*,*,#240,.T.);
#155=ORIENTED_EDGE('',*,*,#243,.T.);
#156=ORIENTED_EDGE('',*,*,#238,.F.);
#157=ORIENTED_EDGE('',*,*,#242,.T.);
#158=ORIENTED_EDGE('',*,*,#239,.F.);
#159=ORIENTED_EDGE('',*,*,#243,.F.);
#160=ORIENTED_EDGE('',*,*,#244,.F.);
#161=ORIENTED_EDGE('',*,*,#245,.F.);
#162=ORIENTED_EDGE('',*,*,#246,.T.);
#163=ORIENTED_EDGE('',*,*,#247,.F.);
#164=ORIENTED_EDGE('',*,*,#248,.T.);
#165=ORIENTED_EDGE('',*,*,#247,.T.);
#166=ORIENTED_EDGE('',*,*,#246,.F.);
#167=ORIENTED_EDGE('',*,*,#249,.F.);
#168=ORIENTED_EDGE('',*,*,#244,.T.);
#169=ORIENTED_EDGE('',*,*,#248,.F.);
#170=ORIENTED_EDGE('',*,*,#245,.T.);
#171=ORIENTED_EDGE('',*,*,#249,.T.);
#172=ORIENTED_EDGE('',*,*,#250,.F.);
#173=ORIENTED_EDGE('',*,*,#251,.F.);
#174=ORIENTED_EDGE('',*,*,#252,.T.);
#175=ORIENTED_EDGE('',*,*,#253,.T.);
#176=ORIENTED_EDGE('',*,*,#251,.T.);
#177=ORIENTED_EDGE('',*,*,#254,.F.);
#178=ORIENTED_EDGE('',*,*,#250,.T.);
#179=ORIENTED_EDGE('',*,*,#253,.F.);
#180=ORIENTED_EDGE('',*,*,#255,.T.);
#181=ORIENTED_EDGE('',*,*,#254,.T.);
#182=ORIENTED_EDGE('',*,*,#252,.F.);
#183=ORIENTED_EDGE('',*,*,#255,.F.);
#184=ORIENTED_EDGE('',*,*,#256,.F.);
#185=ORIENTED_EDGE('',*,*,#257,.F.);
#186=ORIENTED_EDGE('',*,*,#258,.T.);
#187=ORIENTED_EDGE('',*,*,#259,.T.);
#188=ORIENTED_EDGE('',*,*,#257,.T.);
#189=ORIENTED_EDGE('',*,*,#260,.F.);
#190=ORIENTED_EDGE('',*,*,#256,.T.);
#191=ORIENTED_EDGE('',*,*,#259,.F.);
#192=ORIENTED_EDGE('',*,*,#261,.T.);
#193=ORIENTED_EDGE('',*,*,#260,.T.);
#194=ORIENTED_EDGE('',*,*,#258,.F.);
#195=ORIENTED_EDGE('',*,*,#261,.F.);
#196=ORIENTED_EDGE('',*,*,#262,.F.);
#197=ORIENTED_EDGE('',*,*,#263,.F.);
#198=ORIENTED_EDGE('',*,*,#264,.T.);
#199=ORIENTED_EDGE('',*,*,#265,.T.);
#200=ORIENTED_EDGE('',*,*,#263,.T.);
#201=ORIENTED_EDGE('',*,*,#266,.F.);
#202=ORIENTED_EDGE('',*,*,#262,.T.);
#203=ORIENTED_EDGE('',*,*,#265,.F.);
#204=ORIENTED_EDGE('',*,*,#267,.T.);
#205=ORIENTED_EDGE('',*,*,#266,.T.);
#206=ORIENTED_EDGE('',*,*,#267,.F.);
#207=ORIENTED_EDGE('',*,*,#268,.T.);
#208=ORIENTED_EDGE('',*,*,#269,.T.);
#209=ORIENTED_EDGE('',*,*,#270,.F.);
#210=ORIENTED_EDGE('',*,*,#271,.T.);
#211=ORIENTED_EDGE('',*,*,#268,.F.);
#212=ORIENTED_EDGE('',*,*,#264,.F.);
#213=ORIENTED_EDGE('',*,*,#270,.T.);
#214=ORIENTED_EDGE('',*,*,#271,.F.);
#215=ORIENTED_EDGE('',*,*,#269,.F.);
#216=VERTEX_POINT('',#568);
#217=VERTEX_POINT('',#569);
#218=VERTEX_POINT('',#571);
#219=VERTEX_POINT('',#573);
#220=VERTEX_POINT('',#582);
#221=VERTEX_POINT('',#583);
#222=VERTEX_POINT('',#585);
#223=VERTEX_POINT('',#587);
#224=VERTEX_POINT('',#595);
#225=VERTEX_POINT('',#596);
#226=VERTEX_POINT('',#600);
#227=VERTEX_POINT('',#601);
#228=VERTEX_POINT('',#608);
#229=VERTEX_POINT('',#609);
#230=VERTEX_POINT('',#613);
#231=VERTEX_POINT('',#614);
#232=VERTEX_POINT('',#621);
#233=VERTEX_POINT('',#622);
#234=VERTEX_POINT('',#626);
#235=VERTEX_POINT('',#627);
#236=VERTEX_POINT('',#634);
#237=VERTEX_POINT('',#636);
#238=EDGE_CURVE('',#216,#217,#312,.T.);
#239=EDGE_CURVE('',#217,#218,#124,.T.);
#240=EDGE_CURVE('',#219,#218,#313,.T.);
#241=EDGE_CURVE('',#219,#216,#125,.T.);
#242=EDGE_CURVE('',#216,#219,#126,.T.);
#243=EDGE_CURVE('',#218,#217,#127,.T.);
#244=EDGE_CURVE('',#220,#221,#128,.T.);
#245=EDGE_CURVE('',#222,#220,#129,.T.);
#246=EDGE_CURVE('',#222,#223,#130,.T.);
#247=EDGE_CURVE('',#221,#223,#131,.T.);
#248=EDGE_CURVE('',#223,#221,#132,.T.);
#249=EDGE_CURVE('',#220,#222,#133,.T.);
#250=EDGE_CURVE('',#224,#225,#134,.T.);
#251=EDGE_CURVE('',#225,#224,#135,.T.);
#252=EDGE_CURVE('',#226,#227,#136,.T.);
#253=EDGE_CURVE('',#227,#225,#314,.T.);
#254=EDGE_CURVE('',#226,#224,#315,.T.);
#255=EDGE_CURVE('',#227,#226,#137,.T.);
#256=EDGE_CURVE('',#228,#229,#138,.T.);
#257=EDGE_CURVE('',#229,#228,#139,.T.);
#258=EDGE_CURVE('',#230,#231,#140,.T.);
#259=EDGE_CURVE('',#231,#229,#316,.T.);
#260=EDGE_CURVE('',#230,#228,#317,.T.);
#261=EDGE_CURVE('',#231,#230,#141,.T.);
#262=EDGE_CURVE('',#232,#233,#142,.T.);
#263=EDGE_CURVE('',#233,#232,#143,.T.);
#264=EDGE_CURVE('',#234,#235,#144,.T.);
#265=EDGE_CURVE('',#235,#233,#318,.T.);
#266=EDGE_CURVE('',#234,#232,#319,.T.);
#267=EDGE_CURVE('',#235,#234,#145,.T.);
#268=EDGE_CURVE('',#235,#236,#320,.T.);
#269=EDGE_CURVE('',#236,#237,#146,.T.);
#270=EDGE_CURVE('',#234,#237,#321,.T.);
#271=EDGE_CURVE('',#237,#236,#147,.T.);
#272=COLOUR_RGB('Strong Stone',0.576470588235294,0.54508278019379,0.392156862745098);
#273=COLOUR_RGB('Medium Umber',0.372533760585946,0.313725490196078,0.270572976272221);
#274=COLOUR_RGB('Light Gray',0.8,0.8,0.8);
#275=COLOUR_RGB('non-cutting part and shank',0.501960784313725,0.501960784313725,
0.501960784313725);
#276=CURVE_STYLE('',#290,POSITIVE_LENGTH_MEASURE(0.18),#374);
#277=CURVE_STYLE('',#291,POSITIVE_LENGTH_MEASURE(0.18),#374);
#278=CURVE_STYLE('',#292,POSITIVE_LENGTH_MEASURE(0.18),#374);
#279=CURVE_STYLE('',#293,POSITIVE_LENGTH_MEASURE(0.18),#374);
#280=CURVE_STYLE('',#294,POSITIVE_LENGTH_MEASURE(0.13),#272);
#281=CURVE_STYLE('',#295,POSITIVE_LENGTH_MEASURE(0.13),#272);
#282=CURVE_STYLE('',#296,POSITIVE_LENGTH_MEASURE(0.13),#273);
#283=CURVE_STYLE('',#297,POSITIVE_LENGTH_MEASURE(0.13),#273);
#284=CURVE_STYLE('',#298,POSITIVE_LENGTH_MEASURE(0.13),#272);
#285=CURVE_STYLE('',#299,POSITIVE_LENGTH_MEASURE(0.13),#272);
#286=CURVE_STYLE('',#300,POSITIVE_LENGTH_MEASURE(0.13),#273);
#287=CURVE_STYLE('',#301,POSITIVE_LENGTH_MEASURE(0.13),#272);
#288=CURVE_STYLE('',#302,POSITIVE_LENGTH_MEASURE(0.13),#272);
#289=CURVE_STYLE('',#303,POSITIVE_LENGTH_MEASURE(0.13),#272);
#290=DRAUGHTING_PRE_DEFINED_CURVE_FONT('continuous');
#291=DRAUGHTING_PRE_DEFINED_CURVE_FONT('continuous');
#292=DRAUGHTING_PRE_DEFINED_CURVE_FONT('continuous');
#293=DRAUGHTING_PRE_DEFINED_CURVE_FONT('continuous');
#294=DRAUGHTING_PRE_DEFINED_CURVE_FONT('continuous');
#295=DRAUGHTING_PRE_DEFINED_CURVE_FONT('continuous');
#296=DRAUGHTING_PRE_DEFINED_CURVE_FONT('continuous');
#297=DRAUGHTING_PRE_DEFINED_CURVE_FONT('continuous');
#298=DRAUGHTING_PRE_DEFINED_CURVE_FONT('continuous');
#299=DRAUGHTING_PRE_DEFINED_CURVE_FONT('continuous');
#300=DRAUGHTING_PRE_DEFINED_CURVE_FONT('continuous');
#301=DRAUGHTING_PRE_DEFINED_CURVE_FONT('continuous');
#302=DRAUGHTING_PRE_DEFINED_CURVE_FONT('continuous');
#303=DRAUGHTING_PRE_DEFINED_CURVE_FONT('continuous');
#304=TRIMMED_CURVE('',#308,(PARAMETER_VALUE(0.)),(PARAMETER_VALUE(1.)),
 .T.,.PARAMETER.);
#305=TRIMMED_CURVE('',#309,(PARAMETER_VALUE(0.)),(PARAMETER_VALUE(1.)),
 .T.,.PARAMETER.);
#306=TRIMMED_CURVE('',#310,(PARAMETER_VALUE(0.)),(PARAMETER_VALUE(1.)),
 .T.,.PARAMETER.);
#307=TRIMMED_CURVE('',#311,(PARAMETER_VALUE(0.)),(PARAMETER_VALUE(1.)),
 .T.,.PARAMETER.);
#308=LINE('',#553,#322);
#309=LINE('',#554,#323);
#310=LINE('',#555,#324);
#311=LINE('',#556,#325);
#312=LINE('',#567,#326);
#313=LINE('',#572,#327);
#314=LINE('',#602,#328);
#315=LINE('',#603,#329);
#316=LINE('',#615,#330);
#317=LINE('',#616,#331);
#318=LINE('',#628,#332);
#319=LINE('',#629,#333);
#320=LINE('',#633,#334);
#321=LINE('',#637,#335);
#322=VECTOR('',#431,10.);
#323=VECTOR('',#432,40.);
#324=VECTOR('',#433,10.);
#325=VECTOR('',#434,40.);
#326=VECTOR('',#455,1.);
#327=VECTOR('',#458,1.);
#328=VECTOR('',#499,1.);
#329=VECTOR('',#500,1.);
#330=VECTOR('',#515,1.);
#331=VECTOR('',#516,1.);
#332=VECTOR('',#531,1.);
#333=VECTOR('',#532,1.);
#334=VECTOR('',#539,1.);
#335=VECTOR('',#542,1.);
#336=PRESENTATION_LAYER_ASSIGNMENT('1','Layer 1',(#552,#304,#305,#306,#307,
#376,#377,#380,#381,#382,#383,#384,#385,#50,#51));
#337=PRESENTATION_LAYER_ASSIGNMENT('2','Layer 2',(#378,#379));
#338=STYLED_ITEM('',(#355),#552);
#339=STYLED_ITEM('',(#356),#304);
#340=STYLED_ITEM('',(#357),#305);
#341=STYLED_ITEM('',(#358),#306);
#342=STYLED_ITEM('',(#359),#307);
#343=STYLED_ITEM('',(#360),#376);
#344=STYLED_ITEM('',(#361),#377);
#345=STYLED_ITEM('',(#362),#378);
#346=STYLED_ITEM('',(#363),#379);
#347=STYLED_ITEM('',(#364),#380);
#348=STYLED_ITEM('',(#365),#381);
#349=STYLED_ITEM('',(#366),#382);
#350=STYLED_ITEM('',(#367),#383);
#351=STYLED_ITEM('',(#368),#384);
#352=STYLED_ITEM('',(#369),#385);
#353=STYLED_ITEM('',(#370),#50);
#354=STYLED_ITEM('',(#371),#51);
#355=PRESENTATION_STYLE_ASSIGNMENT((#372));
#356=PRESENTATION_STYLE_ASSIGNMENT((#276));
#357=PRESENTATION_STYLE_ASSIGNMENT((#277));
#358=PRESENTATION_STYLE_ASSIGNMENT((#278));
#359=PRESENTATION_STYLE_ASSIGNMENT((#279));
#360=PRESENTATION_STYLE_ASSIGNMENT((#280));
#361=PRESENTATION_STYLE_ASSIGNMENT((#281));
#362=PRESENTATION_STYLE_ASSIGNMENT((#282));
#363=PRESENTATION_STYLE_ASSIGNMENT((#283));
#364=PRESENTATION_STYLE_ASSIGNMENT((#284));
#365=PRESENTATION_STYLE_ASSIGNMENT((#285));
#366=PRESENTATION_STYLE_ASSIGNMENT((#286));
#367=PRESENTATION_STYLE_ASSIGNMENT((#287));
#368=PRESENTATION_STYLE_ASSIGNMENT((#288));
#369=PRESENTATION_STYLE_ASSIGNMENT((#289));
#370=PRESENTATION_STYLE_ASSIGNMENT((#40));
#371=PRESENTATION_STYLE_ASSIGNMENT((#41));
#372=POINT_STYLE('',#373,POSITIVE_LENGTH_MEASURE(3.),#374);
#373=PRE_DEFINED_POINT_MARKER_SYMBOL('plus');
#374=DRAUGHTING_PRE_DEFINED_COLOUR('blue');
#375=AXIS2_PLACEMENT_3D('',#551,#429,#430);
#376=AXIS2_PLACEMENT_3D('',#557,#435,#436);
#377=AXIS2_PLACEMENT_3D('',#558,#437,#438);
#378=AXIS2_PLACEMENT_3D('CIP',#559,#439,#440);
#379=AXIS2_PLACEMENT_3D('PCS',#560,#441,#442);
#380=AXIS2_PLACEMENT_3D('MCS',#561,#443,#444);
#381=AXIS2_PLACEMENT_3D('',#562,#445,#446);
#382=AXIS2_PLACEMENT_3D('STEP_TEMP_IMX_1_1',#563,#447,#448);
#383=AXIS2_PLACEMENT_3D('',#564,#449,#450);
#384=AXIS2_PLACEMENT_3D('',#565,#451,#452);
#385=AXIS2_PLACEMENT_3D('',#566,#453,#454);
#386=AXIS2_PLACEMENT_3D('',#570,#456,#457);
#387=AXIS2_PLACEMENT_3D('',#574,#459,#460);
#388=AXIS2_PLACEMENT_3D('',#575,#461,#462);
#389=AXIS2_PLACEMENT_3D('',#576,#463,#464);
#390=AXIS2_PLACEMENT_3D('',#577,#465,#466);
#391=AXIS2_PLACEMENT_3D('',#578,#467,#468);
#392=AXIS2_PLACEMENT_3D('',#579,#469,#470);
#393=AXIS2_PLACEMENT_3D('',#580,#471,#472);
#394=AXIS2_PLACEMENT_3D('',#581,#473,#474);
#395=AXIS2_PLACEMENT_3D('',#584,#475,#476);
#396=AXIS2_PLACEMENT_3D('',#586,#477,#478);
#397=AXIS2_PLACEMENT_3D('',#588,#479,#480);
#398=AXIS2_PLACEMENT_3D('',#589,#481,#482);
#399=AXIS2_PLACEMENT_3D('',#590,#483,#484);
#400=AXIS2_PLACEMENT_3D('',#591,#485,#486);
#401=AXIS2_PLACEMENT_3D('',#592,#487,#488);
#402=AXIS2_PLACEMENT_3D('',#593,#489,#490);
#403=AXIS2_PLACEMENT_3D('',#594,#491,#492);
#404=AXIS2_PLACEMENT_3D('',#597,#493,#494);
#405=AXIS2_PLACEMENT_3D('',#598,#495,#496);
#406=AXIS2_PLACEMENT_3D('',#599,#497,#498);
#407=AXIS2_PLACEMENT_3D('',#604,#501,#502);
#408=AXIS2_PLACEMENT_3D('',#605,#503,#504);
#409=AXIS2_PLACEMENT_3D('',#606,#505,#506);
#410=AXIS2_PLACEMENT_3D('',#607,#507,#508);
#411=AXIS2_PLACEMENT_3D('',#610,#509,#510);
#412=AXIS2_PLACEMENT_3D('',#611,#511,#512);
#413=AXIS2_PLACEMENT_3D('',#612,#513,#514);
#414=AXIS2_PLACEMENT_3D('',#617,#517,#518);
#415=AXIS2_PLACEMENT_3D('',#618,#519,#520);
#416=AXIS2_PLACEMENT_3D('',#619,#521,#522);
#417=AXIS2_PLACEMENT_3D('',#620,#523,#524);
#418=AXIS2_PLACEMENT_3D('',#623,#525,#526);
#419=AXIS2_PLACEMENT_3D('',#624,#527,#528);
#420=AXIS2_PLACEMENT_3D('',#625,#529,#530);
#421=AXIS2_PLACEMENT_3D('',#630,#533,#534);
#422=AXIS2_PLACEMENT_3D('',#631,#535,#536);
#423=AXIS2_PLACEMENT_3D('',#632,#537,#538);
#424=AXIS2_PLACEMENT_3D('',#635,#540,#541);
#425=AXIS2_PLACEMENT_3D('',#638,#543,#544);
#426=AXIS2_PLACEMENT_3D('',#639,#545,#546);
#427=AXIS2_PLACEMENT_3D('',#640,#547,#548);
#428=AXIS2_PLACEMENT_3D('',#641,#549,#550);
#429=DIRECTION('',(0.,0.,1.));
#430=DIRECTION('',(1.,0.,0.));
#431=DIRECTION('',(-1.,0.,0.));
#432=DIRECTION('',(0.,0.,1.));
#433=DIRECTION('',(1.,0.,0.));
#434=DIRECTION('',(0.,0.,-1.));
#435=DIRECTION('',(0.,0.,1.));
#436=DIRECTION('',(1.,0.,0.));
#437=DIRECTION('',(0.,0.,1.));
#438=DIRECTION('',(1.,0.,0.));
#439=DIRECTION('',(0.,0.,1.));
#440=DIRECTION('',(1.,0.,0.));
#441=DIRECTION('',(0.,0.,1.));
#442=DIRECTION('',(1.,0.,0.));
#443=DIRECTION('',(0.,0.,1.));
#444=DIRECTION('',(1.,0.,0.));
#445=DIRECTION('',(0.,0.,1.));
#446=DIRECTION('',(1.,0.,0.));
#447=DIRECTION('',(0.,0.,1.));
#448=DIRECTION('',(1.,0.,0.));
#449=DIRECTION('',(0.,0.,1.));
#450=DIRECTION('',(1.,0.,0.));
#451=DIRECTION('',(0.,0.,1.));
#452=DIRECTION('',(1.,0.,0.));
#453=DIRECTION('',(0.,0.,1.));
#454=DIRECTION('',(1.,0.,0.));
#455=DIRECTION('',(0.,0.,-1.));
#456=DIRECTION('',(0.,0.,1.));
#457=DIRECTION('',(0.,-1.,0.));
#458=DIRECTION('',(0.,0.,-1.));
#459=DIRECTION('',(0.,0.,-1.));
#460=DIRECTION('',(0.,1.,0.));
#461=DIRECTION('',(0.,0.,-1.));
#462=DIRECTION('',(0.,1.,0.));
#463=DIRECTION('',(0.,0.,-1.));
#464=DIRECTION('',(0.,-1.,0.));
#465=DIRECTION('',(0.,0.,-1.));
#466=DIRECTION('',(1.,0.,0.));
#467=DIRECTION('',(0.,0.,1.));
#468=DIRECTION('',(0.,1.,0.));
#469=DIRECTION('',(0.,0.,-1.));
#470=DIRECTION('',(0.,1.,0.));
#471=DIRECTION('',(0.,0.,-1.));
#472=DIRECTION('',(0.,1.,0.));
#473=DIRECTION('',(-1.,0.,0.));
#474=DIRECTION('',(0.,0.99498743710662,0.100000000000002));
#475=DIRECTION('',(0.,0.,1.));
#476=DIRECTION('',(0.,-1.,0.));
#477=DIRECTION('',(1.,0.,0.));
#478=DIRECTION('',(0.,-0.99498743710662,0.100000000000002));
#479=DIRECTION('',(0.,0.,-1.));
#480=DIRECTION('',(0.,1.,0.));
#481=DIRECTION('',(0.,-0.99498743710662,0.100000000000002));
#482=DIRECTION('',(0.,-0.100000000000002,-0.99498743710662));
#483=DIRECTION('',(0.,0.,-1.));
#484=DIRECTION('',(0.,-1.,0.));
#485=DIRECTION('',(0.,0.,1.));
#486=DIRECTION('',(-1.,0.,0.));
#487=DIRECTION('',(0.,0.,1.));
#488=DIRECTION('',(0.,1.,0.));
#489=DIRECTION('',(0.,-0.99498743710662,0.100000000000002));
#490=DIRECTION('',(0.,-0.100000000000002,-0.99498743710662));
#491=DIRECTION('',(0.,0.,1.));
#492=DIRECTION('',(0.,1.,0.));
#493=DIRECTION('',(0.,0.,1.));
#494=DIRECTION('',(0.,-1.,0.));
#495=DIRECTION('',(0.,0.,-1.));
#496=DIRECTION('',(0.,1.,0.));
#497=DIRECTION('',(0.,0.,-1.));
#498=DIRECTION('',(0.,1.,0.));
#499=DIRECTION('',(0.,0.,-1.));
#500=DIRECTION('',(0.,0.,-1.));
#501=DIRECTION('',(0.,0.,-1.));
#502=DIRECTION('',(0.,1.,0.));
#503=DIRECTION('',(0.,0.,-1.));
#504=DIRECTION('',(0.,-1.,0.));
#505=DIRECTION('',(0.,0.,-1.));
#506=DIRECTION('',(0.,1.,0.));
#507=DIRECTION('',(0.,0.,1.));
#508=DIRECTION('',(0.,1.,0.));
#509=DIRECTION('',(0.,0.,1.));
#510=DIRECTION('',(0.,-1.,0.));
#511=DIRECTION('',(0.,0.,-1.));
#512=DIRECTION('',(0.,1.,0.));
#513=DIRECTION('',(0.,0.,-1.));
#514=DIRECTION('',(0.,1.,0.));
#515=DIRECTION('',(0.,-0.0333148302326285,-0.999444906979155));
#516=DIRECTION('',(0.,0.0333148302326285,-0.999444906979155));
#517=DIRECTION('',(0.,0.,-1.));
#518=DIRECTION('',(0.,1.,5.1836518061984E-16));
#519=DIRECTION('',(0.,0.,-1.));
#520=DIRECTION('',(0.,-1.,0.));
#521=DIRECTION('',(0.,0.,-1.));
#522=DIRECTION('',(0.,1.,5.1836518061984E-16));
#523=DIRECTION('',(0.,0.,1.));
#524=DIRECTION('',(0.,1.,0.));
#525=DIRECTION('',(0.,0.,1.));
#526=DIRECTION('',(0.,-1.,0.));
#527=DIRECTION('',(0.,0.,-1.));
#528=DIRECTION('',(0.,1.,0.));
#529=DIRECTION('',(0.,0.,-1.));
#530=DIRECTION('',(0.,1.,0.));
#531=DIRECTION('',(0.,0.,-1.));
#532=DIRECTION('',(0.,0.,-1.));
#533=DIRECTION('',(0.,0.,-1.));
#534=DIRECTION('',(0.,1.,0.));
#535=DIRECTION('',(0.,0.,-1.));
#536=DIRECTION('',(0.,-1.,0.));
#537=DIRECTION('',(0.,0.,-1.));
#538=DIRECTION('',(0.,1.,0.));
#539=DIRECTION('',(0.,0.707106781186547,0.707106781186547));
#540=DIRECTION('',(0.,0.,-1.));
#541=DIRECTION('',(0.,-1.,0.));
#542=DIRECTION('',(0.,-0.707106781186547,0.707106781186547));
#543=DIRECTION('',(0.,0.,-1.));
#544=DIRECTION('',(0.,1.,4.14416955813795E-17));
#545=DIRECTION('',(0.,0.,-1.));
#546=DIRECTION('',(0.,1.,0.));
#547=DIRECTION('',(0.,0.,-1.));
#548=DIRECTION('',(0.,1.,4.14416955813795E-17));
#549=DIRECTION('',(0.,0.,-1.));
#550=DIRECTION('',(0.,1.,0.));
#551=CARTESIAN_POINT('',(0.,0.,0.));
#552=CARTESIAN_POINT('CRP',(-10.,0.,0.));
#553=CARTESIAN_POINT('',(0.,0.,-5.500644866209E-14));
#554=CARTESIAN_POINT('',(-10.,0.,-5.868038905953E-14));
#555=CARTESIAN_POINT('',(-10.,0.,40.));
#556=CARTESIAN_POINT('',(0.,0.,40.));
#557=CARTESIAN_POINT('',(0.,0.,0.));
#558=CARTESIAN_POINT('',(0.,0.,0.));
#559=CARTESIAN_POINT('',(0.,0.,0.));
#560=CARTESIAN_POINT('',(0.,0.,50.));
#561=CARTESIAN_POINT('',(0.,0.,50.));
#562=CARTESIAN_POINT('',(0.,0.,0.));
#563=CARTESIAN_POINT('',(0.,0.,0.));
#564=CARTESIAN_POINT('',(0.,0.,0.));
#565=CARTESIAN_POINT('',(0.,0.,0.));
#566=CARTESIAN_POINT('',(0.,0.,0.));
#567=CARTESIAN_POINT('',(0.,-10.,40.));
#568=CARTESIAN_POINT('',(0.,-10.,40.));
#569=CARTESIAN_POINT('',(0.,-10.,-1.42108547152E-14));
#570=CARTESIAN_POINT('',(0.,0.,-1.42108547152E-14));
#571=CARTESIAN_POINT('',(0.,10.,-3.552713678801E-14));
#572=CARTESIAN_POINT('',(0.,10.,40.));
#573=CARTESIAN_POINT('',(0.,10.,40.));
#574=CARTESIAN_POINT('',(0.,0.,40.));
#575=CARTESIAN_POINT('',(0.,0.,74.55));
#576=CARTESIAN_POINT('',(0.,0.,40.));
#577=CARTESIAN_POINT('',(150.,150.,40.));
#578=CARTESIAN_POINT('',(0.,0.,-1.42108547152E-14));
#579=CARTESIAN_POINT('',(0.,0.,74.55));
#580=CARTESIAN_POINT('',(0.,-1.302916000433E-14,0.));
#581=CARTESIAN_POINT('',(0.,0.,40.));
#582=CARTESIAN_POINT('',(0.,9.949874371066,41.));
#583=CARTESIAN_POINT('',(0.,10.,40.));
#584=CARTESIAN_POINT('',(0.,0.,41.));
#585=CARTESIAN_POINT('',(0.,-9.949874371066,41.));
#586=CARTESIAN_POINT('',(0.,0.,40.));
#587=CARTESIAN_POINT('',(0.,-10.,40.));
#588=CARTESIAN_POINT('',(0.,0.,40.));
#589=CARTESIAN_POINT('',(0.,0.,40.));
#590=CARTESIAN_POINT('',(0.,0.,40.));
#591=CARTESIAN_POINT('',(-150.,150.,40.));
#592=CARTESIAN_POINT('',(0.,0.,41.));
#593=CARTESIAN_POINT('',(0.,0.,40.));
#594=CARTESIAN_POINT('',(0.,0.,41.));
#595=CARTESIAN_POINT('',(0.,9.75,41.));
#596=CARTESIAN_POINT('',(0.,-9.75,41.));
#597=CARTESIAN_POINT('',(0.,0.,41.));
#598=CARTESIAN_POINT('',(0.,0.,41.));
#599=CARTESIAN_POINT('',(0.,0.,50.));
#600=CARTESIAN_POINT('',(0.,9.75,50.));
#601=CARTESIAN_POINT('',(0.,-9.75,50.));
#602=CARTESIAN_POINT('',(0.,-9.75,50.));
#603=CARTESIAN_POINT('',(0.,9.75,50.));
#604=CARTESIAN_POINT('',(0.,0.,74.55));
#605=CARTESIAN_POINT('',(0.,0.,50.));
#606=CARTESIAN_POINT('',(0.,0.,74.55));
#607=CARTESIAN_POINT('',(0.,0.,50.));
#608=CARTESIAN_POINT('',(0.,7.,50.));
#609=CARTESIAN_POINT('',(0.,-7.,50.));
#610=CARTESIAN_POINT('',(0.,0.,50.));
#611=CARTESIAN_POINT('',(0.,0.,50.));
#612=CARTESIAN_POINT('',(0.,0.,60.5));
#613=CARTESIAN_POINT('',(0.,6.65,60.5));
#614=CARTESIAN_POINT('',(0.,-6.65,60.5));
#615=CARTESIAN_POINT('',(0.,-6.65,60.5));
#616=CARTESIAN_POINT('',(0.,6.65,60.5));
#617=CARTESIAN_POINT('',(0.,0.,55.25));
#618=CARTESIAN_POINT('',(0.,0.,60.5));
#619=CARTESIAN_POINT('',(0.,0.,55.25));
#620=CARTESIAN_POINT('',(0.,0.,60.5));
#621=CARTESIAN_POINT('',(0.,5.,60.5));
#622=CARTESIAN_POINT('',(0.,-5.,60.5));
#623=CARTESIAN_POINT('',(0.,0.,60.5));
#624=CARTESIAN_POINT('',(0.,0.,60.5));
#625=CARTESIAN_POINT('',(0.,0.,70.25));
#626=CARTESIAN_POINT('',(0.,5.,70.25));
#627=CARTESIAN_POINT('',(0.,-5.,70.25));
#628=CARTESIAN_POINT('',(0.,-5.,70.25));
#629=CARTESIAN_POINT('',(0.,5.,70.25));
#630=CARTESIAN_POINT('',(0.,0.,74.55));
#631=CARTESIAN_POINT('',(0.,0.,70.25));
#632=CARTESIAN_POINT('',(0.,0.,74.55));
#633=CARTESIAN_POINT('',(0.,-4.25,71.));
#634=CARTESIAN_POINT('',(0.,-4.25,71.));
#635=CARTESIAN_POINT('',(0.,0.,71.));
#636=CARTESIAN_POINT('',(0.,4.25,71.));
#637=CARTESIAN_POINT('',(0.,4.25,71.));
#638=CARTESIAN_POINT('',(0.,0.,70.625));
#639=CARTESIAN_POINT('',(0.,0.,71.));
#640=CARTESIAN_POINT('',(0.,0.,70.625));
#641=CARTESIAN_POINT('',(0.,0.,71.));
#642=MECHANICAL_DESIGN_GEOMETRIC_PRESENTATION_REPRESENTATION('',(#338,#339,
#340,#341,#342,#343,#344,#345,#346,#347,#348,#349,#350,#351,#352,#353,#354),
#643);
#643=(
GEOMETRIC_REPRESENTATION_CONTEXT(3)
GLOBAL_UNCERTAINTY_ASSIGNED_CONTEXT((#644))
GLOBAL_UNIT_ASSIGNED_CONTEXT((#650,#646,#645))
REPRESENTATION_CONTEXT('IMX20S4HV20040','TOP_LEVEL_ASSEMBLY_PART')
);
#644=UNCERTAINTY_MEASURE_WITH_UNIT(LENGTH_MEASURE(2.E-5),#650,
'DISTANCE_ACCURACY_VALUE','Maximum Tolerance applied to model');
#645=(
NAMED_UNIT(*)
SI_UNIT($,.STERADIAN.)
SOLID_ANGLE_UNIT()
);
#646=(
CONVERSION_BASED_UNIT('DEGREE',#648)
NAMED_UNIT(#647)
PLANE_ANGLE_UNIT()
);
#647=DIMENSIONAL_EXPONENTS(0.,0.,0.,0.,0.,0.,0.);
#648=PLANE_ANGLE_MEASURE_WITH_UNIT(PLANE_ANGLE_MEASURE(0.0174532925),#649);
#649=(
NAMED_UNIT(*)
PLANE_ANGLE_UNIT()
SI_UNIT($,.RADIAN.)
);
#650=(
LENGTH_UNIT()
NAMED_UNIT(*)
SI_UNIT(.MILLI.,.METRE.)
);
ENDSEC;
END-ISO-10303-21;
