ISO-10303-21;
HEADER;
/* Generated by software containing ST-Developer
 * from STEP Tools, Inc. (www.steptools.com) 
 */
/* OPTION: using custom schema-name function */

FILE_DESCRIPTION(
/* description */ (''),
/* implementation_level */ '2;1');

FILE_NAME(
/* name */ 'MP2XLBR0020N005.stp',
/* time_stamp */ '2023-03-17T09:20:01+09:00',
/* author */ (''),
/* organization */ (''),
/* preprocessor_version */ 'ST-DEVELOPER v16',
/* originating_system */ 'SIEMENS PLM Software NX 10.0',
/* authorisation */ '');

FILE_SCHEMA (('AUTOMOTIVE_DESIGN { 1 0 10303 214 3 1 1 1 }'));
ENDSEC;

DATA;
#10=CONSTRUCTIVE_GEOMETRY_REPRESENTATION_RELATIONSHIP(
'supplemental geometry','',#26,#11);
#11=CONSTRUCTIVE_GEOMETRY_REPRESENTATION('supplemental geometry',(#369,
#370,#371,#372,#373,#374,#375,#376,#377,#378),#630);
#12=GEOMETRICALLY_BOUNDED_WIREFRAME_SHAPE_REPRESENTATION(
'MP2XLBR0020N005-None',(#27),#630);
#13=SHAPE_REPRESENTATION_RELATIONSHIP('None',
'relationship between MP2XLBR0020N005-None and MP2XLBR0020N005-None',#26,
#15);
#14=SHAPE_REPRESENTATION_RELATIONSHIP('None',
'relationship between MP2XLBR0020N005-None and MP2XLBR0020N005-None',#26,
#12);
#15=ADVANCED_BREP_SHAPE_REPRESENTATION('MP2XLBR0020N005-None',(#46,#47),
#630);
#16=SHAPE_DEFINITION_REPRESENTATION(#17,#26);
#17=PRODUCT_DEFINITION_SHAPE('','SHAPE FOR MP2XLBR0020N005_ASM.',#18);
#18=PRODUCT_DEFINITION('part definition','',#20,#19);
#19=PRODUCT_DEFINITION_CONTEXT('part definition',#25,'design');
#20=PRODUCT_DEFINITION_FORMATION_WITH_SPECIFIED_SOURCE(' ',' ',#22,
 .NOT_KNOWN.);
#21=PRODUCT_RELATED_PRODUCT_CATEGORY('part','',(#22));
#22=PRODUCT('MP2XLBR0020N005_ASM','MP2XLBR0020N005_ASM','NOT SPECIFIED',
(#23));
#23=PRODUCT_CONTEXT('',#25,'mechanical');
#24=APPLICATION_PROTOCOL_DEFINITION('international standard',
'automotive_design',2010,#25);
#25=APPLICATION_CONTEXT(
'core data for automotive mechanical design processes');
#26=SHAPE_REPRESENTATION('MP2XLBR0020N005-None',(#367),#630);
#27=GEOMETRIC_CURVE_SET('None',(#542,#290,#291,#292,#293));
#28=TOROIDAL_SURFACE('',#404,1.185,1.);
#29=TOROIDAL_SURFACE('',#406,1.185,1.);
#30=CONICAL_SURFACE('',#392,0.1925,45.);
#31=CONICAL_SURFACE('',#396,0.1925,45.);
#32=CONICAL_SURFACE('',#408,1.103426199633,12.);
#33=CONICAL_SURFACE('',#410,1.103426199633,12.);
#34=CONICAL_SURFACE('',#416,1.75,45.);
#35=CONICAL_SURFACE('',#418,1.75,45.);
#36=SURFACE_STYLE_USAGE(.BOTH.,#38);
#37=SURFACE_STYLE_USAGE(.BOTH.,#39);
#38=SURFACE_SIDE_STYLE('',(#40));
#39=SURFACE_SIDE_STYLE('',(#41));
#40=SURFACE_STYLE_FILL_AREA(#42);
#41=SURFACE_STYLE_FILL_AREA(#43);
#42=FILL_AREA_STYLE('',(#44));
#43=FILL_AREA_STYLE('',(#45));
#44=FILL_AREA_STYLE_COLOUR('',#365);
#45=FILL_AREA_STYLE_COLOUR('',#366);
#46=MANIFOLD_SOLID_BREP('CUT',#48);
#47=MANIFOLD_SOLID_BREP('NOCUT',#49);
#48=CLOSED_SHELL('',(#55,#56,#57,#58,#59));
#49=CLOSED_SHELL('',(#60,#61,#62,#63,#64,#65,#66,#67,#68,#69,#70,#71,#72,
#73));
#50=SPHERICAL_SURFACE('',#388,0.2);
#51=SPHERICAL_SURFACE('',#389,0.2);
#52=PLANE('',#383);
#53=PLANE('',#394);
#54=PLANE('',#419);
#55=ADVANCED_FACE('',(#80),#74,.T.);
#56=ADVANCED_FACE('',(#81),#52,.F.);
#57=ADVANCED_FACE('',(#82),#75,.T.);
#58=ADVANCED_FACE('',(#83),#50,.T.);
#59=ADVANCED_FACE('',(#84),#51,.T.);
#60=ADVANCED_FACE('',(#85),#30,.T.);
#61=ADVANCED_FACE('',(#86),#53,.F.);
#62=ADVANCED_FACE('',(#87),#31,.T.);
#63=ADVANCED_FACE('',(#88),#76,.T.);
#64=ADVANCED_FACE('',(#89),#77,.T.);
#65=ADVANCED_FACE('',(#90),#28,.F.);
#66=ADVANCED_FACE('',(#91),#29,.F.);
#67=ADVANCED_FACE('',(#92),#32,.T.);
#68=ADVANCED_FACE('',(#93),#33,.T.);
#69=ADVANCED_FACE('',(#94),#78,.T.);
#70=ADVANCED_FACE('',(#95),#79,.T.);
#71=ADVANCED_FACE('',(#96),#34,.T.);
#72=ADVANCED_FACE('',(#97),#35,.T.);
#73=ADVANCED_FACE('',(#98),#54,.F.);
#74=CYLINDRICAL_SURFACE('',#381,0.2);
#75=CYLINDRICAL_SURFACE('',#385,0.2);
#76=CYLINDRICAL_SURFACE('',#398,0.185);
#77=CYLINDRICAL_SURFACE('',#400,0.185);
#78=CYLINDRICAL_SURFACE('',#412,2.);
#79=CYLINDRICAL_SURFACE('',#414,2.);
#80=FACE_OUTER_BOUND('',#99,.T.);
#81=FACE_OUTER_BOUND('',#100,.T.);
#82=FACE_OUTER_BOUND('',#101,.T.);
#83=FACE_OUTER_BOUND('',#102,.T.);
#84=FACE_OUTER_BOUND('',#103,.T.);
#85=FACE_OUTER_BOUND('',#104,.T.);
#86=FACE_OUTER_BOUND('',#105,.T.);
#87=FACE_OUTER_BOUND('',#106,.T.);
#88=FACE_OUTER_BOUND('',#107,.T.);
#89=FACE_OUTER_BOUND('',#108,.T.);
#90=FACE_OUTER_BOUND('',#109,.T.);
#91=FACE_OUTER_BOUND('',#110,.T.);
#92=FACE_OUTER_BOUND('',#111,.T.);
#93=FACE_OUTER_BOUND('',#112,.T.);
#94=FACE_OUTER_BOUND('',#113,.T.);
#95=FACE_OUTER_BOUND('',#114,.T.);
#96=FACE_OUTER_BOUND('',#115,.T.);
#97=FACE_OUTER_BOUND('',#116,.T.);
#98=FACE_OUTER_BOUND('',#117,.T.);
#99=EDGE_LOOP('',(#118,#119,#120,#121));
#100=EDGE_LOOP('',(#122,#123));
#101=EDGE_LOOP('',(#124,#125,#126,#127));
#102=EDGE_LOOP('',(#128,#129,#130));
#103=EDGE_LOOP('',(#131,#132,#133));
#104=EDGE_LOOP('',(#134,#135,#136,#137));
#105=EDGE_LOOP('',(#138,#139));
#106=EDGE_LOOP('',(#140,#141,#142,#143));
#107=EDGE_LOOP('',(#144,#145,#146,#147));
#108=EDGE_LOOP('',(#148,#149,#150,#151));
#109=EDGE_LOOP('',(#152,#153,#154,#155));
#110=EDGE_LOOP('',(#156,#157,#158,#159));
#111=EDGE_LOOP('',(#160,#161,#162,#163));
#112=EDGE_LOOP('',(#164,#165,#166,#167));
#113=EDGE_LOOP('',(#168,#169,#170,#171));
#114=EDGE_LOOP('',(#172,#173,#174,#175));
#115=EDGE_LOOP('',(#176,#177,#178,#179));
#116=EDGE_LOOP('',(#180,#181,#182,#183));
#117=EDGE_LOOP('',(#184,#185));
#118=ORIENTED_EDGE('',*,*,#205,.T.);
#119=ORIENTED_EDGE('',*,*,#206,.T.);
#120=ORIENTED_EDGE('',*,*,#207,.F.);
#121=ORIENTED_EDGE('',*,*,#208,.T.);
#122=ORIENTED_EDGE('',*,*,#209,.F.);
#123=ORIENTED_EDGE('',*,*,#208,.F.);
#124=ORIENTED_EDGE('',*,*,#207,.T.);
#125=ORIENTED_EDGE('',*,*,#210,.T.);
#126=ORIENTED_EDGE('',*,*,#205,.F.);
#127=ORIENTED_EDGE('',*,*,#209,.T.);
#128=ORIENTED_EDGE('',*,*,#211,.T.);
#129=ORIENTED_EDGE('',*,*,#210,.F.);
#130=ORIENTED_EDGE('',*,*,#212,.F.);
#131=ORIENTED_EDGE('',*,*,#206,.F.);
#132=ORIENTED_EDGE('',*,*,#211,.F.);
#133=ORIENTED_EDGE('',*,*,#212,.T.);
#134=ORIENTED_EDGE('',*,*,#213,.F.);
#135=ORIENTED_EDGE('',*,*,#214,.F.);
#136=ORIENTED_EDGE('',*,*,#215,.T.);
#137=ORIENTED_EDGE('',*,*,#216,.T.);
#138=ORIENTED_EDGE('',*,*,#217,.F.);
#139=ORIENTED_EDGE('',*,*,#216,.F.);
#140=ORIENTED_EDGE('',*,*,#215,.F.);
#141=ORIENTED_EDGE('',*,*,#218,.F.);
#142=ORIENTED_EDGE('',*,*,#213,.T.);
#143=ORIENTED_EDGE('',*,*,#217,.T.);
#144=ORIENTED_EDGE('',*,*,#218,.T.);
#145=ORIENTED_EDGE('',*,*,#219,.T.);
#146=ORIENTED_EDGE('',*,*,#220,.T.);
#147=ORIENTED_EDGE('',*,*,#221,.F.);
#148=ORIENTED_EDGE('',*,*,#222,.T.);
#149=ORIENTED_EDGE('',*,*,#219,.F.);
#150=ORIENTED_EDGE('',*,*,#214,.T.);
#151=ORIENTED_EDGE('',*,*,#221,.T.);
#152=ORIENTED_EDGE('',*,*,#223,.F.);
#153=ORIENTED_EDGE('',*,*,#224,.T.);
#154=ORIENTED_EDGE('',*,*,#222,.F.);
#155=ORIENTED_EDGE('',*,*,#225,.F.);
#156=ORIENTED_EDGE('',*,*,#220,.F.);
#157=ORIENTED_EDGE('',*,*,#224,.F.);
#158=ORIENTED_EDGE('',*,*,#226,.F.);
#159=ORIENTED_EDGE('',*,*,#225,.T.);
#160=ORIENTED_EDGE('',*,*,#226,.T.);
#161=ORIENTED_EDGE('',*,*,#227,.T.);
#162=ORIENTED_EDGE('',*,*,#228,.F.);
#163=ORIENTED_EDGE('',*,*,#229,.F.);
#164=ORIENTED_EDGE('',*,*,#230,.F.);
#165=ORIENTED_EDGE('',*,*,#227,.F.);
#166=ORIENTED_EDGE('',*,*,#223,.T.);
#167=ORIENTED_EDGE('',*,*,#229,.T.);
#168=ORIENTED_EDGE('',*,*,#231,.T.);
#169=ORIENTED_EDGE('',*,*,#232,.T.);
#170=ORIENTED_EDGE('',*,*,#230,.T.);
#171=ORIENTED_EDGE('',*,*,#233,.F.);
#172=ORIENTED_EDGE('',*,*,#228,.T.);
#173=ORIENTED_EDGE('',*,*,#232,.F.);
#174=ORIENTED_EDGE('',*,*,#234,.T.);
#175=ORIENTED_EDGE('',*,*,#233,.T.);
#176=ORIENTED_EDGE('',*,*,#234,.F.);
#177=ORIENTED_EDGE('',*,*,#235,.T.);
#178=ORIENTED_EDGE('',*,*,#236,.T.);
#179=ORIENTED_EDGE('',*,*,#237,.F.);
#180=ORIENTED_EDGE('',*,*,#238,.T.);
#181=ORIENTED_EDGE('',*,*,#235,.F.);
#182=ORIENTED_EDGE('',*,*,#231,.F.);
#183=ORIENTED_EDGE('',*,*,#237,.T.);
#184=ORIENTED_EDGE('',*,*,#238,.F.);
#185=ORIENTED_EDGE('',*,*,#236,.F.);
#186=VERTEX_POINT('',#558);
#187=VERTEX_POINT('',#559);
#188=VERTEX_POINT('',#561);
#189=VERTEX_POINT('',#563);
#190=VERTEX_POINT('',#571);
#191=VERTEX_POINT('',#576);
#192=VERTEX_POINT('',#577);
#193=VERTEX_POINT('',#579);
#194=VERTEX_POINT('',#581);
#195=VERTEX_POINT('',#589);
#196=VERTEX_POINT('',#591);
#197=VERTEX_POINT('',#597);
#198=VERTEX_POINT('',#598);
#199=VERTEX_POINT('',#605);
#200=VERTEX_POINT('',#607);
#201=VERTEX_POINT('',#613);
#202=VERTEX_POINT('',#614);
#203=VERTEX_POINT('',#621);
#204=VERTEX_POINT('',#623);
#205=EDGE_CURVE('',#186,#187,#297,.T.);
#206=EDGE_CURVE('',#187,#188,#240,.T.);
#207=EDGE_CURVE('',#189,#188,#298,.T.);
#208=EDGE_CURVE('',#189,#186,#241,.T.);
#209=EDGE_CURVE('',#186,#189,#242,.T.);
#210=EDGE_CURVE('',#188,#187,#243,.T.);
#211=EDGE_CURVE('',#190,#187,#244,.T.);
#212=EDGE_CURVE('',#190,#188,#245,.T.);
#213=EDGE_CURVE('',#191,#192,#299,.T.);
#214=EDGE_CURVE('',#193,#191,#246,.T.);
#215=EDGE_CURVE('',#193,#194,#300,.T.);
#216=EDGE_CURVE('',#194,#192,#247,.T.);
#217=EDGE_CURVE('',#192,#194,#248,.T.);
#218=EDGE_CURVE('',#191,#193,#249,.T.);
#219=EDGE_CURVE('',#193,#195,#301,.T.);
#220=EDGE_CURVE('',#195,#196,#250,.T.);
#221=EDGE_CURVE('',#191,#196,#302,.T.);
#222=EDGE_CURVE('',#196,#195,#251,.T.);
#223=EDGE_CURVE('',#197,#198,#252,.T.);
#224=EDGE_CURVE('',#197,#195,#253,.T.);
#225=EDGE_CURVE('',#198,#196,#254,.T.);
#226=EDGE_CURVE('',#198,#197,#255,.T.);
#227=EDGE_CURVE('',#197,#199,#303,.T.);
#228=EDGE_CURVE('',#200,#199,#256,.T.);
#229=EDGE_CURVE('',#198,#200,#304,.T.);
#230=EDGE_CURVE('',#199,#200,#257,.T.);
#231=EDGE_CURVE('',#201,#202,#258,.T.);
#232=EDGE_CURVE('',#202,#199,#305,.T.);
#233=EDGE_CURVE('',#201,#200,#306,.T.);
#234=EDGE_CURVE('',#202,#201,#259,.T.);
#235=EDGE_CURVE('',#202,#203,#307,.T.);
#236=EDGE_CURVE('',#203,#204,#260,.T.);
#237=EDGE_CURVE('',#201,#204,#308,.T.);
#238=EDGE_CURVE('',#204,#203,#261,.T.);
#239=CIRCLE('',#368,0.2);
#240=CIRCLE('',#379,0.2);
#241=CIRCLE('',#380,0.2);
#242=CIRCLE('',#382,0.2);
#243=CIRCLE('',#384,0.2);
#244=CIRCLE('',#386,0.2);
#245=CIRCLE('',#387,0.2);
#246=CIRCLE('',#390,0.185);
#247=CIRCLE('',#391,0.2);
#248=CIRCLE('',#393,0.2);
#249=CIRCLE('',#395,0.185);
#250=CIRCLE('',#397,0.185);
#251=CIRCLE('',#399,0.185);
#252=CIRCLE('',#401,0.2068523992662);
#253=CIRCLE('',#402,1.);
#254=CIRCLE('',#403,1.);
#255=CIRCLE('',#405,0.2068523992662);
#256=CIRCLE('',#407,2.);
#257=CIRCLE('',#409,2.);
#258=CIRCLE('',#411,2.);
#259=CIRCLE('',#413,2.);
#260=CIRCLE('',#415,1.5);
#261=CIRCLE('',#417,1.5);
#262=CURVE_STYLE('',#276,POSITIVE_LENGTH_MEASURE(0.18),#362);
#263=CURVE_STYLE('',#277,POSITIVE_LENGTH_MEASURE(0.18),#362);
#264=CURVE_STYLE('',#278,POSITIVE_LENGTH_MEASURE(0.18),#362);
#265=CURVE_STYLE('',#279,POSITIVE_LENGTH_MEASURE(0.18),#362);
#266=CURVE_STYLE('',#280,POSITIVE_LENGTH_MEASURE(0.13),#363);
#267=CURVE_STYLE('',#281,POSITIVE_LENGTH_MEASURE(0.13),#363);
#268=CURVE_STYLE('',#282,POSITIVE_LENGTH_MEASURE(0.13),#364);
#269=CURVE_STYLE('',#283,POSITIVE_LENGTH_MEASURE(0.13),#364);
#270=CURVE_STYLE('',#284,POSITIVE_LENGTH_MEASURE(0.13),#363);
#271=CURVE_STYLE('',#285,POSITIVE_LENGTH_MEASURE(0.13),#363);
#272=CURVE_STYLE('',#286,POSITIVE_LENGTH_MEASURE(0.13),#364);
#273=CURVE_STYLE('',#287,POSITIVE_LENGTH_MEASURE(0.13),#363);
#274=CURVE_STYLE('',#288,POSITIVE_LENGTH_MEASURE(0.13),#363);
#275=CURVE_STYLE('',#289,POSITIVE_LENGTH_MEASURE(0.13),#363);
#276=DRAUGHTING_PRE_DEFINED_CURVE_FONT('continuous');
#277=DRAUGHTING_PRE_DEFINED_CURVE_FONT('continuous');
#278=DRAUGHTING_PRE_DEFINED_CURVE_FONT('continuous');
#279=DRAUGHTING_PRE_DEFINED_CURVE_FONT('continuous');
#280=DRAUGHTING_PRE_DEFINED_CURVE_FONT('continuous');
#281=DRAUGHTING_PRE_DEFINED_CURVE_FONT('continuous');
#282=DRAUGHTING_PRE_DEFINED_CURVE_FONT('continuous');
#283=DRAUGHTING_PRE_DEFINED_CURVE_FONT('continuous');
#284=DRAUGHTING_PRE_DEFINED_CURVE_FONT('continuous');
#285=DRAUGHTING_PRE_DEFINED_CURVE_FONT('continuous');
#286=DRAUGHTING_PRE_DEFINED_CURVE_FONT('continuous');
#287=DRAUGHTING_PRE_DEFINED_CURVE_FONT('continuous');
#288=DRAUGHTING_PRE_DEFINED_CURVE_FONT('continuous');
#289=DRAUGHTING_PRE_DEFINED_CURVE_FONT('continuous');
#290=TRIMMED_CURVE('',#294,(PARAMETER_VALUE(0.)),(PARAMETER_VALUE(1.)),
 .T.,.PARAMETER.);
#291=TRIMMED_CURVE('',#295,(PARAMETER_VALUE(0.)),(PARAMETER_VALUE(1.)),
 .T.,.PARAMETER.);
#292=TRIMMED_CURVE('',#296,(PARAMETER_VALUE(0.)),(PARAMETER_VALUE(1.)),
 .T.,.PARAMETER.);
#293=TRIMMED_CURVE('',#239,(PARAMETER_VALUE(0.)),(PARAMETER_VALUE(90.)),
 .T.,.PARAMETER.);
#294=LINE('',#543,#309);
#295=LINE('',#544,#310);
#296=LINE('',#545,#311);
#297=LINE('',#557,#312);
#298=LINE('',#562,#313);
#299=LINE('',#575,#314);
#300=LINE('',#580,#315);
#301=LINE('',#588,#316);
#302=LINE('',#592,#317);
#303=LINE('',#604,#318);
#304=LINE('',#608,#319);
#305=LINE('',#615,#320);
#306=LINE('',#616,#321);
#307=LINE('',#620,#322);
#308=LINE('',#624,#323);
#309=VECTOR('',#422,0.09999999999999);
#310=VECTOR('',#423,0.2);
#311=VECTOR('',#424,0.3);
#312=VECTOR('',#447,1.);
#313=VECTOR('',#450,1.);
#314=VECTOR('',#471,1.);
#315=VECTOR('',#474,1.);
#316=VECTOR('',#487,1.);
#317=VECTOR('',#490,1.);
#318=VECTOR('',#509,1.);
#319=VECTOR('',#512,1.);
#320=VECTOR('',#521,1.);
#321=VECTOR('',#522,1.);
#322=VECTOR('',#529,1.);
#323=VECTOR('',#532,1.);
#324=PRESENTATION_LAYER_ASSIGNMENT('1','Layer 1',(#542,#290,#291,#292,#293,
#369,#370,#373,#374,#375,#376,#377,#378,#46,#47));
#325=PRESENTATION_LAYER_ASSIGNMENT('2','Layer 2',(#371,#372));
#326=STYLED_ITEM('',(#343),#542);
#327=STYLED_ITEM('',(#344),#290);
#328=STYLED_ITEM('',(#345),#291);
#329=STYLED_ITEM('',(#346),#292);
#330=STYLED_ITEM('',(#347),#293);
#331=STYLED_ITEM('',(#348),#369);
#332=STYLED_ITEM('',(#349),#370);
#333=STYLED_ITEM('',(#350),#371);
#334=STYLED_ITEM('',(#351),#372);
#335=STYLED_ITEM('',(#352),#373);
#336=STYLED_ITEM('',(#353),#374);
#337=STYLED_ITEM('',(#354),#375);
#338=STYLED_ITEM('',(#355),#376);
#339=STYLED_ITEM('',(#356),#377);
#340=STYLED_ITEM('',(#357),#378);
#341=STYLED_ITEM('',(#358),#46);
#342=STYLED_ITEM('',(#359),#47);
#343=PRESENTATION_STYLE_ASSIGNMENT((#360));
#344=PRESENTATION_STYLE_ASSIGNMENT((#262));
#345=PRESENTATION_STYLE_ASSIGNMENT((#263));
#346=PRESENTATION_STYLE_ASSIGNMENT((#264));
#347=PRESENTATION_STYLE_ASSIGNMENT((#265));
#348=PRESENTATION_STYLE_ASSIGNMENT((#266));
#349=PRESENTATION_STYLE_ASSIGNMENT((#267));
#350=PRESENTATION_STYLE_ASSIGNMENT((#268));
#351=PRESENTATION_STYLE_ASSIGNMENT((#269));
#352=PRESENTATION_STYLE_ASSIGNMENT((#270));
#353=PRESENTATION_STYLE_ASSIGNMENT((#271));
#354=PRESENTATION_STYLE_ASSIGNMENT((#272));
#355=PRESENTATION_STYLE_ASSIGNMENT((#273));
#356=PRESENTATION_STYLE_ASSIGNMENT((#274));
#357=PRESENTATION_STYLE_ASSIGNMENT((#275));
#358=PRESENTATION_STYLE_ASSIGNMENT((#36));
#359=PRESENTATION_STYLE_ASSIGNMENT((#37));
#360=POINT_STYLE('',#361,POSITIVE_LENGTH_MEASURE(3.),#362);
#361=PRE_DEFINED_POINT_MARKER_SYMBOL('plus');
#362=COLOUR_RGB('Medium Royal',0.2,0.4,0.8);
#363=COLOUR_RGB('Strong Stone',0.576470588235294,0.54508278019379,0.392156862745098);
#364=COLOUR_RGB('Medium Umber',0.372533760585946,0.313725490196078,0.270572976272221);
#365=COLOUR_RGB('cutting part',0.8,0.8,0.8);
#366=COLOUR_RGB('non-cutting part and shank',0.501960784313725,0.501960784313725,
0.501960784313725);
#367=AXIS2_PLACEMENT_3D('',#541,#420,#421);
#368=AXIS2_PLACEMENT_3D('',#546,#425,#426);
#369=AXIS2_PLACEMENT_3D('',#547,#427,#428);
#370=AXIS2_PLACEMENT_3D('',#548,#429,#430);
#371=AXIS2_PLACEMENT_3D('CIP',#549,#431,#432);
#372=AXIS2_PLACEMENT_3D('PCS',#550,#433,#434);
#373=AXIS2_PLACEMENT_3D('MCS',#551,#435,#436);
#374=AXIS2_PLACEMENT_3D('',#552,#437,#438);
#375=AXIS2_PLACEMENT_3D('STEP_TEMP_EM11-1_1',#553,#439,#440);
#376=AXIS2_PLACEMENT_3D('',#554,#441,#442);
#377=AXIS2_PLACEMENT_3D('',#555,#443,#444);
#378=AXIS2_PLACEMENT_3D('',#556,#445,#446);
#379=AXIS2_PLACEMENT_3D('',#560,#448,#449);
#380=AXIS2_PLACEMENT_3D('',#564,#451,#452);
#381=AXIS2_PLACEMENT_3D('',#565,#453,#454);
#382=AXIS2_PLACEMENT_3D('',#566,#455,#456);
#383=AXIS2_PLACEMENT_3D('',#567,#457,#458);
#384=AXIS2_PLACEMENT_3D('',#568,#459,#460);
#385=AXIS2_PLACEMENT_3D('',#569,#461,#462);
#386=AXIS2_PLACEMENT_3D('',#570,#463,#464);
#387=AXIS2_PLACEMENT_3D('',#572,#465,#466);
#388=AXIS2_PLACEMENT_3D('',#573,#467,#468);
#389=AXIS2_PLACEMENT_3D('',#574,#469,#470);
#390=AXIS2_PLACEMENT_3D('',#578,#472,#473);
#391=AXIS2_PLACEMENT_3D('',#582,#475,#476);
#392=AXIS2_PLACEMENT_3D('',#583,#477,#478);
#393=AXIS2_PLACEMENT_3D('',#584,#479,#480);
#394=AXIS2_PLACEMENT_3D('',#585,#481,#482);
#395=AXIS2_PLACEMENT_3D('',#586,#483,#484);
#396=AXIS2_PLACEMENT_3D('',#587,#485,#486);
#397=AXIS2_PLACEMENT_3D('',#590,#488,#489);
#398=AXIS2_PLACEMENT_3D('',#593,#491,#492);
#399=AXIS2_PLACEMENT_3D('',#594,#493,#494);
#400=AXIS2_PLACEMENT_3D('',#595,#495,#496);
#401=AXIS2_PLACEMENT_3D('',#596,#497,#498);
#402=AXIS2_PLACEMENT_3D('',#599,#499,#500);
#403=AXIS2_PLACEMENT_3D('',#600,#501,#502);
#404=AXIS2_PLACEMENT_3D('',#601,#503,#504);
#405=AXIS2_PLACEMENT_3D('',#602,#505,#506);
#406=AXIS2_PLACEMENT_3D('',#603,#507,#508);
#407=AXIS2_PLACEMENT_3D('',#606,#510,#511);
#408=AXIS2_PLACEMENT_3D('',#609,#513,#514);
#409=AXIS2_PLACEMENT_3D('',#610,#515,#516);
#410=AXIS2_PLACEMENT_3D('',#611,#517,#518);
#411=AXIS2_PLACEMENT_3D('',#612,#519,#520);
#412=AXIS2_PLACEMENT_3D('',#617,#523,#524);
#413=AXIS2_PLACEMENT_3D('',#618,#525,#526);
#414=AXIS2_PLACEMENT_3D('',#619,#527,#528);
#415=AXIS2_PLACEMENT_3D('',#622,#530,#531);
#416=AXIS2_PLACEMENT_3D('',#625,#533,#534);
#417=AXIS2_PLACEMENT_3D('',#626,#535,#536);
#418=AXIS2_PLACEMENT_3D('',#627,#537,#538);
#419=AXIS2_PLACEMENT_3D('',#628,#539,#540);
#420=DIRECTION('',(0.,0.,1.));
#421=DIRECTION('',(1.,0.,0.));
#422=DIRECTION('',(0.,0.,1.));
#423=DIRECTION('',(1.,0.,0.));
#424=DIRECTION('',(0.,0.,-1.));
#425=DIRECTION('',(0.,1.,0.));
#426=DIRECTION('',(0.,0.,-1.));
#427=DIRECTION('',(0.,0.,1.));
#428=DIRECTION('',(1.,0.,0.));
#429=DIRECTION('',(0.,0.,1.));
#430=DIRECTION('',(1.,0.,0.));
#431=DIRECTION('',(0.,0.,1.));
#432=DIRECTION('',(1.,0.,0.));
#433=DIRECTION('',(0.,0.,1.));
#434=DIRECTION('',(1.,0.,0.));
#435=DIRECTION('',(0.,0.,1.));
#436=DIRECTION('',(1.,0.,0.));
#437=DIRECTION('',(0.,0.,1.));
#438=DIRECTION('',(1.,0.,0.));
#439=DIRECTION('',(0.,0.,1.));
#440=DIRECTION('',(1.,0.,0.));
#441=DIRECTION('',(0.,0.,1.));
#442=DIRECTION('',(1.,0.,0.));
#443=DIRECTION('',(0.,0.,1.));
#444=DIRECTION('',(1.,0.,0.));
#445=DIRECTION('',(0.,0.,1.));
#446=DIRECTION('',(1.,0.,0.));
#447=DIRECTION('',(0.,-3.774758283726E-14,-1.));
#448=DIRECTION('',(0.,0.,1.));
#449=DIRECTION('',(0.,-1.,0.));
#450=DIRECTION('',(0.,3.774758283726E-14,-1.));
#451=DIRECTION('',(0.,0.,-1.));
#452=DIRECTION('',(0.,1.,0.));
#453=DIRECTION('',(0.,0.,-1.));
#454=DIRECTION('',(0.,1.,0.));
#455=DIRECTION('',(0.,0.,-1.));
#456=DIRECTION('',(0.,-1.,0.));
#457=DIRECTION('',(0.,0.,-1.));
#458=DIRECTION('',(1.,0.,0.));
#459=DIRECTION('',(0.,0.,1.));
#460=DIRECTION('',(0.,1.,0.));
#461=DIRECTION('',(0.,0.,-1.));
#462=DIRECTION('',(0.,1.,0.));
#463=DIRECTION('',(-1.,0.,0.));
#464=DIRECTION('',(0.,-1.,0.));
#465=DIRECTION('',(1.,0.,0.));
#466=DIRECTION('',(0.,1.,0.));
#467=DIRECTION('',(0.,6.12323399573677E-17,-1.));
#468=DIRECTION('',(0.,1.,0.));
#469=DIRECTION('',(0.,6.12323399573677E-17,-1.));
#470=DIRECTION('',(0.,1.,0.));
#471=DIRECTION('',(0.,0.707106781186298,-0.707106781186798));
#472=DIRECTION('',(0.,0.,1.));
#473=DIRECTION('',(0.,-1.,0.));
#474=DIRECTION('',(0.,-0.707106781186298,-0.707106781186798));
#475=DIRECTION('',(0.,0.,1.));
#476=DIRECTION('',(0.,-1.,0.));
#477=DIRECTION('',(0.,0.,-1.));
#478=DIRECTION('',(0.,1.,1.60973035304801E-17));
#479=DIRECTION('',(0.,0.,1.));
#480=DIRECTION('',(0.,1.,0.));
#481=DIRECTION('',(0.,0.,1.));
#482=DIRECTION('',(-1.,0.,0.));
#483=DIRECTION('',(0.,0.,1.));
#484=DIRECTION('',(0.,1.,0.));
#485=DIRECTION('',(0.,0.,-1.));
#486=DIRECTION('',(0.,1.,1.60973035304801E-17));
#487=DIRECTION('',(0.,0.,1.));
#488=DIRECTION('',(0.,0.,-1.));
#489=DIRECTION('',(0.,-1.,0.));
#490=DIRECTION('',(0.,0.,1.));
#491=DIRECTION('',(0.,0.,-1.));
#492=DIRECTION('',(0.,1.,0.));
#493=DIRECTION('',(0.,0.,-1.));
#494=DIRECTION('',(0.,1.,0.));
#495=DIRECTION('',(0.,0.,-1.));
#496=DIRECTION('',(0.,1.,0.));
#497=DIRECTION('',(0.,0.,1.));
#498=DIRECTION('',(0.,-1.,0.));
#499=DIRECTION('',(-1.,0.,0.));
#500=DIRECTION('',(0.,0.978147600733797,0.207911690817799));
#501=DIRECTION('',(1.,0.,0.));
#502=DIRECTION('',(0.,-0.978147600733797,0.207911690817799));
#503=DIRECTION('',(0.,0.,-1.));
#504=DIRECTION('',(0.,1.,0.));
#505=DIRECTION('',(0.,0.,1.));
#506=DIRECTION('',(0.,1.,0.));
#507=DIRECTION('',(0.,0.,-1.));
#508=DIRECTION('',(0.,1.,0.));
#509=DIRECTION('',(0.,-0.207911690817799,0.978147600733797));
#510=DIRECTION('',(0.,0.,1.));
#511=DIRECTION('',(0.,1.,0.));
#512=DIRECTION('',(0.,0.207911690817799,0.978147600733797));
#513=DIRECTION('',(0.,0.,1.));
#514=DIRECTION('',(0.,-1.,-1.46143519331432E-16));
#515=DIRECTION('',(0.,0.,1.));
#516=DIRECTION('',(0.,-1.,0.));
#517=DIRECTION('',(0.,0.,1.));
#518=DIRECTION('',(0.,-1.,-1.46143519331432E-16));
#519=DIRECTION('',(0.,0.,-1.));
#520=DIRECTION('',(0.,1.,0.));
#521=DIRECTION('',(0.,0.,-1.));
#522=DIRECTION('',(0.,0.,-1.));
#523=DIRECTION('',(0.,0.,-1.));
#524=DIRECTION('',(0.,1.,0.));
#525=DIRECTION('',(0.,0.,-1.));
#526=DIRECTION('',(0.,-1.,0.));
#527=DIRECTION('',(0.,0.,-1.));
#528=DIRECTION('',(0.,1.,0.));
#529=DIRECTION('',(0.,0.707106781186547,0.707106781186547));
#530=DIRECTION('',(0.,0.,-1.));
#531=DIRECTION('',(0.,-1.,0.));
#532=DIRECTION('',(0.,-0.707106781186547,0.707106781186547));
#533=DIRECTION('',(0.,0.,-1.));
#534=DIRECTION('',(0.,1.,-4.15606323168888E-17));
#535=DIRECTION('',(0.,0.,-1.));
#536=DIRECTION('',(0.,1.,0.));
#537=DIRECTION('',(0.,0.,-1.));
#538=DIRECTION('',(0.,1.,-4.15606323168888E-17));
#539=DIRECTION('',(0.,0.,-1.));
#540=DIRECTION('',(0.,1.,0.));
#541=CARTESIAN_POINT('',(0.,0.,0.));
#542=CARTESIAN_POINT('CRP',(-0.2,0.,0.));
#543=CARTESIAN_POINT('',(-0.2,0.,0.2));
#544=CARTESIAN_POINT('',(-0.2,0.,0.3));
#545=CARTESIAN_POINT('',(0.,0.,0.3));
#546=CARTESIAN_POINT('',(0.,0.,0.2));
#547=CARTESIAN_POINT('',(0.,0.,0.));
#548=CARTESIAN_POINT('',(0.,0.,0.));
#549=CARTESIAN_POINT('',(0.,0.,0.));
#550=CARTESIAN_POINT('',(0.,0.,50.));
#551=CARTESIAN_POINT('',(0.,0.,32.));
#552=CARTESIAN_POINT('',(0.,0.,0.));
#553=CARTESIAN_POINT('',(0.,0.,0.));
#554=CARTESIAN_POINT('',(0.,0.,0.));
#555=CARTESIAN_POINT('',(0.,0.,0.));
#556=CARTESIAN_POINT('',(0.,0.,0.));
#557=CARTESIAN_POINT('',(0.,-0.2,0.3));
#558=CARTESIAN_POINT('',(0.,-0.2,0.3));
#559=CARTESIAN_POINT('',(0.,-0.2,0.2));
#560=CARTESIAN_POINT('',(0.,0.,0.2));
#561=CARTESIAN_POINT('',(0.,0.2,0.2));
#562=CARTESIAN_POINT('',(0.,0.2,0.3));
#563=CARTESIAN_POINT('',(0.,0.2,0.3));
#564=CARTESIAN_POINT('',(0.,0.,0.3));
#565=CARTESIAN_POINT('',(0.,0.,52.5));
#566=CARTESIAN_POINT('',(0.,0.,0.3));
#567=CARTESIAN_POINT('',(150.,150.,0.3));
#568=CARTESIAN_POINT('',(0.,0.,0.2));
#569=CARTESIAN_POINT('',(0.,0.,52.5));
#570=CARTESIAN_POINT('',(0.,0.,0.2));
#571=CARTESIAN_POINT('',(0.,0.,0.));
#572=CARTESIAN_POINT('',(0.,0.,0.2));
#573=CARTESIAN_POINT('',(0.,0.,0.2));
#574=CARTESIAN_POINT('',(0.,0.,0.2));
#575=CARTESIAN_POINT('',(0.,0.185,0.315));
#576=CARTESIAN_POINT('',(0.,0.185,0.315));
#577=CARTESIAN_POINT('',(0.,0.2,0.3));
#578=CARTESIAN_POINT('',(0.,0.,0.315));
#579=CARTESIAN_POINT('',(0.,-0.185,0.315));
#580=CARTESIAN_POINT('',(0.,-0.185,0.315));
#581=CARTESIAN_POINT('',(0.,-0.2,0.3));
#582=CARTESIAN_POINT('',(0.,0.,0.3));
#583=CARTESIAN_POINT('',(0.,0.,0.3075));
#584=CARTESIAN_POINT('',(0.,0.,0.3));
#585=CARTESIAN_POINT('',(-150.,150.,0.3));
#586=CARTESIAN_POINT('',(0.,0.,0.315));
#587=CARTESIAN_POINT('',(0.,0.,0.3075));
#588=CARTESIAN_POINT('',(0.,-0.185,0.3274456607326));
#589=CARTESIAN_POINT('',(0.,-0.185,0.3274456607326));
#590=CARTESIAN_POINT('',(0.,0.,0.3274456607326));
#591=CARTESIAN_POINT('',(0.,0.185,0.3274456607326));
#592=CARTESIAN_POINT('',(0.,0.185,0.3274456607326));
#593=CARTESIAN_POINT('',(0.,0.,52.5));
#594=CARTESIAN_POINT('',(0.,0.,0.3274456607326));
#595=CARTESIAN_POINT('',(0.,0.,52.5));
#596=CARTESIAN_POINT('',(0.,0.,0.5353573515504));
#597=CARTESIAN_POINT('',(0.,-0.2068523992662,0.5353573515504));
#598=CARTESIAN_POINT('',(0.,0.2068523992662,0.5353573515504));
#599=CARTESIAN_POINT('',(0.,-1.185,0.3274456607326));
#600=CARTESIAN_POINT('',(0.,1.185,0.3274456607326));
#601=CARTESIAN_POINT('',(0.,0.,0.3274456607326));
#602=CARTESIAN_POINT('',(0.,0.,0.5353573515504));
#603=CARTESIAN_POINT('',(0.,0.,0.3274456607326));
#604=CARTESIAN_POINT('',(0.,-2.,8.971453544702));
#605=CARTESIAN_POINT('',(0.,-2.,8.971453544702));
#606=CARTESIAN_POINT('',(0.,0.,8.971453544702));
#607=CARTESIAN_POINT('',(0.,2.,8.971453544702));
#608=CARTESIAN_POINT('',(0.,2.,8.971453544702));
#609=CARTESIAN_POINT('',(0.,0.,4.753405448126));
#610=CARTESIAN_POINT('',(0.,0.,8.971453544702));
#611=CARTESIAN_POINT('',(0.,0.,4.753405448126));
#612=CARTESIAN_POINT('',(0.,0.,49.5));
#613=CARTESIAN_POINT('',(0.,2.,49.5));
#614=CARTESIAN_POINT('',(0.,-2.,49.5));
#615=CARTESIAN_POINT('',(0.,-2.,49.5));
#616=CARTESIAN_POINT('',(0.,2.,49.5));
#617=CARTESIAN_POINT('',(0.,0.,52.5));
#618=CARTESIAN_POINT('',(0.,0.,49.5));
#619=CARTESIAN_POINT('',(0.,0.,52.5));
#620=CARTESIAN_POINT('',(0.,-1.5,50.));
#621=CARTESIAN_POINT('',(0.,-1.5,50.));
#622=CARTESIAN_POINT('',(0.,0.,50.));
#623=CARTESIAN_POINT('',(0.,1.5,50.));
#624=CARTESIAN_POINT('',(0.,1.5,50.));
#625=CARTESIAN_POINT('',(0.,0.,49.75));
#626=CARTESIAN_POINT('',(0.,0.,50.));
#627=CARTESIAN_POINT('',(0.,0.,49.75));
#628=CARTESIAN_POINT('',(0.,0.,50.));
#629=MECHANICAL_DESIGN_GEOMETRIC_PRESENTATION_REPRESENTATION('',(#326,#327,
#328,#329,#330,#331,#332,#333,#334,#335,#336,#337,#338,#339,#340,#341,#342),
#630);
#630=(
GEOMETRIC_REPRESENTATION_CONTEXT(3)
GLOBAL_UNCERTAINTY_ASSIGNED_CONTEXT((#631))
GLOBAL_UNIT_ASSIGNED_CONTEXT((#637,#633,#632))
REPRESENTATION_CONTEXT('MP2XLBR0020N005','TOP_LEVEL_ASSEMBLY_PART')
);
#631=UNCERTAINTY_MEASURE_WITH_UNIT(LENGTH_MEASURE(2.E-5),#637,
'DISTANCE_ACCURACY_VALUE','Maximum Tolerance applied to model');
#632=(
NAMED_UNIT(*)
SI_UNIT($,.STERADIAN.)
SOLID_ANGLE_UNIT()
);
#633=(
CONVERSION_BASED_UNIT('DEGREE',#635)
NAMED_UNIT(#634)
PLANE_ANGLE_UNIT()
);
#634=DIMENSIONAL_EXPONENTS(0.,0.,0.,0.,0.,0.,0.);
#635=PLANE_ANGLE_MEASURE_WITH_UNIT(PLANE_ANGLE_MEASURE(0.0174532925),#636);
#636=(
NAMED_UNIT(*)
PLANE_ANGLE_UNIT()
SI_UNIT($,.RADIAN.)
);
#637=(
LENGTH_UNIT()
NAMED_UNIT(*)
SI_UNIT(.MILLI.,.METRE.)
);
ENDSEC;
END-ISO-10303-21;
