ISO-10303-21;
HEADER;
/* Generated by software containing ST-Developer
 * from STEP Tools, Inc. (www.steptools.com) 
 */
/* OPTION: using custom schema-name function */

FILE_DESCRIPTION(
/* description */ (''),
/* implementation_level */ '2;1');

FILE_NAME(
/* name */ 'MWS0080SB.stp',
/* time_stamp */ '2025-03-06T14:44:55+09:00',
/* author */ (''),
/* organization */ (''),
/* preprocessor_version */ 'ST-DEVELOPER v18.101',
/* originating_system */ 'SIEMENS PLM Software NX 2011',
/* authorisation */ '');

FILE_SCHEMA (('AUTOMOTIVE_DESIGN { 1 0 10303 214 3 1 1 1 }'));
ENDSEC;

DATA;
#10=CONSTRUCTIVE_GEOMETRY_REPRESENTATION_RELATIONSHIP(
'supplemental geometry','',#26,#11);
#11=CONSTRUCTIVE_GEOMETRY_REPRESENTATION('supplemental geometry',(#317,
#318,#319,#320,#321,#322,#323,#324,#325,#326),#525);
#12=GEOMETRICALLY_BOUNDED_WIREFRAME_SHAPE_REPRESENTATION(
'MWS0080SB-None',(#27),#525);
#13=SHAPE_REPRESENTATION_RELATIONSHIP('None',
'relationship between MWS0080SB-None and MWS0080SB-None',#26,#15);
#14=SHAPE_REPRESENTATION_RELATIONSHIP('None',
'relationship between MWS0080SB-None and MWS0080SB-None',#26,#12);
#15=ADVANCED_BREP_SHAPE_REPRESENTATION('MWS0080SB-None',(#38,#39),#525);
#16=SHAPE_DEFINITION_REPRESENTATION(#17,#26);
#17=PRODUCT_DEFINITION_SHAPE('','SHAPE FOR MWS0080SB_ASM.',#18);
#18=PRODUCT_DEFINITION('part definition','',#20,#19);
#19=PRODUCT_DEFINITION_CONTEXT('part definition',#25,'design');
#20=PRODUCT_DEFINITION_FORMATION_WITH_SPECIFIED_SOURCE(' ',' ',#22,
 .NOT_KNOWN.);
#21=PRODUCT_RELATED_PRODUCT_CATEGORY('part','',(#22));
#22=PRODUCT('MWS0080SB_ASM','MWS0080SB_ASM','NOT SPECIFIED',(#23));
#23=PRODUCT_CONTEXT('',#25,'mechanical');
#24=APPLICATION_PROTOCOL_DEFINITION('international standard',
'automotive_design',2010,#25);
#25=APPLICATION_CONTEXT(
'core data for automotive mechanical design processes');
#26=SHAPE_REPRESENTATION('MWS0080SB-None',(#316),#525);
#27=GEOMETRIC_CURVE_SET('None',(#453,#237,#238,#239,#240));
#28=SURFACE_STYLE_USAGE(.BOTH.,#30);
#29=SURFACE_STYLE_USAGE(.BOTH.,#31);
#30=SURFACE_SIDE_STYLE('',(#32));
#31=SURFACE_SIDE_STYLE('',(#33));
#32=SURFACE_STYLE_FILL_AREA(#34);
#33=SURFACE_STYLE_FILL_AREA(#35);
#34=FILL_AREA_STYLE('',(#36));
#35=FILL_AREA_STYLE('',(#37));
#36=FILL_AREA_STYLE_COLOUR('',#314);
#37=FILL_AREA_STYLE_COLOUR('',#315);
#38=MANIFOLD_SOLID_BREP('CUT',#40);
#39=MANIFOLD_SOLID_BREP('NOCUT',#41);
#40=CLOSED_SHELL('',(#51,#52,#53,#54,#55));
#41=CLOSED_SHELL('',(#56,#57,#58,#59,#60,#61,#62,#63,#64,#65));
#42=PLANE('',#334);
#43=PLANE('',#338);
#44=PLANE('',#354);
#45=CYLINDRICAL_SURFACE('',#332,0.4);
#46=CYLINDRICAL_SURFACE('',#335,0.4);
#47=CYLINDRICAL_SURFACE('',#344,1.5);
#48=CYLINDRICAL_SURFACE('',#346,1.5);
#49=CYLINDRICAL_SURFACE('',#352,0.4);
#50=CYLINDRICAL_SURFACE('',#355,0.4);
#51=ADVANCED_FACE('',(#72),#66,.T.);
#52=ADVANCED_FACE('',(#73),#67,.T.);
#53=ADVANCED_FACE('',(#74),#45,.T.);
#54=ADVANCED_FACE('',(#75),#42,.F.);
#55=ADVANCED_FACE('',(#76),#46,.T.);
#56=ADVANCED_FACE('',(#77),#43,.F.);
#57=ADVANCED_FACE('',(#78),#68,.T.);
#58=ADVANCED_FACE('',(#79),#69,.T.);
#59=ADVANCED_FACE('',(#80),#47,.T.);
#60=ADVANCED_FACE('',(#81),#48,.T.);
#61=ADVANCED_FACE('',(#82),#70,.T.);
#62=ADVANCED_FACE('',(#83),#71,.T.);
#63=ADVANCED_FACE('',(#84),#49,.T.);
#64=ADVANCED_FACE('',(#85),#44,.F.);
#65=ADVANCED_FACE('',(#86),#50,.T.);
#66=CONICAL_SURFACE('',#328,0.204,70.0000971436908);
#67=CONICAL_SURFACE('',#330,0.204,70.0000971436908);
#68=CONICAL_SURFACE('',#340,1.35,45.0000624495155);
#69=CONICAL_SURFACE('',#342,1.35,45.0000624495155);
#70=CONICAL_SURFACE('',#348,0.95,15.0000208165052);
#71=CONICAL_SURFACE('',#350,0.95,15.0000208165052);
#72=FACE_OUTER_BOUND('',#87,.T.);
#73=FACE_OUTER_BOUND('',#88,.T.);
#74=FACE_OUTER_BOUND('',#89,.T.);
#75=FACE_OUTER_BOUND('',#90,.T.);
#76=FACE_OUTER_BOUND('',#91,.T.);
#77=FACE_OUTER_BOUND('',#92,.T.);
#78=FACE_OUTER_BOUND('',#93,.T.);
#79=FACE_OUTER_BOUND('',#94,.T.);
#80=FACE_OUTER_BOUND('',#95,.T.);
#81=FACE_OUTER_BOUND('',#96,.T.);
#82=FACE_OUTER_BOUND('',#97,.T.);
#83=FACE_OUTER_BOUND('',#98,.T.);
#84=FACE_OUTER_BOUND('',#99,.T.);
#85=FACE_OUTER_BOUND('',#100,.T.);
#86=FACE_OUTER_BOUND('',#101,.T.);
#87=EDGE_LOOP('',(#102,#103,#104));
#88=EDGE_LOOP('',(#105,#106,#107));
#89=EDGE_LOOP('',(#108,#109,#110,#111));
#90=EDGE_LOOP('',(#112,#113));
#91=EDGE_LOOP('',(#114,#115,#116,#117));
#92=EDGE_LOOP('',(#118,#119));
#93=EDGE_LOOP('',(#120,#121,#122,#123));
#94=EDGE_LOOP('',(#124,#125,#126,#127));
#95=EDGE_LOOP('',(#128,#129,#130,#131));
#96=EDGE_LOOP('',(#132,#133,#134,#135));
#97=EDGE_LOOP('',(#136,#137,#138,#139));
#98=EDGE_LOOP('',(#140,#141,#142,#143));
#99=EDGE_LOOP('',(#144,#145,#146,#147));
#100=EDGE_LOOP('',(#148,#149));
#101=EDGE_LOOP('',(#150,#151,#152,#153));
#102=ORIENTED_EDGE('',*,*,#169,.F.);
#103=ORIENTED_EDGE('',*,*,#170,.F.);
#104=ORIENTED_EDGE('',*,*,#171,.T.);
#105=ORIENTED_EDGE('',*,*,#170,.T.);
#106=ORIENTED_EDGE('',*,*,#172,.F.);
#107=ORIENTED_EDGE('',*,*,#171,.F.);
#108=ORIENTED_EDGE('',*,*,#173,.F.);
#109=ORIENTED_EDGE('',*,*,#172,.T.);
#110=ORIENTED_EDGE('',*,*,#174,.T.);
#111=ORIENTED_EDGE('',*,*,#175,.T.);
#112=ORIENTED_EDGE('',*,*,#175,.F.);
#113=ORIENTED_EDGE('',*,*,#176,.F.);
#114=ORIENTED_EDGE('',*,*,#174,.F.);
#115=ORIENTED_EDGE('',*,*,#169,.T.);
#116=ORIENTED_EDGE('',*,*,#173,.T.);
#117=ORIENTED_EDGE('',*,*,#176,.T.);
#118=ORIENTED_EDGE('',*,*,#177,.F.);
#119=ORIENTED_EDGE('',*,*,#178,.F.);
#120=ORIENTED_EDGE('',*,*,#177,.T.);
#121=ORIENTED_EDGE('',*,*,#179,.F.);
#122=ORIENTED_EDGE('',*,*,#180,.F.);
#123=ORIENTED_EDGE('',*,*,#181,.T.);
#124=ORIENTED_EDGE('',*,*,#182,.F.);
#125=ORIENTED_EDGE('',*,*,#179,.T.);
#126=ORIENTED_EDGE('',*,*,#178,.T.);
#127=ORIENTED_EDGE('',*,*,#181,.F.);
#128=ORIENTED_EDGE('',*,*,#183,.T.);
#129=ORIENTED_EDGE('',*,*,#184,.T.);
#130=ORIENTED_EDGE('',*,*,#182,.T.);
#131=ORIENTED_EDGE('',*,*,#185,.F.);
#132=ORIENTED_EDGE('',*,*,#180,.T.);
#133=ORIENTED_EDGE('',*,*,#184,.F.);
#134=ORIENTED_EDGE('',*,*,#186,.T.);
#135=ORIENTED_EDGE('',*,*,#185,.T.);
#136=ORIENTED_EDGE('',*,*,#186,.F.);
#137=ORIENTED_EDGE('',*,*,#187,.F.);
#138=ORIENTED_EDGE('',*,*,#188,.F.);
#139=ORIENTED_EDGE('',*,*,#189,.T.);
#140=ORIENTED_EDGE('',*,*,#190,.F.);
#141=ORIENTED_EDGE('',*,*,#187,.T.);
#142=ORIENTED_EDGE('',*,*,#183,.F.);
#143=ORIENTED_EDGE('',*,*,#189,.F.);
#144=ORIENTED_EDGE('',*,*,#191,.F.);
#145=ORIENTED_EDGE('',*,*,#190,.T.);
#146=ORIENTED_EDGE('',*,*,#192,.T.);
#147=ORIENTED_EDGE('',*,*,#193,.T.);
#148=ORIENTED_EDGE('',*,*,#193,.F.);
#149=ORIENTED_EDGE('',*,*,#194,.F.);
#150=ORIENTED_EDGE('',*,*,#192,.F.);
#151=ORIENTED_EDGE('',*,*,#188,.T.);
#152=ORIENTED_EDGE('',*,*,#191,.T.);
#153=ORIENTED_EDGE('',*,*,#194,.T.);
#154=VERTEX_POINT('',#469);
#155=VERTEX_POINT('',#470);
#156=VERTEX_POINT('',#472);
#157=VERTEX_POINT('',#478);
#158=VERTEX_POINT('',#480);
#159=VERTEX_POINT('',#487);
#160=VERTEX_POINT('',#488);
#161=VERTEX_POINT('',#492);
#162=VERTEX_POINT('',#494);
#163=VERTEX_POINT('',#500);
#164=VERTEX_POINT('',#501);
#165=VERTEX_POINT('',#508);
#166=VERTEX_POINT('',#510);
#167=VERTEX_POINT('',#516);
#168=VERTEX_POINT('',#518);
#169=EDGE_CURVE('',#154,#155,#195,.T.);
#170=EDGE_CURVE('',#156,#154,#245,.T.);
#171=EDGE_CURVE('',#156,#155,#246,.T.);
#172=EDGE_CURVE('',#155,#154,#196,.T.);
#173=EDGE_CURVE('',#155,#157,#247,.T.);
#174=EDGE_CURVE('',#154,#158,#248,.T.);
#175=EDGE_CURVE('',#158,#157,#197,.T.);
#176=EDGE_CURVE('',#157,#158,#198,.T.);
#177=EDGE_CURVE('',#159,#160,#199,.T.);
#178=EDGE_CURVE('',#160,#159,#200,.T.);
#179=EDGE_CURVE('',#161,#160,#249,.T.);
#180=EDGE_CURVE('',#162,#161,#201,.T.);
#181=EDGE_CURVE('',#162,#159,#250,.T.);
#182=EDGE_CURVE('',#161,#162,#202,.T.);
#183=EDGE_CURVE('',#163,#164,#203,.T.);
#184=EDGE_CURVE('',#164,#161,#251,.T.);
#185=EDGE_CURVE('',#163,#162,#252,.T.);
#186=EDGE_CURVE('',#164,#163,#204,.T.);
#187=EDGE_CURVE('',#165,#164,#253,.T.);
#188=EDGE_CURVE('',#166,#165,#205,.T.);
#189=EDGE_CURVE('',#166,#163,#254,.T.);
#190=EDGE_CURVE('',#165,#166,#206,.T.);
#191=EDGE_CURVE('',#165,#167,#255,.T.);
#192=EDGE_CURVE('',#166,#168,#256,.T.);
#193=EDGE_CURVE('',#168,#167,#207,.T.);
#194=EDGE_CURVE('',#167,#168,#208,.T.);
#195=CIRCLE('',#327,0.4);
#196=CIRCLE('',#329,0.4);
#197=CIRCLE('',#331,0.4);
#198=CIRCLE('',#333,0.4);
#199=CIRCLE('',#336,1.2);
#200=CIRCLE('',#337,1.2);
#201=CIRCLE('',#339,1.5);
#202=CIRCLE('',#341,1.5);
#203=CIRCLE('',#343,1.5);
#204=CIRCLE('',#345,1.5);
#205=CIRCLE('',#347,0.4);
#206=CIRCLE('',#349,0.4);
#207=CIRCLE('',#351,0.4);
#208=CIRCLE('',#353,0.4);
#209=CURVE_STYLE('',#223,POSITIVE_LENGTH_MEASURE(0.7),#311);
#210=CURVE_STYLE('',#224,POSITIVE_LENGTH_MEASURE(0.7),#311);
#211=CURVE_STYLE('',#225,POSITIVE_LENGTH_MEASURE(0.7),#311);
#212=CURVE_STYLE('',#226,POSITIVE_LENGTH_MEASURE(0.7),#311);
#213=CURVE_STYLE('',#227,POSITIVE_LENGTH_MEASURE(0.13),#312);
#214=CURVE_STYLE('',#228,POSITIVE_LENGTH_MEASURE(0.13),#312);
#215=CURVE_STYLE('',#229,POSITIVE_LENGTH_MEASURE(0.13),#313);
#216=CURVE_STYLE('',#230,POSITIVE_LENGTH_MEASURE(0.13),#313);
#217=CURVE_STYLE('',#231,POSITIVE_LENGTH_MEASURE(0.13),#312);
#218=CURVE_STYLE('',#232,POSITIVE_LENGTH_MEASURE(0.13),#312);
#219=CURVE_STYLE('',#233,POSITIVE_LENGTH_MEASURE(0.13),#313);
#220=CURVE_STYLE('',#234,POSITIVE_LENGTH_MEASURE(0.13),#312);
#221=CURVE_STYLE('',#235,POSITIVE_LENGTH_MEASURE(0.13),#312);
#222=CURVE_STYLE('',#236,POSITIVE_LENGTH_MEASURE(0.13),#312);
#223=DRAUGHTING_PRE_DEFINED_CURVE_FONT('continuous');
#224=DRAUGHTING_PRE_DEFINED_CURVE_FONT('continuous');
#225=DRAUGHTING_PRE_DEFINED_CURVE_FONT('continuous');
#226=DRAUGHTING_PRE_DEFINED_CURVE_FONT('continuous');
#227=DRAUGHTING_PRE_DEFINED_CURVE_FONT('continuous');
#228=DRAUGHTING_PRE_DEFINED_CURVE_FONT('continuous');
#229=DRAUGHTING_PRE_DEFINED_CURVE_FONT('continuous');
#230=DRAUGHTING_PRE_DEFINED_CURVE_FONT('continuous');
#231=DRAUGHTING_PRE_DEFINED_CURVE_FONT('continuous');
#232=DRAUGHTING_PRE_DEFINED_CURVE_FONT('continuous');
#233=DRAUGHTING_PRE_DEFINED_CURVE_FONT('continuous');
#234=DRAUGHTING_PRE_DEFINED_CURVE_FONT('continuous');
#235=DRAUGHTING_PRE_DEFINED_CURVE_FONT('continuous');
#236=DRAUGHTING_PRE_DEFINED_CURVE_FONT('continuous');
#237=TRIMMED_CURVE('',#241,(PARAMETER_VALUE(0.)),(PARAMETER_VALUE(1.)),
 .T.,.PARAMETER.);
#238=TRIMMED_CURVE('',#242,(PARAMETER_VALUE(0.)),(PARAMETER_VALUE(1.)),
 .T.,.PARAMETER.);
#239=TRIMMED_CURVE('',#243,(PARAMETER_VALUE(0.)),(PARAMETER_VALUE(1.)),
 .T.,.PARAMETER.);
#240=TRIMMED_CURVE('',#244,(PARAMETER_VALUE(0.)),(PARAMETER_VALUE(1.)),
 .T.,.PARAMETER.);
#241=LINE('',#454,#257);
#242=LINE('',#455,#258);
#243=LINE('',#456,#259);
#244=LINE('',#457,#260);
#245=LINE('',#471,#261);
#246=LINE('',#473,#262);
#247=LINE('',#477,#263);
#248=LINE('',#479,#264);
#249=LINE('',#491,#265);
#250=LINE('',#495,#266);
#251=LINE('',#502,#267);
#252=LINE('',#503,#268);
#253=LINE('',#507,#269);
#254=LINE('',#511,#270);
#255=LINE('',#515,#271);
#256=LINE('',#517,#272);
#257=VECTOR('',#358,0.425671108990401);
#258=VECTOR('',#359,0.85);
#259=VECTOR('',#360,0.4);
#260=VECTOR('',#361,0.9955880937065);
#261=VECTOR('',#384,1.);
#262=VECTOR('',#385,1.);
#263=VECTOR('',#392,1.);
#264=VECTOR('',#393,1.);
#265=VECTOR('',#410,1.);
#266=VECTOR('',#413,1.);
#267=VECTOR('',#422,1.);
#268=VECTOR('',#423,1.);
#269=VECTOR('',#430,1.);
#270=VECTOR('',#433,1.);
#271=VECTOR('',#440,1.);
#272=VECTOR('',#441,1.);
#273=PRESENTATION_LAYER_ASSIGNMENT('1','Layer 1',(#453,#237,#238,#239,#240,
#317,#318,#321,#322,#323,#324,#325,#326,#38,#39));
#274=PRESENTATION_LAYER_ASSIGNMENT('2','Layer 2',(#319,#320));
#275=STYLED_ITEM('',(#292),#453);
#276=STYLED_ITEM('',(#293),#237);
#277=STYLED_ITEM('',(#294),#238);
#278=STYLED_ITEM('',(#295),#239);
#279=STYLED_ITEM('',(#296),#240);
#280=STYLED_ITEM('',(#297),#317);
#281=STYLED_ITEM('',(#298),#318);
#282=STYLED_ITEM('',(#299),#319);
#283=STYLED_ITEM('',(#300),#320);
#284=STYLED_ITEM('',(#301),#321);
#285=STYLED_ITEM('',(#302),#322);
#286=STYLED_ITEM('',(#303),#323);
#287=STYLED_ITEM('',(#304),#324);
#288=STYLED_ITEM('',(#305),#325);
#289=STYLED_ITEM('',(#306),#326);
#290=STYLED_ITEM('',(#307),#38);
#291=STYLED_ITEM('',(#308),#39);
#292=PRESENTATION_STYLE_ASSIGNMENT((#309));
#293=PRESENTATION_STYLE_ASSIGNMENT((#209));
#294=PRESENTATION_STYLE_ASSIGNMENT((#210));
#295=PRESENTATION_STYLE_ASSIGNMENT((#211));
#296=PRESENTATION_STYLE_ASSIGNMENT((#212));
#297=PRESENTATION_STYLE_ASSIGNMENT((#213));
#298=PRESENTATION_STYLE_ASSIGNMENT((#214));
#299=PRESENTATION_STYLE_ASSIGNMENT((#215));
#300=PRESENTATION_STYLE_ASSIGNMENT((#216));
#301=PRESENTATION_STYLE_ASSIGNMENT((#217));
#302=PRESENTATION_STYLE_ASSIGNMENT((#218));
#303=PRESENTATION_STYLE_ASSIGNMENT((#219));
#304=PRESENTATION_STYLE_ASSIGNMENT((#220));
#305=PRESENTATION_STYLE_ASSIGNMENT((#221));
#306=PRESENTATION_STYLE_ASSIGNMENT((#222));
#307=PRESENTATION_STYLE_ASSIGNMENT((#28));
#308=PRESENTATION_STYLE_ASSIGNMENT((#29));
#309=POINT_STYLE('',#310,POSITIVE_LENGTH_MEASURE(3.),#311);
#310=PRE_DEFINED_POINT_MARKER_SYMBOL('plus');
#311=COLOUR_RGB('Medium Royal',0.301960784313725,0.427450980392157,0.701960784313725);
#312=COLOUR_RGB('Medium Maroon',0.6,0.4,0.4);
#313=COLOUR_RGB('Strong Fuchsia',0.505882352941176,0.254901960784314,0.403921568627451);
#314=COLOUR_RGB('light gray',0.8,0.8,0.8);
#315=COLOUR_RGB('medium gray',0.490196078431373,0.490196078431373,0.490196078431373);
#316=AXIS2_PLACEMENT_3D('',#452,#356,#357);
#317=AXIS2_PLACEMENT_3D('',#458,#362,#363);
#318=AXIS2_PLACEMENT_3D('',#459,#364,#365);
#319=AXIS2_PLACEMENT_3D('CIP',#460,#366,#367);
#320=AXIS2_PLACEMENT_3D('PCS',#461,#368,#369);
#321=AXIS2_PLACEMENT_3D('MCS',#462,#370,#371);
#322=AXIS2_PLACEMENT_3D('',#463,#372,#373);
#323=AXIS2_PLACEMENT_3D('STEP_TEMP_1_1',#464,#374,#375);
#324=AXIS2_PLACEMENT_3D('',#465,#376,#377);
#325=AXIS2_PLACEMENT_3D('',#466,#378,#379);
#326=AXIS2_PLACEMENT_3D('',#467,#380,#381);
#327=AXIS2_PLACEMENT_3D('',#468,#382,#383);
#328=AXIS2_PLACEMENT_3D('',#474,#386,#387);
#329=AXIS2_PLACEMENT_3D('',#475,#388,#389);
#330=AXIS2_PLACEMENT_3D('',#476,#390,#391);
#331=AXIS2_PLACEMENT_3D('',#481,#394,#395);
#332=AXIS2_PLACEMENT_3D('',#482,#396,#397);
#333=AXIS2_PLACEMENT_3D('',#483,#398,#399);
#334=AXIS2_PLACEMENT_3D('',#484,#400,#401);
#335=AXIS2_PLACEMENT_3D('',#485,#402,#403);
#336=AXIS2_PLACEMENT_3D('',#486,#404,#405);
#337=AXIS2_PLACEMENT_3D('',#489,#406,#407);
#338=AXIS2_PLACEMENT_3D('',#490,#408,#409);
#339=AXIS2_PLACEMENT_3D('',#493,#411,#412);
#340=AXIS2_PLACEMENT_3D('',#496,#414,#415);
#341=AXIS2_PLACEMENT_3D('',#497,#416,#417);
#342=AXIS2_PLACEMENT_3D('',#498,#418,#419);
#343=AXIS2_PLACEMENT_3D('',#499,#420,#421);
#344=AXIS2_PLACEMENT_3D('',#504,#424,#425);
#345=AXIS2_PLACEMENT_3D('',#505,#426,#427);
#346=AXIS2_PLACEMENT_3D('',#506,#428,#429);
#347=AXIS2_PLACEMENT_3D('',#509,#431,#432);
#348=AXIS2_PLACEMENT_3D('',#512,#434,#435);
#349=AXIS2_PLACEMENT_3D('',#513,#436,#437);
#350=AXIS2_PLACEMENT_3D('',#514,#438,#439);
#351=AXIS2_PLACEMENT_3D('',#519,#442,#443);
#352=AXIS2_PLACEMENT_3D('',#520,#444,#445);
#353=AXIS2_PLACEMENT_3D('',#521,#446,#447);
#354=AXIS2_PLACEMENT_3D('',#522,#448,#449);
#355=AXIS2_PLACEMENT_3D('',#523,#450,#451);
#356=DIRECTION('',(0.,0.,1.));
#357=DIRECTION('',(1.,0.,0.));
#358=DIRECTION('',(-0.939692620785897,0.,0.342020143325699));
#359=DIRECTION('',(0.,0.,1.));
#360=DIRECTION('',(1.,0.,0.));
#361=DIRECTION('',(0.,0.,-1.));
#362=DIRECTION('',(0.,0.,1.));
#363=DIRECTION('',(1.,0.,0.));
#364=DIRECTION('',(0.,0.,1.));
#365=DIRECTION('',(1.,0.,0.));
#366=DIRECTION('',(0.,0.,1.));
#367=DIRECTION('',(1.,0.,0.));
#368=DIRECTION('',(0.,0.,1.));
#369=DIRECTION('',(1.,0.,0.));
#370=DIRECTION('',(0.,0.,1.));
#371=DIRECTION('',(1.,0.,0.));
#372=DIRECTION('',(0.,0.,1.));
#373=DIRECTION('',(1.,0.,0.));
#374=DIRECTION('',(0.,0.,1.));
#375=DIRECTION('',(1.,0.,0.));
#376=DIRECTION('',(0.,0.,1.));
#377=DIRECTION('',(1.,0.,0.));
#378=DIRECTION('',(0.,0.,1.));
#379=DIRECTION('',(1.,0.,0.));
#380=DIRECTION('',(0.,0.,1.));
#381=DIRECTION('',(1.,0.,0.));
#382=DIRECTION('',(0.,0.,1.));
#383=DIRECTION('',(0.,-1.,0.));
#384=DIRECTION('',(0.,-0.939692620785897,0.342020143325699));
#385=DIRECTION('',(0.,0.939692620785897,0.342020143325699));
#386=DIRECTION('',(0.,0.,1.));
#387=DIRECTION('',(0.,1.,2.93966524651909E-17));
#388=DIRECTION('',(0.,0.,1.));
#389=DIRECTION('',(0.,1.,0.));
#390=DIRECTION('',(0.,0.,1.));
#391=DIRECTION('',(0.,1.,2.93966524651909E-17));
#392=DIRECTION('',(0.,0.,1.));
#393=DIRECTION('',(0.,0.,1.));
#394=DIRECTION('',(0.,0.,-1.));
#395=DIRECTION('',(0.,-1.,0.));
#396=DIRECTION('',(0.,0.,-1.));
#397=DIRECTION('',(0.,-1.,0.));
#398=DIRECTION('',(0.,0.,-1.));
#399=DIRECTION('',(0.,1.,0.));
#400=DIRECTION('',(0.,0.,-1.));
#401=DIRECTION('',(-1.,0.,0.));
#402=DIRECTION('',(0.,0.,-1.));
#403=DIRECTION('',(0.,-1.,0.));
#404=DIRECTION('',(0.,0.,-1.));
#405=DIRECTION('',(0.,1.,0.));
#406=DIRECTION('',(0.,0.,-1.));
#407=DIRECTION('',(0.,-1.,0.));
#408=DIRECTION('',(0.,0.,-1.));
#409=DIRECTION('',(0.,-1.,0.));
#410=DIRECTION('',(0.,0.707106781186498,0.707106781186597));
#411=DIRECTION('',(0.,0.,-1.));
#412=DIRECTION('',(0.,1.,0.));
#413=DIRECTION('',(0.,-0.707106781186498,0.707106781186597));
#414=DIRECTION('',(0.,0.,-1.));
#415=DIRECTION('',(0.,-1.,-3.464761970453E-17));
#416=DIRECTION('',(0.,0.,-1.));
#417=DIRECTION('',(0.,-1.,0.));
#418=DIRECTION('',(0.,0.,-1.));
#419=DIRECTION('',(0.,-1.,-3.464761970453E-17));
#420=DIRECTION('',(0.,0.,1.));
#421=DIRECTION('',(0.,1.,0.));
#422=DIRECTION('',(0.,0.,1.));
#423=DIRECTION('',(0.,0.,1.));
#424=DIRECTION('',(0.,0.,-1.));
#425=DIRECTION('',(0.,-1.,0.));
#426=DIRECTION('',(0.,0.,1.));
#427=DIRECTION('',(0.,-1.,0.));
#428=DIRECTION('',(0.,0.,-1.));
#429=DIRECTION('',(0.,-1.,0.));
#430=DIRECTION('',(0.,-0.258819045102493,0.965925826289076));
#431=DIRECTION('',(0.,0.,-1.));
#432=DIRECTION('',(0.,1.,0.));
#433=DIRECTION('',(0.,0.258819045102493,0.965925826289076));
#434=DIRECTION('',(0.,0.,1.));
#435=DIRECTION('',(0.,1.,2.96754942313705E-16));
#436=DIRECTION('',(0.,0.,-1.));
#437=DIRECTION('',(0.,-1.,0.));
#438=DIRECTION('',(0.,0.,1.));
#439=DIRECTION('',(0.,1.,2.96754942313705E-16));
#440=DIRECTION('',(0.,0.,-1.));
#441=DIRECTION('',(0.,0.,-1.));
#442=DIRECTION('',(0.,0.,1.));
#443=DIRECTION('',(0.,1.,0.));
#444=DIRECTION('',(0.,0.,-1.));
#445=DIRECTION('',(0.,-1.,0.));
#446=DIRECTION('',(0.,0.,1.));
#447=DIRECTION('',(0.,-1.,0.));
#448=DIRECTION('',(0.,0.,1.));
#449=DIRECTION('',(1.,0.,0.));
#450=DIRECTION('',(0.,0.,-1.));
#451=DIRECTION('',(0.,-1.,0.));
#452=CARTESIAN_POINT('',(0.,0.,0.));
#453=CARTESIAN_POINT('CRP',(-0.4,0.,0.1455880937065));
#454=CARTESIAN_POINT('',(0.,0.,0.));
#455=CARTESIAN_POINT('',(-0.4,0.,0.1455880937065));
#456=CARTESIAN_POINT('',(-0.4,0.,0.9955880937065));
#457=CARTESIAN_POINT('',(0.,0.,0.9955880937065));
#458=CARTESIAN_POINT('',(0.,0.,0.));
#459=CARTESIAN_POINT('',(0.,0.,0.));
#460=CARTESIAN_POINT('',(0.,0.,0.));
#461=CARTESIAN_POINT('',(0.,0.,50.14558809371));
#462=CARTESIAN_POINT('',(0.,0.,10.14558809));
#463=CARTESIAN_POINT('',(0.,0.,0.));
#464=CARTESIAN_POINT('',(0.,0.,0.));
#465=CARTESIAN_POINT('',(0.,0.,0.));
#466=CARTESIAN_POINT('',(0.,0.,0.));
#467=CARTESIAN_POINT('',(0.,0.,0.));
#468=CARTESIAN_POINT('',(0.,0.,0.1455880937065));
#469=CARTESIAN_POINT('',(0.,-0.4,0.1455880937065));
#470=CARTESIAN_POINT('',(0.,0.4,0.1455880937065));
#471=CARTESIAN_POINT('',(0.,-0.4,0.1455880937065));
#472=CARTESIAN_POINT('',(0.,0.,-1.487698852998E-14));
#473=CARTESIAN_POINT('',(0.,0.4,0.1455880937065));
#474=CARTESIAN_POINT('',(0.,0.,0.07424992779029));
#475=CARTESIAN_POINT('',(0.,0.,0.1455880937065));
#476=CARTESIAN_POINT('',(0.,0.,0.07424992779029));
#477=CARTESIAN_POINT('',(0.,0.4,0.945588094));
#478=CARTESIAN_POINT('',(0.,0.4,0.945588094));
#479=CARTESIAN_POINT('',(0.,-0.4,0.945588094));
#480=CARTESIAN_POINT('',(0.,-0.4,0.945588094));
#481=CARTESIAN_POINT('',(0.,0.,0.945588094));
#482=CARTESIAN_POINT('',(0.,0.,52.65286749839));
#483=CARTESIAN_POINT('',(0.,0.,0.945588094));
#484=CARTESIAN_POINT('',(150.,150.,0.945588094));
#485=CARTESIAN_POINT('',(0.,0.,52.65286749839));
#486=CARTESIAN_POINT('',(0.,0.,50.14558809371));
#487=CARTESIAN_POINT('',(0.,1.2,50.14558809371));
#488=CARTESIAN_POINT('',(0.,-1.2,50.14558809371));
#489=CARTESIAN_POINT('',(0.,0.,50.14558809371));
#490=CARTESIAN_POINT('',(0.,0.,50.14558809371));
#491=CARTESIAN_POINT('',(0.,-1.2,50.14558809371));
#492=CARTESIAN_POINT('',(0.,-1.5,49.84558809371));
#493=CARTESIAN_POINT('',(0.,0.,49.84558809371));
#494=CARTESIAN_POINT('',(0.,1.5,49.84558809371));
#495=CARTESIAN_POINT('',(0.,1.2,50.14558809371));
#496=CARTESIAN_POINT('',(0.,0.,49.99558809371));
#497=CARTESIAN_POINT('',(0.,0.,49.84558809371));
#498=CARTESIAN_POINT('',(0.,0.,49.99558809371));
#499=CARTESIAN_POINT('',(0.,0.,8.145588093707));
#500=CARTESIAN_POINT('',(0.,1.5,8.145588093707));
#501=CARTESIAN_POINT('',(0.,-1.5,8.145588093707));
#502=CARTESIAN_POINT('',(0.,-1.5,49.84558809371));
#503=CARTESIAN_POINT('',(0.,1.5,49.84558809371));
#504=CARTESIAN_POINT('',(0.,0.,52.65286749839));
#505=CARTESIAN_POINT('',(0.,0.,8.145588093707));
#506=CARTESIAN_POINT('',(0.,0.,52.65286749839));
#507=CARTESIAN_POINT('',(0.,-1.5,8.145588093707));
#508=CARTESIAN_POINT('',(0.,-0.4,4.040332205381));
#509=CARTESIAN_POINT('',(0.,0.,4.040332205381));
#510=CARTESIAN_POINT('',(0.,0.4,4.040332205381));
#511=CARTESIAN_POINT('',(0.,1.5,8.145588093707));
#512=CARTESIAN_POINT('',(0.,0.,6.092960149544));
#513=CARTESIAN_POINT('',(0.,0.,4.040332205381));
#514=CARTESIAN_POINT('',(0.,0.,6.092960149544));
#515=CARTESIAN_POINT('',(0.,-0.4,4.040332205381));
#516=CARTESIAN_POINT('',(0.,-0.4,0.945588094));
#517=CARTESIAN_POINT('',(0.,0.4,4.040332205381));
#518=CARTESIAN_POINT('',(0.,0.4,0.945588094));
#519=CARTESIAN_POINT('',(0.,0.,0.945588094));
#520=CARTESIAN_POINT('',(0.,0.,52.65286749839));
#521=CARTESIAN_POINT('',(0.,0.,0.945588094));
#522=CARTESIAN_POINT('',(-150.,150.,0.945588094));
#523=CARTESIAN_POINT('',(0.,0.,52.65286749839));
#524=MECHANICAL_DESIGN_GEOMETRIC_PRESENTATION_REPRESENTATION('',(#275,#276,
#277,#278,#279,#280,#281,#282,#283,#284,#285,#286,#287,#288,#289,#290,#291),
#525);
#525=(
GEOMETRIC_REPRESENTATION_CONTEXT(3)
GLOBAL_UNCERTAINTY_ASSIGNED_CONTEXT((#526))
GLOBAL_UNIT_ASSIGNED_CONTEXT((#532,#528,#527))
REPRESENTATION_CONTEXT('MWS0080SB','TOP_LEVEL_ASSEMBLY_PART')
);
#526=UNCERTAINTY_MEASURE_WITH_UNIT(LENGTH_MEASURE(0.001),#532,
'DISTANCE_ACCURACY_VALUE','Maximum Tolerance applied to model');
#527=(
NAMED_UNIT(*)
SI_UNIT($,.STERADIAN.)
SOLID_ANGLE_UNIT()
);
#528=(
CONVERSION_BASED_UNIT('DEGREE',#530)
NAMED_UNIT(#529)
PLANE_ANGLE_UNIT()
);
#529=DIMENSIONAL_EXPONENTS(0.,0.,0.,0.,0.,0.,0.);
#530=PLANE_ANGLE_MEASURE_WITH_UNIT(PLANE_ANGLE_MEASURE(0.0174532925),#531);
#531=(
NAMED_UNIT(*)
PLANE_ANGLE_UNIT()
SI_UNIT($,.RADIAN.)
);
#532=(
LENGTH_UNIT()
NAMED_UNIT(*)
SI_UNIT(.MILLI.,.METRE.)
);
ENDSEC;
END-ISO-10303-21;
