ISO-10303-21;
HEADER;
/* Generated by software containing ST-Developer
 * from STEP Tools, Inc. (www.steptools.com) 
 */
/* OPTION: using custom schema-name function */

FILE_DESCRIPTION(
/* description */ (''),
/* implementation_level */ '2;1');

FILE_NAME(
/* name */ 'TAWSN0112_ID1_1719.stp',
/* time_stamp */ '2025-06-11T17:03:13+09:00',
/* author */ (''),
/* organization */ (''),
/* preprocessor_version */ 'ST-DEVELOPER v18.101',
/* originating_system */ 'SIEMENS PLM Software NX 2011',
/* authorisation */ '');

FILE_SCHEMA (('AUTOMOTIVE_DESIGN { 1 0 10303 214 3 1 1 1 }'));
ENDSEC;

DATA;
#10=CONSTRUCTIVE_GEOMETRY_REPRESENTATION_RELATIONSHIP(
'supplemental geometry','',#26,#11);
#11=CONSTRUCTIVE_GEOMETRY_REPRESENTATION('supplemental geometry',(#357,
#358,#359,#360,#361,#362,#363),#621);
#12=GEOMETRICALLY_BOUNDED_WIREFRAME_SHAPE_REPRESENTATION(
'TAWSN0112_ID1_1719-None',(#27),#621);
#13=SHAPE_REPRESENTATION_RELATIONSHIP('None',
'relationship between TAWSN0112_ID1_1719-None and TAWSN0112_ID1_1719-N
one',#26,#15);
#14=SHAPE_REPRESENTATION_RELATIONSHIP('None',
'relationship between TAWSN0112_ID1_1719-None and TAWSN0112_ID1_1719-N
one',#26,#12);
#15=ADVANCED_BREP_SHAPE_REPRESENTATION('TAWSN0112_ID1_1719-None',(#42,#43),
#621);
#16=SHAPE_DEFINITION_REPRESENTATION(#17,#26);
#17=PRODUCT_DEFINITION_SHAPE('','SHAPE FOR TAWSN0112_ID1_1719_ASM.',#18);
#18=PRODUCT_DEFINITION('part definition','',#20,#19);
#19=PRODUCT_DEFINITION_CONTEXT('part definition',#25,'design');
#20=PRODUCT_DEFINITION_FORMATION_WITH_SPECIFIED_SOURCE(' ',' ',#22,
 .NOT_KNOWN.);
#21=PRODUCT_RELATED_PRODUCT_CATEGORY('part','',(#22));
#22=PRODUCT('TAWSN0112_ID1_1719_ASM','TAWSN0112_ID1_1719_ASM',
'NOT SPECIFIED',(#23));
#23=PRODUCT_CONTEXT('',#25,'mechanical');
#24=APPLICATION_PROTOCOL_DEFINITION('international standard',
'automotive_design',2010,#25);
#25=APPLICATION_CONTEXT(
'core data for automotive mechanical design processes');
#26=SHAPE_REPRESENTATION('TAWSN0112_ID1_1719-None',(#356),#621);
#27=GEOMETRIC_CURVE_SET('None',(#512,#287,#288,#289,#290));
#28=TOROIDAL_SURFACE('',#387,16.00892465197,0.4);
#29=TOROIDAL_SURFACE('',#389,16.00892465197,0.4);
#30=TOROIDAL_SURFACE('',#399,14.9,0.4);
#31=TOROIDAL_SURFACE('',#401,14.9,0.4);
#32=SURFACE_STYLE_USAGE(.BOTH.,#34);
#33=SURFACE_STYLE_USAGE(.BOTH.,#35);
#34=SURFACE_SIDE_STYLE('',(#36));
#35=SURFACE_SIDE_STYLE('',(#37));
#36=SURFACE_STYLE_FILL_AREA(#38);
#37=SURFACE_STYLE_FILL_AREA(#39);
#38=FILL_AREA_STYLE('',(#40));
#39=FILL_AREA_STYLE('',(#41));
#40=FILL_AREA_STYLE_COLOUR('',#354);
#41=FILL_AREA_STYLE_COLOUR('',#355);
#42=MANIFOLD_SOLID_BREP('CUT',#44);
#43=MANIFOLD_SOLID_BREP('NOCUT',#45);
#44=CLOSED_SHELL('',(#75,#76,#77,#78,#79));
#45=CLOSED_SHELL('',(#80,#81,#82,#83,#84,#85,#86,#87,#88,#89,#90,#91,#92,
#93));
#46=PLANE('',#370);
#47=PLANE('',#376);
#48=PLANE('',#394);
#49=CYLINDRICAL_SURFACE('',#367,14.88313);
#50=CYLINDRICAL_SURFACE('',#369,14.88313);
#51=CYLINDRICAL_SURFACE('',#373,15.875);
#52=CYLINDRICAL_SURFACE('',#381,15.875);
#53=CYLINDRICAL_SURFACE('',#396,14.5);
#54=CYLINDRICAL_SURFACE('',#402,14.5);
#55=CIRCLE('',#366,14.88313);
#56=CIRCLE('',#368,14.88313);
#57=CIRCLE('',#371,15.875);
#58=CIRCLE('',#372,15.875);
#59=CIRCLE('',#374,14.72029946162);
#60=CIRCLE('',#375,14.72029946162);
#61=CIRCLE('',#378,15.875);
#62=CIRCLE('',#380,15.875);
#63=CIRCLE('',#382,14.70812019883);
#64=CIRCLE('',#383,15.60930536334);
#65=CIRCLE('',#385,0.4);
#66=CIRCLE('',#386,0.4);
#67=CIRCLE('',#388,15.60930536334);
#68=CIRCLE('',#390,14.70812019882);
#69=CIRCLE('',#392,14.5);
#70=CIRCLE('',#393,14.5);
#71=CIRCLE('',#395,14.5);
#72=CIRCLE('',#397,0.4);
#73=CIRCLE('',#398,0.4);
#74=CIRCLE('',#400,14.5);
#75=ADVANCED_FACE('',(#100),#94,.T.);
#76=ADVANCED_FACE('',(#101),#95,.T.);
#77=ADVANCED_FACE('',(#102),#49,.T.);
#78=ADVANCED_FACE('',(#103),#50,.T.);
#79=ADVANCED_FACE('',(#104),#46,.T.);
#80=ADVANCED_FACE('',(#105),#51,.T.);
#81=ADVANCED_FACE('',(#106),#47,.T.);
#82=ADVANCED_FACE('',(#107),#96,.T.);
#83=ADVANCED_FACE('',(#108),#97,.T.);
#84=ADVANCED_FACE('',(#109),#52,.T.);
#85=ADVANCED_FACE('',(#110),#98,.T.);
#86=ADVANCED_FACE('',(#111),#28,.F.);
#87=ADVANCED_FACE('',(#112),#29,.F.);
#88=ADVANCED_FACE('',(#113),#99,.T.);
#89=ADVANCED_FACE('',(#114),#48,.F.);
#90=ADVANCED_FACE('',(#115),#53,.T.);
#91=ADVANCED_FACE('',(#116),#30,.F.);
#92=ADVANCED_FACE('',(#117),#31,.F.);
#93=ADVANCED_FACE('',(#118),#54,.T.);
#94=CONICAL_SURFACE('',#364,7.590396299995,70.0000971436908);
#95=CONICAL_SURFACE('',#365,7.590396299995,70.0000971436908);
#96=CONICAL_SURFACE('',#377,15.29764973081,30.0000416330103);
#97=CONICAL_SURFACE('',#379,15.29764973081,30.0000416330103);
#98=CONICAL_SURFACE('',#384,15.15871278109,2.50000346941753);
#99=CONICAL_SURFACE('',#391,15.15871278108,2.50000346941753);
#100=FACE_OUTER_BOUND('',#119,.T.);
#101=FACE_OUTER_BOUND('',#120,.T.);
#102=FACE_OUTER_BOUND('',#121,.T.);
#103=FACE_OUTER_BOUND('',#122,.T.);
#104=FACE_OUTER_BOUND('',#123,.T.);
#105=FACE_OUTER_BOUND('',#124,.T.);
#106=FACE_OUTER_BOUND('',#125,.T.);
#107=FACE_OUTER_BOUND('',#126,.T.);
#108=FACE_OUTER_BOUND('',#127,.T.);
#109=FACE_OUTER_BOUND('',#128,.T.);
#110=FACE_OUTER_BOUND('',#129,.T.);
#111=FACE_OUTER_BOUND('',#130,.T.);
#112=FACE_OUTER_BOUND('',#131,.T.);
#113=FACE_OUTER_BOUND('',#132,.T.);
#114=FACE_OUTER_BOUND('',#133,.T.);
#115=FACE_OUTER_BOUND('',#134,.T.);
#116=FACE_OUTER_BOUND('',#135,.T.);
#117=FACE_OUTER_BOUND('',#136,.T.);
#118=FACE_OUTER_BOUND('',#137,.T.);
#119=EDGE_LOOP('',(#138,#139,#140));
#120=EDGE_LOOP('',(#141,#142,#143));
#121=EDGE_LOOP('',(#144,#145,#146,#147));
#122=EDGE_LOOP('',(#148,#149,#150,#151));
#123=EDGE_LOOP('',(#152,#153));
#124=EDGE_LOOP('',(#154,#155,#156,#157));
#125=EDGE_LOOP('',(#158,#159));
#126=EDGE_LOOP('',(#160,#161,#162,#163));
#127=EDGE_LOOP('',(#164,#165,#166,#167));
#128=EDGE_LOOP('',(#168,#169,#170,#171));
#129=EDGE_LOOP('',(#172,#173,#174,#175));
#130=EDGE_LOOP('',(#176,#177,#178,#179));
#131=EDGE_LOOP('',(#180,#181,#182,#183));
#132=EDGE_LOOP('',(#184,#185,#186,#187));
#133=EDGE_LOOP('',(#188,#189));
#134=EDGE_LOOP('',(#190,#191,#192,#193));
#135=EDGE_LOOP('',(#194,#195,#196,#197));
#136=EDGE_LOOP('',(#198,#199,#200,#201));
#137=EDGE_LOOP('',(#202,#203,#204,#205));
#138=ORIENTED_EDGE('',*,*,#225,.T.);
#139=ORIENTED_EDGE('',*,*,#226,.F.);
#140=ORIENTED_EDGE('',*,*,#227,.T.);
#141=ORIENTED_EDGE('',*,*,#227,.F.);
#142=ORIENTED_EDGE('',*,*,#226,.T.);
#143=ORIENTED_EDGE('',*,*,#228,.T.);
#144=ORIENTED_EDGE('',*,*,#228,.F.);
#145=ORIENTED_EDGE('',*,*,#229,.F.);
#146=ORIENTED_EDGE('',*,*,#230,.F.);
#147=ORIENTED_EDGE('',*,*,#231,.T.);
#148=ORIENTED_EDGE('',*,*,#225,.F.);
#149=ORIENTED_EDGE('',*,*,#231,.F.);
#150=ORIENTED_EDGE('',*,*,#232,.F.);
#151=ORIENTED_EDGE('',*,*,#229,.T.);
#152=ORIENTED_EDGE('',*,*,#230,.T.);
#153=ORIENTED_EDGE('',*,*,#232,.T.);
#154=ORIENTED_EDGE('',*,*,#233,.T.);
#155=ORIENTED_EDGE('',*,*,#234,.F.);
#156=ORIENTED_EDGE('',*,*,#235,.F.);
#157=ORIENTED_EDGE('',*,*,#236,.F.);
#158=ORIENTED_EDGE('',*,*,#237,.T.);
#159=ORIENTED_EDGE('',*,*,#238,.T.);
#160=ORIENTED_EDGE('',*,*,#236,.T.);
#161=ORIENTED_EDGE('',*,*,#239,.T.);
#162=ORIENTED_EDGE('',*,*,#238,.F.);
#163=ORIENTED_EDGE('',*,*,#240,.F.);
#164=ORIENTED_EDGE('',*,*,#237,.F.);
#165=ORIENTED_EDGE('',*,*,#239,.F.);
#166=ORIENTED_EDGE('',*,*,#241,.T.);
#167=ORIENTED_EDGE('',*,*,#240,.T.);
#168=ORIENTED_EDGE('',*,*,#235,.T.);
#169=ORIENTED_EDGE('',*,*,#242,.F.);
#170=ORIENTED_EDGE('',*,*,#233,.F.);
#171=ORIENTED_EDGE('',*,*,#241,.F.);
#172=ORIENTED_EDGE('',*,*,#243,.F.);
#173=ORIENTED_EDGE('',*,*,#244,.F.);
#174=ORIENTED_EDGE('',*,*,#245,.T.);
#175=ORIENTED_EDGE('',*,*,#246,.F.);
#176=ORIENTED_EDGE('',*,*,#247,.T.);
#177=ORIENTED_EDGE('',*,*,#242,.T.);
#178=ORIENTED_EDGE('',*,*,#248,.F.);
#179=ORIENTED_EDGE('',*,*,#246,.T.);
#180=ORIENTED_EDGE('',*,*,#248,.T.);
#181=ORIENTED_EDGE('',*,*,#234,.T.);
#182=ORIENTED_EDGE('',*,*,#247,.F.);
#183=ORIENTED_EDGE('',*,*,#249,.T.);
#184=ORIENTED_EDGE('',*,*,#245,.F.);
#185=ORIENTED_EDGE('',*,*,#250,.F.);
#186=ORIENTED_EDGE('',*,*,#243,.T.);
#187=ORIENTED_EDGE('',*,*,#249,.F.);
#188=ORIENTED_EDGE('',*,*,#251,.T.);
#189=ORIENTED_EDGE('',*,*,#252,.T.);
#190=ORIENTED_EDGE('',*,*,#253,.T.);
#191=ORIENTED_EDGE('',*,*,#251,.F.);
#192=ORIENTED_EDGE('',*,*,#254,.F.);
#193=ORIENTED_EDGE('',*,*,#255,.F.);
#194=ORIENTED_EDGE('',*,*,#256,.F.);
#195=ORIENTED_EDGE('',*,*,#250,.T.);
#196=ORIENTED_EDGE('',*,*,#257,.T.);
#197=ORIENTED_EDGE('',*,*,#255,.T.);
#198=ORIENTED_EDGE('',*,*,#257,.F.);
#199=ORIENTED_EDGE('',*,*,#244,.T.);
#200=ORIENTED_EDGE('',*,*,#256,.T.);
#201=ORIENTED_EDGE('',*,*,#258,.T.);
#202=ORIENTED_EDGE('',*,*,#254,.T.);
#203=ORIENTED_EDGE('',*,*,#252,.F.);
#204=ORIENTED_EDGE('',*,*,#253,.F.);
#205=ORIENTED_EDGE('',*,*,#258,.F.);
#206=VERTEX_POINT('',#534);
#207=VERTEX_POINT('',#535);
#208=VERTEX_POINT('',#540);
#209=VERTEX_POINT('',#558);
#210=VERTEX_POINT('',#560);
#211=VERTEX_POINT('',#567);
#212=VERTEX_POINT('',#568);
#213=VERTEX_POINT('',#570);
#214=VERTEX_POINT('',#572);
#215=VERTEX_POINT('',#576);
#216=VERTEX_POINT('',#577);
#217=VERTEX_POINT('',#588);
#218=VERTEX_POINT('',#589);
#219=VERTEX_POINT('',#591);
#220=VERTEX_POINT('',#593);
#221=VERTEX_POINT('',#604);
#222=VERTEX_POINT('',#605);
#223=VERTEX_POINT('',#609);
#224=VERTEX_POINT('',#611);
#225=EDGE_CURVE('',#206,#207,#259,.T.);
#226=EDGE_CURVE('',#208,#207,#260,.T.);
#227=EDGE_CURVE('',#208,#206,#261,.T.);
#228=EDGE_CURVE('',#207,#206,#262,.T.);
#229=EDGE_CURVE('',#209,#207,#295,.T.);
#230=EDGE_CURVE('',#210,#209,#55,.T.);
#231=EDGE_CURVE('',#210,#206,#296,.T.);
#232=EDGE_CURVE('',#209,#210,#56,.T.);
#233=EDGE_CURVE('',#211,#212,#297,.T.);
#234=EDGE_CURVE('',#213,#212,#57,.T.);
#235=EDGE_CURVE('',#214,#213,#298,.T.);
#236=EDGE_CURVE('',#211,#214,#58,.T.);
#237=EDGE_CURVE('',#215,#216,#59,.T.);
#238=EDGE_CURVE('',#216,#215,#60,.T.);
#239=EDGE_CURVE('',#214,#215,#299,.T.);
#240=EDGE_CURVE('',#211,#216,#300,.T.);
#241=EDGE_CURVE('',#214,#211,#61,.T.);
#242=EDGE_CURVE('',#212,#213,#62,.T.);
#243=EDGE_CURVE('',#217,#218,#301,.T.);
#244=EDGE_CURVE('',#219,#217,#63,.T.);
#245=EDGE_CURVE('',#219,#220,#302,.T.);
#246=EDGE_CURVE('',#218,#220,#64,.T.);
#247=EDGE_CURVE('',#220,#212,#65,.T.);
#248=EDGE_CURVE('',#218,#213,#66,.T.);
#249=EDGE_CURVE('',#220,#218,#67,.T.);
#250=EDGE_CURVE('',#217,#219,#68,.T.);
#251=EDGE_CURVE('',#221,#222,#69,.T.);
#252=EDGE_CURVE('',#222,#221,#70,.T.);
#253=EDGE_CURVE('',#223,#222,#303,.T.);
#254=EDGE_CURVE('',#224,#221,#304,.T.);
#255=EDGE_CURVE('',#223,#224,#71,.T.);
#256=EDGE_CURVE('',#217,#224,#72,.T.);
#257=EDGE_CURVE('',#219,#223,#73,.T.);
#258=EDGE_CURVE('',#224,#223,#74,.T.);
#259=B_SPLINE_CURVE_WITH_KNOTS('',3,(#524,#525,#526,#527,#528,#529,#530,
#531,#532,#533),.UNSPECIFIED.,.F.,.F.,(4,2,2,2,4),(0.,0.25,0.5,0.75,1.),
 .UNSPECIFIED.);
#260=B_SPLINE_CURVE_WITH_KNOTS('',3,(#536,#537,#538,#539),.UNSPECIFIED.,
 .F.,.F.,(4,4),(0.,1.),.UNSPECIFIED.);
#261=B_SPLINE_CURVE_WITH_KNOTS('',3,(#541,#542,#543,#544),.UNSPECIFIED.,
 .F.,.F.,(4,4),(0.,1.),.UNSPECIFIED.);
#262=B_SPLINE_CURVE_WITH_KNOTS('',3,(#546,#547,#548,#549,#550,#551,#552,
#553,#554,#555),.UNSPECIFIED.,.F.,.F.,(4,2,2,2,4),(0.,0.25,0.5,0.75,1.),
 .UNSPECIFIED.);
#263=CURVE_STYLE('',#276,POSITIVE_LENGTH_MEASURE(0.13),#274);
#264=CURVE_STYLE('',#277,POSITIVE_LENGTH_MEASURE(0.13),#274);
#265=CURVE_STYLE('',#278,POSITIVE_LENGTH_MEASURE(0.13),#274);
#266=CURVE_STYLE('',#279,POSITIVE_LENGTH_MEASURE(0.13),#274);
#267=CURVE_STYLE('',#280,POSITIVE_LENGTH_MEASURE(0.13),#353);
#268=CURVE_STYLE('',#281,POSITIVE_LENGTH_MEASURE(0.13),#353);
#269=CURVE_STYLE('',#282,POSITIVE_LENGTH_MEASURE(0.13),#275);
#270=CURVE_STYLE('',#283,POSITIVE_LENGTH_MEASURE(0.13),#275);
#271=CURVE_STYLE('',#284,POSITIVE_LENGTH_MEASURE(0.13),#275);
#272=CURVE_STYLE('',#285,POSITIVE_LENGTH_MEASURE(0.13),#353);
#273=CURVE_STYLE('',#286,POSITIVE_LENGTH_MEASURE(0.13),#353);
#274=DRAUGHTING_PRE_DEFINED_COLOUR('blue');
#275=DRAUGHTING_PRE_DEFINED_COLOUR('yellow');
#276=DRAUGHTING_PRE_DEFINED_CURVE_FONT('continuous');
#277=DRAUGHTING_PRE_DEFINED_CURVE_FONT('continuous');
#278=DRAUGHTING_PRE_DEFINED_CURVE_FONT('continuous');
#279=DRAUGHTING_PRE_DEFINED_CURVE_FONT('continuous');
#280=DRAUGHTING_PRE_DEFINED_CURVE_FONT('continuous');
#281=DRAUGHTING_PRE_DEFINED_CURVE_FONT('continuous');
#282=DRAUGHTING_PRE_DEFINED_CURVE_FONT('continuous');
#283=DRAUGHTING_PRE_DEFINED_CURVE_FONT('continuous');
#284=DRAUGHTING_PRE_DEFINED_CURVE_FONT('continuous');
#285=DRAUGHTING_PRE_DEFINED_CURVE_FONT('continuous');
#286=DRAUGHTING_PRE_DEFINED_CURVE_FONT('continuous');
#287=TRIMMED_CURVE('',#291,(PARAMETER_VALUE(0.)),(PARAMETER_VALUE(1.)),
 .T.,.PARAMETER.);
#288=TRIMMED_CURVE('',#292,(PARAMETER_VALUE(0.)),(PARAMETER_VALUE(1.)),
 .T.,.PARAMETER.);
#289=TRIMMED_CURVE('',#293,(PARAMETER_VALUE(0.)),(PARAMETER_VALUE(1.)),
 .T.,.PARAMETER.);
#290=TRIMMED_CURVE('',#294,(PARAMETER_VALUE(0.)),(PARAMETER_VALUE(1.)),
 .T.,.PARAMETER.);
#291=LINE('',#513,#305);
#292=LINE('',#514,#306);
#293=LINE('',#515,#307);
#294=LINE('',#516,#308);
#295=LINE('',#557,#309);
#296=LINE('',#561,#310);
#297=LINE('',#566,#311);
#298=LINE('',#571,#312);
#299=LINE('',#580,#313);
#300=LINE('',#581,#314);
#301=LINE('',#587,#315);
#302=LINE('',#592,#316);
#303=LINE('',#608,#317);
#304=LINE('',#610,#318);
#305=VECTOR('',#405,17.32961631271);
#306=VECTOR('',#406,15.83829613087);
#307=VECTOR('',#407,11.9126);
#308=VECTOR('',#408,14.88313);
#309=VECTOR('',#427,1.);
#310=VECTOR('',#430,1.);
#311=VECTOR('',#439,1.);
#312=VECTOR('',#442,1.);
#313=VECTOR('',#453,1.);
#314=VECTOR('',#454,1.);
#315=VECTOR('',#465,1.);
#316=VECTOR('',#468,1.);
#317=VECTOR('',#493,1.);
#318=VECTOR('',#494,1.);
#319=PRESENTATION_LAYER_ASSIGNMENT('1','Layer 1',(#512,#357,#358,#362,#363,
#42,#43));
#320=PRESENTATION_LAYER_ASSIGNMENT('3','Layer 3',(#287,#288,#289,#290));
#321=PRESENTATION_LAYER_ASSIGNMENT('2','Layer 2',(#359,#360,#361));
#322=STYLED_ITEM('',(#336),#512);
#323=STYLED_ITEM('',(#337),#287);
#324=STYLED_ITEM('',(#338),#288);
#325=STYLED_ITEM('',(#339),#289);
#326=STYLED_ITEM('',(#340),#290);
#327=STYLED_ITEM('',(#341),#357);
#328=STYLED_ITEM('',(#342),#358);
#329=STYLED_ITEM('',(#343),#359);
#330=STYLED_ITEM('',(#344),#360);
#331=STYLED_ITEM('',(#345),#361);
#332=STYLED_ITEM('',(#346),#362);
#333=STYLED_ITEM('',(#347),#363);
#334=STYLED_ITEM('',(#348),#42);
#335=STYLED_ITEM('',(#349),#43);
#336=PRESENTATION_STYLE_ASSIGNMENT((#350));
#337=PRESENTATION_STYLE_ASSIGNMENT((#263));
#338=PRESENTATION_STYLE_ASSIGNMENT((#264));
#339=PRESENTATION_STYLE_ASSIGNMENT((#265));
#340=PRESENTATION_STYLE_ASSIGNMENT((#266));
#341=PRESENTATION_STYLE_ASSIGNMENT((#267));
#342=PRESENTATION_STYLE_ASSIGNMENT((#268));
#343=PRESENTATION_STYLE_ASSIGNMENT((#269));
#344=PRESENTATION_STYLE_ASSIGNMENT((#270));
#345=PRESENTATION_STYLE_ASSIGNMENT((#271));
#346=PRESENTATION_STYLE_ASSIGNMENT((#272));
#347=PRESENTATION_STYLE_ASSIGNMENT((#273));
#348=PRESENTATION_STYLE_ASSIGNMENT((#32));
#349=PRESENTATION_STYLE_ASSIGNMENT((#33));
#350=POINT_STYLE('',#351,POSITIVE_LENGTH_MEASURE(3.),#352);
#351=PRE_DEFINED_POINT_MARKER_SYMBOL('plus');
#352=COLOUR_RGB('Medium Royal',0.301960784313725,0.427450980392157,0.701960784313725);
#353=COLOUR_RGB('Medium Maroon',0.6,0.4,0.4);
#354=COLOUR_RGB('light gray',0.8,0.8,0.8);
#355=COLOUR_RGB('medium gray',0.490196078431373,0.490196078431373,0.490196078431373);
#356=AXIS2_PLACEMENT_3D('',#511,#403,#404);
#357=AXIS2_PLACEMENT_3D('',#517,#409,#410);
#358=AXIS2_PLACEMENT_3D('',#518,#411,#412);
#359=AXIS2_PLACEMENT_3D('MCS',#519,#413,#414);
#360=AXIS2_PLACEMENT_3D('CIP',#520,#415,#416);
#361=AXIS2_PLACEMENT_3D('PCS',#521,#417,#418);
#362=AXIS2_PLACEMENT_3D('',#522,#419,#420);
#363=AXIS2_PLACEMENT_3D('',#523,#421,#422);
#364=AXIS2_PLACEMENT_3D('',#545,#423,#424);
#365=AXIS2_PLACEMENT_3D('',#556,#425,#426);
#366=AXIS2_PLACEMENT_3D('',#559,#428,#429);
#367=AXIS2_PLACEMENT_3D('',#562,#431,#432);
#368=AXIS2_PLACEMENT_3D('',#563,#433,#434);
#369=AXIS2_PLACEMENT_3D('',#564,#435,#436);
#370=AXIS2_PLACEMENT_3D('',#565,#437,#438);
#371=AXIS2_PLACEMENT_3D('',#569,#440,#441);
#372=AXIS2_PLACEMENT_3D('',#573,#443,#444);
#373=AXIS2_PLACEMENT_3D('',#574,#445,#446);
#374=AXIS2_PLACEMENT_3D('',#575,#447,#448);
#375=AXIS2_PLACEMENT_3D('',#578,#449,#450);
#376=AXIS2_PLACEMENT_3D('',#579,#451,#452);
#377=AXIS2_PLACEMENT_3D('',#582,#455,#456);
#378=AXIS2_PLACEMENT_3D('',#583,#457,#458);
#379=AXIS2_PLACEMENT_3D('',#584,#459,#460);
#380=AXIS2_PLACEMENT_3D('',#585,#461,#462);
#381=AXIS2_PLACEMENT_3D('',#586,#463,#464);
#382=AXIS2_PLACEMENT_3D('',#590,#466,#467);
#383=AXIS2_PLACEMENT_3D('',#594,#469,#470);
#384=AXIS2_PLACEMENT_3D('',#595,#471,#472);
#385=AXIS2_PLACEMENT_3D('',#596,#473,#474);
#386=AXIS2_PLACEMENT_3D('',#597,#475,#476);
#387=AXIS2_PLACEMENT_3D('',#598,#477,#478);
#388=AXIS2_PLACEMENT_3D('',#599,#479,#480);
#389=AXIS2_PLACEMENT_3D('',#600,#481,#482);
#390=AXIS2_PLACEMENT_3D('',#601,#483,#484);
#391=AXIS2_PLACEMENT_3D('',#602,#485,#486);
#392=AXIS2_PLACEMENT_3D('',#603,#487,#488);
#393=AXIS2_PLACEMENT_3D('',#606,#489,#490);
#394=AXIS2_PLACEMENT_3D('',#607,#491,#492);
#395=AXIS2_PLACEMENT_3D('',#612,#495,#496);
#396=AXIS2_PLACEMENT_3D('',#613,#497,#498);
#397=AXIS2_PLACEMENT_3D('',#614,#499,#500);
#398=AXIS2_PLACEMENT_3D('',#615,#501,#502);
#399=AXIS2_PLACEMENT_3D('',#616,#503,#504);
#400=AXIS2_PLACEMENT_3D('',#617,#505,#506);
#401=AXIS2_PLACEMENT_3D('',#618,#507,#508);
#402=AXIS2_PLACEMENT_3D('',#619,#509,#510);
#403=DIRECTION('',(0.,0.,1.));
#404=DIRECTION('',(1.,0.,0.));
#405=DIRECTION('',(0.,0.,-1.));
#406=DIRECTION('',(-0.939692620785897,0.,0.3420201433257));
#407=DIRECTION('',(0.,0.,1.));
#408=DIRECTION('',(1.,0.,0.));
#409=DIRECTION('',(0.,0.,1.));
#410=DIRECTION('',(1.,0.,0.));
#411=DIRECTION('',(0.,0.,1.));
#412=DIRECTION('',(1.,0.,0.));
#413=DIRECTION('',(0.,0.,1.));
#414=DIRECTION('',(1.,0.,0.));
#415=DIRECTION('',(0.,0.,1.));
#416=DIRECTION('',(1.,0.,0.));
#417=DIRECTION('',(0.,0.,1.));
#418=DIRECTION('',(1.,0.,0.));
#419=DIRECTION('',(0.,0.,1.));
#420=DIRECTION('',(1.,0.,0.));
#421=DIRECTION('',(0.,0.,1.));
#422=DIRECTION('',(1.,0.,0.));
#423=DIRECTION('',(0.,0.,1.));
#424=DIRECTION('',(1.,0.,0.));
#425=DIRECTION('',(0.,0.,1.));
#426=DIRECTION('',(1.,0.,0.));
#427=DIRECTION('',(4.04402040567E-13,0.,-1.));
#428=DIRECTION('',(0.,0.,1.));
#429=DIRECTION('',(1.,0.,0.));
#430=DIRECTION('',(-4.04402040567E-13,0.,-1.));
#431=DIRECTION('',(0.,0.,-1.));
#432=DIRECTION('',(-1.,0.,0.));
#433=DIRECTION('',(0.,0.,1.));
#434=DIRECTION('',(-1.,0.,0.));
#435=DIRECTION('',(0.,0.,-1.));
#436=DIRECTION('',(-1.,0.,0.));
#437=DIRECTION('',(0.,0.,1.));
#438=DIRECTION('',(-1.,0.,0.));
#439=DIRECTION('',(0.,0.,-1.));
#440=DIRECTION('',(0.,0.,-1.));
#441=DIRECTION('',(-1.,0.,0.));
#442=DIRECTION('',(0.,0.,-1.));
#443=DIRECTION('',(0.,0.,1.));
#444=DIRECTION('',(1.,0.,0.));
#445=DIRECTION('',(0.,0.,1.));
#446=DIRECTION('',(-1.,0.,0.));
#447=DIRECTION('',(0.,0.,1.));
#448=DIRECTION('',(-1.,0.,0.));
#449=DIRECTION('',(0.,0.,1.));
#450=DIRECTION('',(1.,0.,0.));
#451=DIRECTION('',(0.,0.,1.));
#452=DIRECTION('',(-1.,0.,0.));
#453=DIRECTION('',(0.500000000000092,0.,0.866025403784386));
#454=DIRECTION('',(-0.500000000000092,0.,0.866025403784386));
#455=DIRECTION('',(0.,0.,-1.));
#456=DIRECTION('',(1.,0.,1.17082711992853E-17));
#457=DIRECTION('',(0.,0.,1.));
#458=DIRECTION('',(-1.,0.,0.));
#459=DIRECTION('',(0.,0.,-1.));
#460=DIRECTION('',(1.,0.,1.17082711992853E-17));
#461=DIRECTION('',(0.,0.,-1.));
#462=DIRECTION('',(1.,0.,0.));
#463=DIRECTION('',(0.,0.,1.));
#464=DIRECTION('',(-1.,0.,0.));
#465=DIRECTION('',(-0.0436193873653681,0.,0.999048221581856));
#466=DIRECTION('',(0.,0.,-1.));
#467=DIRECTION('',(1.,0.,0.));
#468=DIRECTION('',(0.0436193873653681,0.,0.999048221581856));
#469=DIRECTION('',(0.,0.,1.));
#470=DIRECTION('',(-1.,0.,0.));
#471=DIRECTION('',(0.,0.,1.));
#472=DIRECTION('',(-1.,0.,1.17968843333058E-16));
#473=DIRECTION('',(0.,1.,0.));
#474=DIRECTION('',(-0.33481162992499,0.,0.942285080252772));
#475=DIRECTION('',(0.,-1.,0.));
#476=DIRECTION('',(0.33481162992499,0.,0.942285080252772));
#477=DIRECTION('',(0.,0.,1.));
#478=DIRECTION('',(0.999999999923528,1.23670675631403E-5,0.));
#479=DIRECTION('',(0.,0.,1.));
#480=DIRECTION('',(1.,0.,0.));
#481=DIRECTION('',(0.,0.,1.));
#482=DIRECTION('',(-0.999999999921471,-1.25322526182296E-5,0.));
#483=DIRECTION('',(0.,0.,-1.));
#484=DIRECTION('',(-1.,0.,0.));
#485=DIRECTION('',(0.,0.,1.));
#486=DIRECTION('',(-1.,0.,4.71875373332312E-16));
#487=DIRECTION('',(0.,0.,-1.));
#488=DIRECTION('',(-1.,0.,0.));
#489=DIRECTION('',(0.,0.,-1.));
#490=DIRECTION('',(1.,0.,0.));
#491=DIRECTION('',(0.,0.,1.));
#492=DIRECTION('',(0.,-1.,0.));
#493=DIRECTION('',(0.,0.,-1.));
#494=DIRECTION('',(0.,0.,-1.));
#495=DIRECTION('',(0.,0.,1.));
#496=DIRECTION('',(1.,0.,0.));
#497=DIRECTION('',(0.,0.,1.));
#498=DIRECTION('',(-1.,0.,0.));
#499=DIRECTION('',(0.,1.,0.));
#500=DIRECTION('',(0.479699502931169,0.,0.877432838961249));
#501=DIRECTION('',(0.,-1.,0.));
#502=DIRECTION('',(-0.479699502950411,0.,0.877432838950719));
#503=DIRECTION('',(0.,0.,1.));
#504=DIRECTION('',(-0.999999999909729,-1.34365581400104E-5,0.));
#505=DIRECTION('',(0.,0.,1.));
#506=DIRECTION('',(-1.,0.,0.));
#507=DIRECTION('',(0.,0.,1.));
#508=DIRECTION('',(0.999999999912108,1.32583480466601E-5,0.));
#509=DIRECTION('',(0.,0.,1.));
#510=DIRECTION('',(-1.,0.,0.));
#511=CARTESIAN_POINT('',(0.,0.,0.));
#512=CARTESIAN_POINT('',(-14.88313,0.,-155.4124892768));
#513=CARTESIAN_POINT('',(0.,0.,-143.4998892768));
#514=CARTESIAN_POINT('',(0.,0.,-160.8295055895));
#515=CARTESIAN_POINT('',(-14.88313,0.,-155.4124892768));
#516=CARTESIAN_POINT('',(-14.88313,0.,-143.4998892768));
#517=CARTESIAN_POINT('',(0.,0.,-30.1));
#518=CARTESIAN_POINT('',(0.,0.,-30.1));
#519=CARTESIAN_POINT('',(0.,0.,-30.1));
#520=CARTESIAN_POINT('',(0.,0.,-160.82950559));
#521=CARTESIAN_POINT('',(0.,0.,0.));
#522=CARTESIAN_POINT('',(0.,0.,-30.1));
#523=CARTESIAN_POINT('',(0.,0.,-30.1));
#524=CARTESIAN_POINT('',(14.88312999999,-3.64531550315634E-15,-155.412503279428));
#525=CARTESIAN_POINT('',(14.88312999999,-3.89639432253254,-155.412503279428));
#526=CARTESIAN_POINT('',(13.2791289959134,-7.76879530063435,-155.412503279428));
#527=CARTESIAN_POINT('',(7.76879530063435,-13.2791289959134,-155.412503279428));
#528=CARTESIAN_POINT('',(3.89639432253253,-14.88312999999,-155.412503279428));
#529=CARTESIAN_POINT('',(-3.89639432253254,-14.88312999999,-155.412503279428));
#530=CARTESIAN_POINT('',(-7.76879530063435,-13.2791289959134,-155.412503279428));
#531=CARTESIAN_POINT('',(-13.2791289959134,-7.76879530063435,-155.412503279428));
#532=CARTESIAN_POINT('',(-14.88312999999,-3.89639432253254,-155.412503279428));
#533=CARTESIAN_POINT('',(-14.88312999999,1.82265775157817E-15,-155.412503279428));
#534=CARTESIAN_POINT('',(14.88313,0.,-155.4124892768));
#535=CARTESIAN_POINT('',(-14.88312999999,0.,-155.4124892768));
#536=CARTESIAN_POINT('',(0.,0.,-160.829491015289));
#537=CARTESIAN_POINT('',(-4.96104483344322,6.07552767570275E-16,-159.023827890675));
#538=CARTESIAN_POINT('',(-9.92208966688643,1.21510553514055E-15,-157.218164766061));
#539=CARTESIAN_POINT('',(-14.8831345003296,1.82265830271082E-15,-155.412501641447));
#540=CARTESIAN_POINT('',(0.,0.,-160.8295055895));
#541=CARTESIAN_POINT('',(0.,0.,-160.829491015289));
#542=CARTESIAN_POINT('',(4.96104333333345,0.,-159.023828436668));
#543=CARTESIAN_POINT('',(9.9220866666669,0.,-157.218165858046));
#544=CARTESIAN_POINT('',(14.8831300000003,0.,-155.412503279424));
#545=CARTESIAN_POINT('',(0.,0.,-158.06682727));
#546=CARTESIAN_POINT('',(-14.88312999999,1.82265775157817E-15,-155.412503279428));
#547=CARTESIAN_POINT('',(-14.88312999999,3.89639432253254,-155.412503279428));
#548=CARTESIAN_POINT('',(-13.2791289959134,7.76879530063436,-155.412503279428));
#549=CARTESIAN_POINT('',(-7.76879530063435,13.2791289959134,-155.412503279428));
#550=CARTESIAN_POINT('',(-3.89639432253254,14.88312999999,-155.412503279428));
#551=CARTESIAN_POINT('',(3.89639432253254,14.88312999999,-155.412503279428));
#552=CARTESIAN_POINT('',(7.76879530063435,13.2791289959134,-155.412503279428));
#553=CARTESIAN_POINT('',(13.2791289959134,7.76879530063435,-155.412503279428));
#554=CARTESIAN_POINT('',(14.88312999999,3.89639432253254,-155.412503279428));
#555=CARTESIAN_POINT('',(14.88312999999,1.82265775157817E-15,-155.412503279428));
#556=CARTESIAN_POINT('',(0.,0.,-158.06682727));
#557=CARTESIAN_POINT('',(-14.88313,0.,-143.4998892768));
#558=CARTESIAN_POINT('',(-14.88313,0.,-143.4998892768));
#559=CARTESIAN_POINT('',(0.,0.,-143.4998892768));
#560=CARTESIAN_POINT('',(14.88313,0.,-143.4998892768));
#561=CARTESIAN_POINT('',(14.88313,0.,-143.4998892768));
#562=CARTESIAN_POINT('',(0.,0.,-23.563524720524));
#563=CARTESIAN_POINT('',(0.,0.,-143.4998892768));
#564=CARTESIAN_POINT('',(0.,0.,-23.563524720524));
#565=CARTESIAN_POINT('',(0.,0.,-143.4998892768));
#566=CARTESIAN_POINT('',(15.875,0.,-30.100000001349));
#567=CARTESIAN_POINT('',(15.875,0.,28.2));
#568=CARTESIAN_POINT('',(15.875,0.,-30.1000000013589));
#569=CARTESIAN_POINT('',(0.,0.,-30.1000000013589));
#570=CARTESIAN_POINT('',(-15.875,8.497753070367E-14,-30.1000000013389));
#571=CARTESIAN_POINT('',(-15.875,4.165122048826E-14,-30.100000001349));
#572=CARTESIAN_POINT('',(-15.875,0.,28.2));
#573=CARTESIAN_POINT('',(0.,0.,28.2));
#574=CARTESIAN_POINT('',(0.,0.,-211.615));
#575=CARTESIAN_POINT('',(0.,0.,30.2));
#576=CARTESIAN_POINT('',(-14.72029946162,0.,30.2));
#577=CARTESIAN_POINT('',(14.72029946162,0.,30.2));
#578=CARTESIAN_POINT('',(0.,0.,30.2));
#579=CARTESIAN_POINT('',(0.,0.,30.2));
#580=CARTESIAN_POINT('',(-14.72029946162,0.,30.2));
#581=CARTESIAN_POINT('',(14.72029946162,0.,30.2));
#582=CARTESIAN_POINT('',(0.,0.,29.2));
#583=CARTESIAN_POINT('',(0.,0.,28.2));
#584=CARTESIAN_POINT('',(0.,0.,29.2));
#585=CARTESIAN_POINT('',(0.,0.,-30.1000000013389));
#586=CARTESIAN_POINT('',(0.,0.,-211.615));
#587=CARTESIAN_POINT('',(-14.70812019883,-3.2488870511E-14,-51.10000000221));
#588=CARTESIAN_POINT('',(-14.70812019883,-6.428709547136E-14,-51.1000000022));
#589=CARTESIAN_POINT('',(-15.60930536334,0.,-30.4594662784995));
#590=CARTESIAN_POINT('',(0.,0.,-51.1000000022));
#591=CARTESIAN_POINT('',(14.70812019882,0.,-51.10000000223));
#592=CARTESIAN_POINT('',(14.70812019883,0.,-51.10000000221));
#593=CARTESIAN_POINT('',(15.60930536334,0.,-30.4594662784995));
#594=CARTESIAN_POINT('',(0.,0.,-30.4594662784995));
#595=CARTESIAN_POINT('',(0.,0.,-40.77973314035));
#596=CARTESIAN_POINT('',(16.00892465197,-1.244992065171E-14,-30.47691403346));
#597=CARTESIAN_POINT('',(-16.00892465197,8.569441814141E-14,-30.47691403344));
#598=CARTESIAN_POINT('',(0.,0.,-30.47691403344));
#599=CARTESIAN_POINT('',(0.,0.,-30.4594662785196));
#600=CARTESIAN_POINT('',(0.,0.,-30.47691403346));
#601=CARTESIAN_POINT('',(0.,0.,-51.10000000223));
#602=CARTESIAN_POINT('',(0.,0.,-40.77973314037));
#603=CARTESIAN_POINT('',(0.,0.,-143.5));
#604=CARTESIAN_POINT('',(-14.5,0.,-143.5));
#605=CARTESIAN_POINT('',(14.5,0.,-143.5));
#606=CARTESIAN_POINT('',(0.,0.,-143.5));
#607=CARTESIAN_POINT('',(0.,0.,-143.5));
#608=CARTESIAN_POINT('',(14.5,0.,-143.5));
#609=CARTESIAN_POINT('',(14.5,0.,-51.45097313778));
#610=CARTESIAN_POINT('',(-14.5,0.,-143.5));
#611=CARTESIAN_POINT('',(-14.5,0.,-51.45097313778));
#612=CARTESIAN_POINT('',(0.,0.,-51.45097313781));
#613=CARTESIAN_POINT('',(0.,0.,-211.615));
#614=CARTESIAN_POINT('',(-14.9,-6.51257747817E-14,-51.45097313778));
#615=CARTESIAN_POINT('',(14.9,0.,-51.45097313781));
#616=CARTESIAN_POINT('',(0.,0.,-51.45097313781));
#617=CARTESIAN_POINT('',(0.,0.,-51.45097313778));
#618=CARTESIAN_POINT('',(0.,0.,-51.45097313778));
#619=CARTESIAN_POINT('',(0.,0.,-211.615));
#620=MECHANICAL_DESIGN_GEOMETRIC_PRESENTATION_REPRESENTATION('',(#322,#323,
#324,#325,#326,#327,#328,#329,#330,#331,#332,#333,#334,#335),#621);
#621=(
GEOMETRIC_REPRESENTATION_CONTEXT(3)
GLOBAL_UNCERTAINTY_ASSIGNED_CONTEXT((#622))
GLOBAL_UNIT_ASSIGNED_CONTEXT((#628,#624,#623))
REPRESENTATION_CONTEXT('TAWSN0112_ID1_1719','TOP_LEVEL_ASSEMBLY_PART')
);
#622=UNCERTAINTY_MEASURE_WITH_UNIT(LENGTH_MEASURE(0.0508),#628,
'DISTANCE_ACCURACY_VALUE','Maximum Tolerance applied to model');
#623=(
NAMED_UNIT(*)
SI_UNIT($,.STERADIAN.)
SOLID_ANGLE_UNIT()
);
#624=(
CONVERSION_BASED_UNIT('DEGREE',#626)
NAMED_UNIT(#625)
PLANE_ANGLE_UNIT()
);
#625=DIMENSIONAL_EXPONENTS(0.,0.,0.,0.,0.,0.,0.);
#626=PLANE_ANGLE_MEASURE_WITH_UNIT(PLANE_ANGLE_MEASURE(0.0174532925),#627);
#627=(
NAMED_UNIT(*)
PLANE_ANGLE_UNIT()
SI_UNIT($,.RADIAN.)
);
#628=(
LENGTH_UNIT()
NAMED_UNIT(*)
SI_UNIT(.MILLI.,.METRE.)
);
ENDSEC;
END-ISO-10303-21;
